ISO-10303-21;
HEADER;
/* Generated by software containing ST-Developer
 * from STEP Tools, Inc. (www.steptools.com) 
 */

FILE_DESCRIPTION(
/* description */ (''),
/* implementation_level */ '2;1');

FILE_NAME(
/* name */ 'C:\\Users\\mdebiase\\Desktop\\baricentro\\MIV012.ipt.stp',
/* time_stamp */ '2014-05-27T15:23:59+02:00',
/* author */ ('bfaro'),
/* organization */ (''),
/* preprocessor_version */ 'ST-DEVELOPER v15.2',
/* originating_system */ 'Autodesk Inventor 2014',
/* authorisation */ '');

FILE_SCHEMA (('AUTOMOTIVE_DESIGN { 1 0 10303 214 3 1 1 }'));
ENDSEC;

DATA;
#10=SHAPE_REPRESENTATION_RELATIONSHIP('SRR','None',#269,#11);
#11=ADVANCED_BREP_SHAPE_REPRESENTATION($,(#146),#260);
#12=STYLED_ITEM($,(#277),#146);
#13=CYLINDRICAL_SURFACE($,#153,6.);
#14=CYLINDRICAL_SURFACE($,#160,6.);
#15=CYLINDRICAL_SURFACE($,#164,8.5);
#16=CYLINDRICAL_SURFACE($,#169,5.5);
#17=PLANE($,#151);
#18=PLANE($,#158);
#19=PLANE($,#167);
#20=PLANE($,#171);
#21=FACE_BOUND($,#46,.T.);
#22=FACE_BOUND($,#48,.T.);
#23=FACE_BOUND($,#50,.T.);
#24=FACE_BOUND($,#52,.T.);
#25=FACE_BOUND($,#54,.T.);
#26=FACE_BOUND($,#56,.T.);
#27=FACE_BOUND($,#58,.T.);
#28=FACE_BOUND($,#60,.T.);
#29=FACE_BOUND($,#62,.T.);
#30=FACE_BOUND($,#63,.T.);
#31=FACE_BOUND($,#64,.T.);
#32=FACE_BOUND($,#66,.T.);
#33=FACE_BOUND($,#68,.T.);
#34=FACE_OUTER_BOUND($,#45,.T.);
#35=FACE_OUTER_BOUND($,#47,.T.);
#36=FACE_OUTER_BOUND($,#49,.T.);
#37=FACE_OUTER_BOUND($,#51,.T.);
#38=FACE_OUTER_BOUND($,#53,.T.);
#39=FACE_OUTER_BOUND($,#55,.T.);
#40=FACE_OUTER_BOUND($,#57,.T.);
#41=FACE_OUTER_BOUND($,#59,.T.);
#42=FACE_OUTER_BOUND($,#61,.T.);
#43=FACE_OUTER_BOUND($,#65,.T.);
#44=FACE_OUTER_BOUND($,#67,.T.);
#45=EDGE_LOOP($,(#105));
#46=EDGE_LOOP($,(#106));
#47=EDGE_LOOP($,(#107));
#48=EDGE_LOOP($,(#108));
#49=EDGE_LOOP($,(#109));
#50=EDGE_LOOP($,(#110));
#51=EDGE_LOOP($,(#111));
#52=EDGE_LOOP($,(#112));
#53=EDGE_LOOP($,(#113));
#54=EDGE_LOOP($,(#114));
#55=EDGE_LOOP($,(#115));
#56=EDGE_LOOP($,(#116));
#57=EDGE_LOOP($,(#117));
#58=EDGE_LOOP($,(#118));
#59=EDGE_LOOP($,(#119));
#60=EDGE_LOOP($,(#120));
#61=EDGE_LOOP($,(#121));
#62=EDGE_LOOP($,(#122));
#63=EDGE_LOOP($,(#123));
#64=EDGE_LOOP($,(#124));
#65=EDGE_LOOP($,(#125));
#66=EDGE_LOOP($,(#126));
#67=EDGE_LOOP($,(#127));
#68=EDGE_LOOP($,(#128));
#69=CIRCLE($,#149,6.5);
#70=CIRCLE($,#150,6.);
#71=CIRCLE($,#152,8.);
#72=CIRCLE($,#154,6.);
#73=CIRCLE($,#156,6.);
#74=CIRCLE($,#157,6.5);
#75=CIRCLE($,#159,8.);
#76=CIRCLE($,#161,6.);
#77=CIRCLE($,#163,8.5);
#78=CIRCLE($,#165,8.5);
#79=CIRCLE($,#168,5.5);
#80=CIRCLE($,#170,5.5);
#81=VERTEX_POINT($,#224);
#82=VERTEX_POINT($,#226);
#83=VERTEX_POINT($,#229);
#84=VERTEX_POINT($,#232);
#85=VERTEX_POINT($,#235);
#86=VERTEX_POINT($,#237);
#87=VERTEX_POINT($,#240);
#88=VERTEX_POINT($,#243);
#89=VERTEX_POINT($,#246);
#90=VERTEX_POINT($,#249);
#91=VERTEX_POINT($,#253);
#92=VERTEX_POINT($,#256);
#93=EDGE_CURVE($,#81,#81,#69,.T.);
#94=EDGE_CURVE($,#82,#82,#70,.T.);
#95=EDGE_CURVE($,#83,#83,#71,.T.);
#96=EDGE_CURVE($,#84,#84,#72,.T.);
#97=EDGE_CURVE($,#85,#85,#73,.T.);
#98=EDGE_CURVE($,#86,#86,#74,.T.);
#99=EDGE_CURVE($,#87,#87,#75,.T.);
#100=EDGE_CURVE($,#88,#88,#76,.T.);
#101=EDGE_CURVE($,#89,#89,#77,.T.);
#102=EDGE_CURVE($,#90,#90,#78,.T.);
#103=EDGE_CURVE($,#91,#91,#79,.T.);
#104=EDGE_CURVE($,#92,#92,#80,.T.);
#105=ORIENTED_EDGE($,*,*,#93,.T.);
#106=ORIENTED_EDGE($,*,*,#94,.T.);
#107=ORIENTED_EDGE($,*,*,#95,.F.);
#108=ORIENTED_EDGE($,*,*,#93,.F.);
#109=ORIENTED_EDGE($,*,*,#96,.F.);
#110=ORIENTED_EDGE($,*,*,#94,.F.);
#111=ORIENTED_EDGE($,*,*,#97,.T.);
#112=ORIENTED_EDGE($,*,*,#98,.T.);
#113=ORIENTED_EDGE($,*,*,#99,.F.);
#114=ORIENTED_EDGE($,*,*,#98,.F.);
#115=ORIENTED_EDGE($,*,*,#100,.T.);
#116=ORIENTED_EDGE($,*,*,#97,.F.);
#117=ORIENTED_EDGE($,*,*,#99,.T.);
#118=ORIENTED_EDGE($,*,*,#101,.T.);
#119=ORIENTED_EDGE($,*,*,#102,.F.);
#120=ORIENTED_EDGE($,*,*,#101,.F.);
#121=ORIENTED_EDGE($,*,*,#102,.T.);
#122=ORIENTED_EDGE($,*,*,#95,.T.);
#123=ORIENTED_EDGE($,*,*,#103,.F.);
#124=ORIENTED_EDGE($,*,*,#96,.T.);
#125=ORIENTED_EDGE($,*,*,#104,.F.);
#126=ORIENTED_EDGE($,*,*,#103,.T.);
#127=ORIENTED_EDGE($,*,*,#100,.F.);
#128=ORIENTED_EDGE($,*,*,#104,.T.);
#129=TOROIDAL_SURFACE($,#148,6.5,0.5);
#130=TOROIDAL_SURFACE($,#155,6.5,0.5);
#131=TOROIDAL_SURFACE($,#162,8.,0.5);
#132=TOROIDAL_SURFACE($,#166,8.,0.5);
#133=ADVANCED_FACE($,(#34,#21),#129,.T.);
#134=ADVANCED_FACE($,(#35,#22),#17,.T.);
#135=ADVANCED_FACE($,(#36,#23),#13,.F.);
#136=ADVANCED_FACE($,(#37,#24),#130,.T.);
#137=ADVANCED_FACE($,(#38,#25),#18,.T.);
#138=ADVANCED_FACE($,(#39,#26),#14,.F.);
#139=ADVANCED_FACE($,(#40,#27),#131,.T.);
#140=ADVANCED_FACE($,(#41,#28),#15,.T.);
#141=ADVANCED_FACE($,(#42,#29),#132,.T.);
#142=ADVANCED_FACE($,(#30,#31),#19,.T.);
#143=ADVANCED_FACE($,(#43,#32),#16,.F.);
#144=ADVANCED_FACE($,(#44,#33),#20,.T.);
#145=CLOSED_SHELL($,(#133,#134,#135,#136,#137,#138,#139,#140,#141,#142,
#143,#144));
#146=MANIFOLD_SOLID_BREP('Solido1',#145);
#147=AXIS2_PLACEMENT_3D('placement',#222,#172,#173);
#148=AXIS2_PLACEMENT_3D($,#223,#174,#175);
#149=AXIS2_PLACEMENT_3D($,#225,#176,#177);
#150=AXIS2_PLACEMENT_3D($,#227,#178,#179);
#151=AXIS2_PLACEMENT_3D($,#228,#180,#181);
#152=AXIS2_PLACEMENT_3D($,#230,#182,#183);
#153=AXIS2_PLACEMENT_3D($,#231,#184,#185);
#154=AXIS2_PLACEMENT_3D($,#233,#186,#187);
#155=AXIS2_PLACEMENT_3D($,#234,#188,#189);
#156=AXIS2_PLACEMENT_3D($,#236,#190,#191);
#157=AXIS2_PLACEMENT_3D($,#238,#192,#193);
#158=AXIS2_PLACEMENT_3D($,#239,#194,#195);
#159=AXIS2_PLACEMENT_3D($,#241,#196,#197);
#160=AXIS2_PLACEMENT_3D($,#242,#198,#199);
#161=AXIS2_PLACEMENT_3D($,#244,#200,#201);
#162=AXIS2_PLACEMENT_3D($,#245,#202,#203);
#163=AXIS2_PLACEMENT_3D($,#247,#204,#205);
#164=AXIS2_PLACEMENT_3D($,#248,#206,#207);
#165=AXIS2_PLACEMENT_3D($,#250,#208,#209);
#166=AXIS2_PLACEMENT_3D($,#251,#210,#211);
#167=AXIS2_PLACEMENT_3D($,#252,#212,#213);
#168=AXIS2_PLACEMENT_3D($,#254,#214,#215);
#169=AXIS2_PLACEMENT_3D($,#255,#216,#217);
#170=AXIS2_PLACEMENT_3D($,#257,#218,#219);
#171=AXIS2_PLACEMENT_3D($,#258,#220,#221);
#172=DIRECTION('axis',(0.,0.,1.));
#173=DIRECTION('refdir',(1.,0.,0.));
#174=DIRECTION('center_axis',(0.,-1.,0.));
#175=DIRECTION('ref_axis',(0.,0.,-1.));
#176=DIRECTION('center_axis',(0.,-1.,0.));
#177=DIRECTION('ref_axis',(1.22464679914735E-016,0.,1.));
#178=DIRECTION('center_axis',(0.,1.,0.));
#179=DIRECTION('ref_axis',(1.22464679914735E-016,0.,1.));
#180=DIRECTION('center_axis',(0.,-1.,0.));
#181=DIRECTION('ref_axis',(0.,0.,-1.));
#182=DIRECTION('center_axis',(0.,1.,0.));
#183=DIRECTION('ref_axis',(1.22464679914735E-016,0.,1.));
#184=DIRECTION('center_axis',(0.,-1.,0.));
#185=DIRECTION('ref_axis',(0.,0.,-1.));
#186=DIRECTION('center_axis',(0.,-1.,0.));
#187=DIRECTION('ref_axis',(0.,0.,-1.));
#188=DIRECTION('center_axis',(0.,-1.,0.));
#189=DIRECTION('ref_axis',(0.,0.,-1.));
#190=DIRECTION('center_axis',(0.,-1.,0.));
#191=DIRECTION('ref_axis',(1.22464679914735E-016,0.,1.));
#192=DIRECTION('center_axis',(0.,1.,0.));
#193=DIRECTION('ref_axis',(1.22464679914735E-016,0.,1.));
#194=DIRECTION('center_axis',(0.,1.,0.));
#195=DIRECTION('ref_axis',(0.,0.,1.));
#196=DIRECTION('center_axis',(0.,-1.,0.));
#197=DIRECTION('ref_axis',(1.22464679914735E-016,0.,1.));
#198=DIRECTION('center_axis',(0.,-1.,0.));
#199=DIRECTION('ref_axis',(0.,0.,-1.));
#200=DIRECTION('center_axis',(0.,-1.,0.));
#201=DIRECTION('ref_axis',(0.,0.,-1.));
#202=DIRECTION('center_axis',(0.,-1.,0.));
#203=DIRECTION('ref_axis',(0.,0.,-1.));
#204=DIRECTION('center_axis',(0.,1.,0.));
#205=DIRECTION('ref_axis',(1.22464679914735E-016,0.,1.));
#206=DIRECTION('center_axis',(0.,-1.,0.));
#207=DIRECTION('ref_axis',(0.,0.,-1.));
#208=DIRECTION('center_axis',(0.,-1.,0.));
#209=DIRECTION('ref_axis',(1.22464679914735E-016,0.,1.));
#210=DIRECTION('center_axis',(0.,-1.,0.));
#211=DIRECTION('ref_axis',(0.,0.,-1.));
#212=DIRECTION('center_axis',(0.,-1.,0.));
#213=DIRECTION('ref_axis',(0.,0.,-1.));
#214=DIRECTION('center_axis',(0.,-1.,0.));
#215=DIRECTION('ref_axis',(0.,0.,-1.));
#216=DIRECTION('center_axis',(0.,-1.,0.));
#217=DIRECTION('ref_axis',(0.,0.,-1.));
#218=DIRECTION('center_axis',(0.,-1.,0.));
#219=DIRECTION('ref_axis',(0.,0.,-1.));
#220=DIRECTION('center_axis',(0.,1.,0.));
#221=DIRECTION('ref_axis',(0.,0.,1.));
#222=CARTESIAN_POINT('',(0.,0.,0.));
#223=CARTESIAN_POINT('Origin',(0.,-13.,0.));
#224=CARTESIAN_POINT('',(0.,-13.5,-6.5));
#225=CARTESIAN_POINT('Origin',(0.,-13.5,0.));
#226=CARTESIAN_POINT('',(-1.46957615897682E-015,-13.,-6.));
#227=CARTESIAN_POINT('Origin',(0.,-13.,0.));
#228=CARTESIAN_POINT('Origin',(0.,-13.5,-7.25));
#229=CARTESIAN_POINT('',(-1.95943487863577E-015,-13.5,-8.));
#230=CARTESIAN_POINT('Origin',(0.,-13.5,0.));
#231=CARTESIAN_POINT('Origin',(0.,-7.5,0.));
#232=CARTESIAN_POINT('',(0.,-1.5,-6.));
#233=CARTESIAN_POINT('Origin',(0.,-1.5,0.));
#234=CARTESIAN_POINT('Origin',(0.,13.,0.));
#235=CARTESIAN_POINT('',(0.,13.,-6.));
#236=CARTESIAN_POINT('Origin',(0.,13.,0.));
#237=CARTESIAN_POINT('',(-1.59204083889156E-015,13.5,-6.5));
#238=CARTESIAN_POINT('Origin',(0.,13.5,0.));
#239=CARTESIAN_POINT('Origin',(0.,13.5,-7.25));
#240=CARTESIAN_POINT('',(0.,13.5,-8.));
#241=CARTESIAN_POINT('Origin',(0.,13.5,0.));
#242=CARTESIAN_POINT('Origin',(0.,7.5,0.));
#243=CARTESIAN_POINT('',(0.,1.5,-6.));
#244=CARTESIAN_POINT('Origin',(0.,1.5,0.));
#245=CARTESIAN_POINT('Origin',(0.,13.,0.));
#246=CARTESIAN_POINT('',(-2.0818995585505E-015,13.,-8.5));
#247=CARTESIAN_POINT('Origin',(0.,13.,0.));
#248=CARTESIAN_POINT('Origin',(0.,2.22044604925031E-015,0.));
#249=CARTESIAN_POINT('',(0.,-13.,-8.5));
#250=CARTESIAN_POINT('Origin',(0.,-13.,0.));
#251=CARTESIAN_POINT('Origin',(0.,-13.,0.));
#252=CARTESIAN_POINT('Origin',(0.,-1.5,-5.75));
#253=CARTESIAN_POINT('',(0.,-1.5,-5.5));
#254=CARTESIAN_POINT('Origin',(0.,-1.5,0.));
#255=CARTESIAN_POINT('Origin',(0.,2.22044604925031E-015,0.));
#256=CARTESIAN_POINT('',(0.,1.5,-5.5));
#257=CARTESIAN_POINT('Origin',(0.,1.5,0.));
#258=CARTESIAN_POINT('Origin',(0.,1.5,-5.75));
#259=UNCERTAINTY_MEASURE_WITH_UNIT(LENGTH_MEASURE(0.01),#261,
'DISTANCE_ACCURACY_VALUE',
'Maximum model space distance between geometric entities at asserted c
onnectivities');
#260=(
GEOMETRIC_REPRESENTATION_CONTEXT(3)
GLOBAL_UNCERTAINTY_ASSIGNED_CONTEXT((#259))
GLOBAL_UNIT_ASSIGNED_CONTEXT((#261,#264,#262))
REPRESENTATION_CONTEXT('','3D')
);
#261=(
LENGTH_UNIT()
NAMED_UNIT(*)
SI_UNIT(.MILLI.,.METRE.)
);
#262=(
NAMED_UNIT(*)
SI_UNIT($,.STERADIAN.)
SOLID_ANGLE_UNIT()
);
#263=DIMENSIONAL_EXPONENTS(0.,0.,0.,0.,0.,0.,0.);
#264=(
CONVERSION_BASED_UNIT('degree',#266)
NAMED_UNIT(#263)
PLANE_ANGLE_UNIT()
);
#265=(
NAMED_UNIT(*)
PLANE_ANGLE_UNIT()
SI_UNIT($,.RADIAN.)
);
#266=PLANE_ANGLE_MEASURE_WITH_UNIT(PLANE_ANGLE_MEASURE(0.01745329252),#265);
#267=SHAPE_DEFINITION_REPRESENTATION(#268,#269);
#268=PRODUCT_DEFINITION_SHAPE('',$,#271);
#269=SHAPE_REPRESENTATION('',(#147),#260);
#270=PRODUCT_DEFINITION_CONTEXT('3D Mechanical Parts',#274,'design');
#271=PRODUCT_DEFINITION('MIV012','MIV012',#272,#270);
#272=PRODUCT_DEFINITION_FORMATION('',$,#276);
#273=APPLICATION_PROTOCOL_DEFINITION('international standard',
'automotive_design',2009,#274);
#274=APPLICATION_CONTEXT(
'Core Data for Automotive Mechanical Design Process');
#275=PRODUCT_CONTEXT('3D Mechanical Parts',#274,'mechanical');
#276=PRODUCT('MIV012','MIV012',$,(#275));
#277=PRESENTATION_STYLE_ASSIGNMENT((#278));
#278=SURFACE_STYLE_USAGE(.BOTH.,#279);
#279=SURFACE_SIDE_STYLE($,(#280));
#280=SURFACE_STYLE_FILL_AREA(#281);
#281=FILL_AREA_STYLE($,(#282));
#282=FILL_AREA_STYLE_COLOUR($,#283);
#283=COLOUR_RGB('',0.509803921568627,0.509803921568627,0.588235294117647);
ENDSEC;
END-ISO-10303-21;
