ISO-10303-21;
HEADER;
/* Generated by software containing ST-Developer
 * from STEP Tools, Inc. (www.steptools.com) 
 */

FILE_DESCRIPTION(
/* description */ (''),
/* implementation_level */ '2;1');

FILE_NAME(
/* name */ 
'Q:\\Ric010\\FF7\\FIPlastiCAD\\FIP\\Lavoro\\PVC Fittings\\PVC Fittings
 STEP\\NFV\\NFV400.ipt.stp',
/* time_stamp */ '2013-10-01T14:48:17+02:00',
/* author */ ('bfaro'),
/* organization */ (''),
/* preprocessor_version */ 'ST-DEVELOPER v15.2',
/* originating_system */ 'Autodesk Inventor 2014',
/* authorisation */ '');

FILE_SCHEMA (('AUTOMOTIVE_DESIGN { 1 0 10303 214 3 1 1 }'));
ENDSEC;

DATA;
#10=SHAPE_REPRESENTATION_RELATIONSHIP('SRR','None',#425,#11);
#11=ADVANCED_BREP_SHAPE_REPRESENTATION($,(#256),#416);
#12=LINE($,#368,#36);
#13=LINE($,#370,#37);
#14=LINE($,#372,#38);
#15=LINE($,#373,#39);
#16=LINE($,#376,#40);
#17=LINE($,#378,#41);
#18=LINE($,#379,#42);
#19=LINE($,#382,#43);
#20=LINE($,#384,#44);
#21=LINE($,#385,#45);
#22=LINE($,#388,#46);
#23=LINE($,#390,#47);
#24=LINE($,#391,#48);
#25=LINE($,#394,#49);
#26=LINE($,#396,#50);
#27=LINE($,#397,#51);
#28=LINE($,#400,#52);
#29=LINE($,#402,#53);
#30=LINE($,#403,#54);
#31=LINE($,#406,#55);
#32=LINE($,#408,#56);
#33=LINE($,#409,#57);
#34=LINE($,#411,#58);
#35=LINE($,#412,#59);
#36=VECTOR($,#305,49.7056274847714);
#37=VECTOR($,#306,19.);
#38=VECTOR($,#307,49.7056274847714);
#39=VECTOR($,#308,19.);
#40=VECTOR($,#311,49.7056274847714);
#41=VECTOR($,#312,19.);
#42=VECTOR($,#313,49.7056274847714);
#43=VECTOR($,#316,49.7056274847714);
#44=VECTOR($,#317,19.);
#45=VECTOR($,#318,49.7056274847714);
#46=VECTOR($,#321,49.7056274847714);
#47=VECTOR($,#322,19.);
#48=VECTOR($,#323,49.7056274847714);
#49=VECTOR($,#326,49.7056274847714);
#50=VECTOR($,#327,19.);
#51=VECTOR($,#328,49.7056274847714);
#52=VECTOR($,#331,49.7056274847714);
#53=VECTOR($,#332,19.);
#54=VECTOR($,#333,49.7056274847714);
#55=VECTOR($,#336,49.7056274847714);
#56=VECTOR($,#337,19.);
#57=VECTOR($,#338,49.7056274847714);
#58=VECTOR($,#341,49.7056274847714);
#59=VECTOR($,#342,49.7056274847714);
#60=PLANE($,#267);
#61=PLANE($,#268);
#62=PLANE($,#269);
#63=PLANE($,#270);
#64=PLANE($,#271);
#65=PLANE($,#272);
#66=PLANE($,#273);
#67=PLANE($,#274);
#68=PLANE($,#275);
#69=PLANE($,#276);
#70=PLANE($,#277);
#71=PLANE($,#278);
#72=FACE_BOUND($,#95,.T.);
#73=FACE_BOUND($,#97,.T.);
#74=FACE_BOUND($,#99,.T.);
#75=FACE_BOUND($,#101,.T.);
#76=FACE_BOUND($,#103,.T.);
#77=FACE_BOUND($,#113,.T.);
#78=FACE_BOUND($,#115,.T.);
#79=FACE_OUTER_BOUND($,#94,.T.);
#80=FACE_OUTER_BOUND($,#96,.T.);
#81=FACE_OUTER_BOUND($,#98,.T.);
#82=FACE_OUTER_BOUND($,#100,.T.);
#83=FACE_OUTER_BOUND($,#102,.T.);
#84=FACE_OUTER_BOUND($,#104,.T.);
#85=FACE_OUTER_BOUND($,#105,.T.);
#86=FACE_OUTER_BOUND($,#106,.T.);
#87=FACE_OUTER_BOUND($,#107,.T.);
#88=FACE_OUTER_BOUND($,#108,.T.);
#89=FACE_OUTER_BOUND($,#109,.T.);
#90=FACE_OUTER_BOUND($,#110,.T.);
#91=FACE_OUTER_BOUND($,#111,.T.);
#92=FACE_OUTER_BOUND($,#112,.T.);
#93=FACE_OUTER_BOUND($,#114,.T.);
#94=EDGE_LOOP($,(#174));
#95=EDGE_LOOP($,(#175));
#96=EDGE_LOOP($,(#176));
#97=EDGE_LOOP($,(#177));
#98=EDGE_LOOP($,(#178));
#99=EDGE_LOOP($,(#179));
#100=EDGE_LOOP($,(#180));
#101=EDGE_LOOP($,(#181));
#102=EDGE_LOOP($,(#182));
#103=EDGE_LOOP($,(#183));
#104=EDGE_LOOP($,(#184,#185,#186,#187));
#105=EDGE_LOOP($,(#188,#189,#190,#191));
#106=EDGE_LOOP($,(#192,#193,#194,#195));
#107=EDGE_LOOP($,(#196,#197,#198,#199));
#108=EDGE_LOOP($,(#200,#201,#202,#203));
#109=EDGE_LOOP($,(#204,#205,#206,#207));
#110=EDGE_LOOP($,(#208,#209,#210,#211));
#111=EDGE_LOOP($,(#212,#213,#214,#215));
#112=EDGE_LOOP($,(#216,#217,#218,#219,#220,#221,#222,#223));
#113=EDGE_LOOP($,(#224));
#114=EDGE_LOOP($,(#225,#226,#227,#228,#229,#230,#231,#232));
#115=EDGE_LOOP($,(#233));
#116=CIRCLE($,#259,56.5);
#117=CIRCLE($,#260,56.5);
#118=CIRCLE($,#262,56.5);
#119=CIRCLE($,#263,56.5);
#120=CIRCLE($,#265,50.);
#121=CIRCLE($,#266,50.);
#122=VERTEX_POINT($,#349);
#123=VERTEX_POINT($,#351);
#124=VERTEX_POINT($,#354);
#125=VERTEX_POINT($,#356);
#126=VERTEX_POINT($,#359);
#127=VERTEX_POINT($,#361);
#128=VERTEX_POINT($,#366);
#129=VERTEX_POINT($,#367);
#130=VERTEX_POINT($,#369);
#131=VERTEX_POINT($,#371);
#132=VERTEX_POINT($,#375);
#133=VERTEX_POINT($,#377);
#134=VERTEX_POINT($,#381);
#135=VERTEX_POINT($,#383);
#136=VERTEX_POINT($,#387);
#137=VERTEX_POINT($,#389);
#138=VERTEX_POINT($,#393);
#139=VERTEX_POINT($,#395);
#140=VERTEX_POINT($,#399);
#141=VERTEX_POINT($,#401);
#142=VERTEX_POINT($,#405);
#143=VERTEX_POINT($,#407);
#144=EDGE_CURVE($,#122,#122,#116,.T.);
#145=EDGE_CURVE($,#123,#123,#117,.T.);
#146=EDGE_CURVE($,#124,#124,#118,.T.);
#147=EDGE_CURVE($,#125,#125,#119,.T.);
#148=EDGE_CURVE($,#126,#126,#120,.T.);
#149=EDGE_CURVE($,#127,#127,#121,.T.);
#150=EDGE_CURVE($,#128,#129,#12,.T.);
#151=EDGE_CURVE($,#130,#129,#13,.T.);
#152=EDGE_CURVE($,#130,#131,#14,.T.);
#153=EDGE_CURVE($,#131,#128,#15,.T.);
#154=EDGE_CURVE($,#129,#132,#16,.T.);
#155=EDGE_CURVE($,#133,#132,#17,.T.);
#156=EDGE_CURVE($,#133,#130,#18,.T.);
#157=EDGE_CURVE($,#132,#134,#19,.T.);
#158=EDGE_CURVE($,#135,#134,#20,.T.);
#159=EDGE_CURVE($,#135,#133,#21,.T.);
#160=EDGE_CURVE($,#134,#136,#22,.T.);
#161=EDGE_CURVE($,#137,#136,#23,.T.);
#162=EDGE_CURVE($,#137,#135,#24,.T.);
#163=EDGE_CURVE($,#136,#138,#25,.T.);
#164=EDGE_CURVE($,#139,#138,#26,.T.);
#165=EDGE_CURVE($,#139,#137,#27,.T.);
#166=EDGE_CURVE($,#138,#140,#28,.T.);
#167=EDGE_CURVE($,#141,#140,#29,.T.);
#168=EDGE_CURVE($,#141,#139,#30,.T.);
#169=EDGE_CURVE($,#140,#142,#31,.T.);
#170=EDGE_CURVE($,#143,#142,#32,.T.);
#171=EDGE_CURVE($,#143,#141,#33,.T.);
#172=EDGE_CURVE($,#142,#128,#34,.T.);
#173=EDGE_CURVE($,#131,#143,#35,.T.);
#174=ORIENTED_EDGE($,*,*,#144,.F.);
#175=ORIENTED_EDGE($,*,*,#145,.F.);
#176=ORIENTED_EDGE($,*,*,#146,.T.);
#177=ORIENTED_EDGE($,*,*,#147,.F.);
#178=ORIENTED_EDGE($,*,*,#148,.F.);
#179=ORIENTED_EDGE($,*,*,#149,.F.);
#180=ORIENTED_EDGE($,*,*,#145,.T.);
#181=ORIENTED_EDGE($,*,*,#148,.T.);
#182=ORIENTED_EDGE($,*,*,#146,.F.);
#183=ORIENTED_EDGE($,*,*,#149,.T.);
#184=ORIENTED_EDGE($,*,*,#150,.T.);
#185=ORIENTED_EDGE($,*,*,#151,.F.);
#186=ORIENTED_EDGE($,*,*,#152,.T.);
#187=ORIENTED_EDGE($,*,*,#153,.T.);
#188=ORIENTED_EDGE($,*,*,#154,.T.);
#189=ORIENTED_EDGE($,*,*,#155,.F.);
#190=ORIENTED_EDGE($,*,*,#156,.T.);
#191=ORIENTED_EDGE($,*,*,#151,.T.);
#192=ORIENTED_EDGE($,*,*,#157,.T.);
#193=ORIENTED_EDGE($,*,*,#158,.F.);
#194=ORIENTED_EDGE($,*,*,#159,.T.);
#195=ORIENTED_EDGE($,*,*,#155,.T.);
#196=ORIENTED_EDGE($,*,*,#160,.T.);
#197=ORIENTED_EDGE($,*,*,#161,.F.);
#198=ORIENTED_EDGE($,*,*,#162,.T.);
#199=ORIENTED_EDGE($,*,*,#158,.T.);
#200=ORIENTED_EDGE($,*,*,#163,.T.);
#201=ORIENTED_EDGE($,*,*,#164,.F.);
#202=ORIENTED_EDGE($,*,*,#165,.T.);
#203=ORIENTED_EDGE($,*,*,#161,.T.);
#204=ORIENTED_EDGE($,*,*,#166,.T.);
#205=ORIENTED_EDGE($,*,*,#167,.F.);
#206=ORIENTED_EDGE($,*,*,#168,.T.);
#207=ORIENTED_EDGE($,*,*,#164,.T.);
#208=ORIENTED_EDGE($,*,*,#169,.T.);
#209=ORIENTED_EDGE($,*,*,#170,.F.);
#210=ORIENTED_EDGE($,*,*,#171,.T.);
#211=ORIENTED_EDGE($,*,*,#167,.T.);
#212=ORIENTED_EDGE($,*,*,#172,.T.);
#213=ORIENTED_EDGE($,*,*,#153,.F.);
#214=ORIENTED_EDGE($,*,*,#173,.T.);
#215=ORIENTED_EDGE($,*,*,#170,.T.);
#216=ORIENTED_EDGE($,*,*,#150,.F.);
#217=ORIENTED_EDGE($,*,*,#172,.F.);
#218=ORIENTED_EDGE($,*,*,#169,.F.);
#219=ORIENTED_EDGE($,*,*,#166,.F.);
#220=ORIENTED_EDGE($,*,*,#163,.F.);
#221=ORIENTED_EDGE($,*,*,#160,.F.);
#222=ORIENTED_EDGE($,*,*,#157,.F.);
#223=ORIENTED_EDGE($,*,*,#154,.F.);
#224=ORIENTED_EDGE($,*,*,#144,.T.);
#225=ORIENTED_EDGE($,*,*,#173,.F.);
#226=ORIENTED_EDGE($,*,*,#152,.F.);
#227=ORIENTED_EDGE($,*,*,#156,.F.);
#228=ORIENTED_EDGE($,*,*,#159,.F.);
#229=ORIENTED_EDGE($,*,*,#162,.F.);
#230=ORIENTED_EDGE($,*,*,#165,.F.);
#231=ORIENTED_EDGE($,*,*,#168,.F.);
#232=ORIENTED_EDGE($,*,*,#171,.F.);
#233=ORIENTED_EDGE($,*,*,#147,.T.);
#234=CYLINDRICAL_SURFACE($,#258,56.5);
#235=CYLINDRICAL_SURFACE($,#261,56.5);
#236=CYLINDRICAL_SURFACE($,#264,50.);
#237=STYLED_ITEM($,(#434),#240);
#238=STYLED_ITEM($,(#434),#241);
#239=STYLED_ITEM($,(#433),#256);
#240=ADVANCED_FACE($,(#79,#72),#234,.T.);
#241=ADVANCED_FACE($,(#80,#73),#235,.T.);
#242=ADVANCED_FACE($,(#81,#74),#236,.F.);
#243=ADVANCED_FACE($,(#82,#75),#60,.T.);
#244=ADVANCED_FACE($,(#83,#76),#61,.T.);
#245=ADVANCED_FACE($,(#84),#62,.T.);
#246=ADVANCED_FACE($,(#85),#63,.T.);
#247=ADVANCED_FACE($,(#86),#64,.T.);
#248=ADVANCED_FACE($,(#87),#65,.T.);
#249=ADVANCED_FACE($,(#88),#66,.T.);
#250=ADVANCED_FACE($,(#89),#67,.T.);
#251=ADVANCED_FACE($,(#90),#68,.T.);
#252=ADVANCED_FACE($,(#91),#69,.T.);
#253=ADVANCED_FACE($,(#92,#77),#70,.T.);
#254=ADVANCED_FACE($,(#93,#78),#71,.F.);
#255=CLOSED_SHELL($,(#240,#241,#242,#243,#244,#245,#246,#247,#248,#249,
#250,#251,#252,#253,#254));
#256=MANIFOLD_SOLID_BREP('C6',#255);
#257=AXIS2_PLACEMENT_3D('placement',#347,#279,#280);
#258=AXIS2_PLACEMENT_3D($,#348,#281,#282);
#259=AXIS2_PLACEMENT_3D($,#350,#283,#284);
#260=AXIS2_PLACEMENT_3D($,#352,#285,#286);
#261=AXIS2_PLACEMENT_3D($,#353,#287,#288);
#262=AXIS2_PLACEMENT_3D($,#355,#289,#290);
#263=AXIS2_PLACEMENT_3D($,#357,#291,#292);
#264=AXIS2_PLACEMENT_3D($,#358,#293,#294);
#265=AXIS2_PLACEMENT_3D($,#360,#295,#296);
#266=AXIS2_PLACEMENT_3D($,#362,#297,#298);
#267=AXIS2_PLACEMENT_3D($,#363,#299,#300);
#268=AXIS2_PLACEMENT_3D($,#364,#301,#302);
#269=AXIS2_PLACEMENT_3D($,#365,#303,#304);
#270=AXIS2_PLACEMENT_3D($,#374,#309,#310);
#271=AXIS2_PLACEMENT_3D($,#380,#314,#315);
#272=AXIS2_PLACEMENT_3D($,#386,#319,#320);
#273=AXIS2_PLACEMENT_3D($,#392,#324,#325);
#274=AXIS2_PLACEMENT_3D($,#398,#329,#330);
#275=AXIS2_PLACEMENT_3D($,#404,#334,#335);
#276=AXIS2_PLACEMENT_3D($,#410,#339,#340);
#277=AXIS2_PLACEMENT_3D($,#413,#343,#344);
#278=AXIS2_PLACEMENT_3D($,#414,#345,#346);
#279=DIRECTION('axis',(0.,0.,1.));
#280=DIRECTION('refdir',(1.,0.,0.));
#281=DIRECTION('center_axis',(1.,0.,0.));
#282=DIRECTION('ref_axis',(0.,-1.,0.));
#283=DIRECTION('center_axis',(-1.,0.,0.));
#284=DIRECTION('ref_axis',(0.,-1.,0.));
#285=DIRECTION('center_axis',(1.,0.,0.));
#286=DIRECTION('ref_axis',(0.,-1.,0.));
#287=DIRECTION('center_axis',(1.,0.,0.));
#288=DIRECTION('ref_axis',(0.,-1.,0.));
#289=DIRECTION('center_axis',(1.,0.,0.));
#290=DIRECTION('ref_axis',(0.,-1.,0.));
#291=DIRECTION('center_axis',(1.,0.,0.));
#292=DIRECTION('ref_axis',(0.,-1.,0.));
#293=DIRECTION('center_axis',(1.,0.,0.));
#294=DIRECTION('ref_axis',(0.,-1.,0.));
#295=DIRECTION('center_axis',(-1.,0.,0.));
#296=DIRECTION('ref_axis',(0.,-1.,0.));
#297=DIRECTION('center_axis',(1.,0.,0.));
#298=DIRECTION('ref_axis',(0.,-1.,0.));
#299=DIRECTION('center_axis',(1.,0.,0.));
#300=DIRECTION('ref_axis',(0.,0.,-1.));
#301=DIRECTION('center_axis',(-1.,0.,0.));
#302=DIRECTION('ref_axis',(0.,0.,1.));
#303=DIRECTION('center_axis',(0.,0.,1.));
#304=DIRECTION('ref_axis',(1.,0.,0.));
#305=DIRECTION($,(0.,1.,0.));
#306=DIRECTION($,(1.,0.,0.));
#307=DIRECTION($,(0.,-1.,0.));
#308=DIRECTION($,(1.,0.,0.));
#309=DIRECTION('center_axis',(0.,0.707106781186548,0.707106781186547));
#310=DIRECTION('ref_axis',(1.,0.,0.));
#311=DIRECTION($,(0.,0.707106781186547,-0.707106781186548));
#312=DIRECTION($,(1.,0.,0.));
#313=DIRECTION($,(0.,-0.707106781186547,0.707106781186548));
#314=DIRECTION('center_axis',(0.,1.,0.));
#315=DIRECTION('ref_axis',(0.,0.,1.));
#316=DIRECTION($,(0.,0.,-1.));
#317=DIRECTION($,(1.,0.,0.));
#318=DIRECTION($,(0.,0.,1.));
#319=DIRECTION('center_axis',(0.,0.707106781186547,-0.707106781186548));
#320=DIRECTION('ref_axis',(-1.,0.,0.));
#321=DIRECTION($,(0.,-0.707106781186548,-0.707106781186547));
#322=DIRECTION($,(1.,0.,0.));
#323=DIRECTION($,(0.,0.707106781186548,0.707106781186547));
#324=DIRECTION('center_axis',(0.,0.,-1.));
#325=DIRECTION('ref_axis',(-1.,0.,0.));
#326=DIRECTION($,(0.,-1.,0.));
#327=DIRECTION($,(1.,0.,0.));
#328=DIRECTION($,(0.,1.,0.));
#329=DIRECTION('center_axis',(0.,-0.707106781186548,-0.707106781186547));
#330=DIRECTION('ref_axis',(-1.,0.,0.));
#331=DIRECTION($,(0.,-0.707106781186547,0.707106781186548));
#332=DIRECTION($,(1.,0.,0.));
#333=DIRECTION($,(0.,0.707106781186547,-0.707106781186548));
#334=DIRECTION('center_axis',(0.,-1.,0.));
#335=DIRECTION('ref_axis',(0.,0.,-1.));
#336=DIRECTION($,(0.,0.,1.));
#337=DIRECTION($,(1.,0.,0.));
#338=DIRECTION($,(0.,0.,-1.));
#339=DIRECTION('center_axis',(0.,-0.707106781186548,0.707106781186548));
#340=DIRECTION('ref_axis',(1.,0.,0.));
#341=DIRECTION($,(0.,0.707106781186547,0.707106781186547));
#342=DIRECTION($,(0.,-0.707106781186547,-0.707106781186547));
#343=DIRECTION('center_axis',(1.,0.,0.));
#344=DIRECTION('ref_axis',(0.,0.,-1.));
#345=DIRECTION('center_axis',(1.,0.,0.));
#346=DIRECTION('ref_axis',(0.,0.,-1.));
#347=CARTESIAN_POINT('',(0.,0.,0.));
#348=CARTESIAN_POINT('Origin',(200.615079679279,-2.10907690059165,0.));
#349=CARTESIAN_POINT('',(210.115079679279,54.3909230994084,-6.919026E-015));
#350=CARTESIAN_POINT('Origin',(210.115079679279,-2.10907690059165,0.));
#351=CARTESIAN_POINT('',(249.115079679279,54.3909230994084,6.919026E-015));
#352=CARTESIAN_POINT('Origin',(249.115079679279,-2.10907690059165,0.));
#353=CARTESIAN_POINT('Origin',(200.615079679279,-2.10907690059165,0.));
#354=CARTESIAN_POINT('',(152.115079679279,54.3909230994084,6.919026E-015));
#355=CARTESIAN_POINT('Origin',(152.115079679279,-2.10907690059165,0.));
#356=CARTESIAN_POINT('',(191.115079679279,54.3909230994084,6.919026E-015));
#357=CARTESIAN_POINT('Origin',(191.115079679279,-2.10907690059165,0.));
#358=CARTESIAN_POINT('Origin',(227.115079679279,-2.10907690059165,0.));
#359=CARTESIAN_POINT('',(249.115079679279,47.8909230994083,-6.123032E-015));
#360=CARTESIAN_POINT('Origin',(249.115079679279,-2.10907690059165,0.));
#361=CARTESIAN_POINT('',(152.115079679279,47.8909230994083,6.123032E-015));
#362=CARTESIAN_POINT('Origin',(152.115079679279,-2.10907690059165,0.));
#363=CARTESIAN_POINT('Origin',(249.115079679279,-30.3590769005917,0.));
#364=CARTESIAN_POINT('Origin',(152.115079679279,-30.3590769005917,0.));
#365=CARTESIAN_POINT('Origin',(191.115079679279,-26.9618906429773,60.));
#366=CARTESIAN_POINT('',(210.115079679279,-26.9618906429773,60.));
#367=CARTESIAN_POINT('',(210.115079679279,22.7437368417941,60.));
#368=CARTESIAN_POINT($,(210.115079679279,-26.9618906429773,60.));
#369=CARTESIAN_POINT('',(191.115079679279,22.7437368417941,60.));
#370=CARTESIAN_POINT($,(191.115079679279,22.7437368417941,60.));
#371=CARTESIAN_POINT('',(191.115079679279,-26.9618906429773,60.));
#372=CARTESIAN_POINT($,(191.115079679279,22.7437368417941,60.));
#373=CARTESIAN_POINT($,(191.115079679279,-26.9618906429773,60.));
#374=CARTESIAN_POINT('Origin',(191.115079679279,22.7437368417941,60.));
#375=CARTESIAN_POINT('',(210.115079679279,57.8909230994084,24.8528137423857));
#376=CARTESIAN_POINT($,(210.115079679279,22.7437368417941,60.));
#377=CARTESIAN_POINT('',(191.115079679279,57.8909230994084,24.8528137423857));
#378=CARTESIAN_POINT($,(191.115079679279,57.8909230994084,24.8528137423857));
#379=CARTESIAN_POINT($,(191.115079679279,57.8909230994084,24.8528137423857));
#380=CARTESIAN_POINT('Origin',(191.115079679279,57.8909230994084,24.8528137423857));
#381=CARTESIAN_POINT('',(210.115079679279,57.8909230994084,-24.8528137423857));
#382=CARTESIAN_POINT($,(210.115079679279,57.8909230994084,24.8528137423857));
#383=CARTESIAN_POINT('',(191.115079679279,57.8909230994084,-24.8528137423857));
#384=CARTESIAN_POINT($,(191.115079679279,57.8909230994084,-24.8528137423857));
#385=CARTESIAN_POINT($,(191.115079679279,57.8909230994084,-24.8528137423857));
#386=CARTESIAN_POINT('Origin',(191.115079679279,57.8909230994084,-24.8528137423857));
#387=CARTESIAN_POINT('',(210.115079679279,22.7437368417941,-60.));
#388=CARTESIAN_POINT($,(210.115079679279,57.8909230994084,-24.8528137423857));
#389=CARTESIAN_POINT('',(191.115079679279,22.7437368417941,-60.));
#390=CARTESIAN_POINT($,(191.115079679279,22.7437368417941,-60.));
#391=CARTESIAN_POINT($,(191.115079679279,22.7437368417941,-60.));
#392=CARTESIAN_POINT('Origin',(191.115079679279,22.7437368417941,-60.));
#393=CARTESIAN_POINT('',(210.115079679279,-26.9618906429774,-60.));
#394=CARTESIAN_POINT($,(210.115079679279,22.7437368417941,-60.));
#395=CARTESIAN_POINT('',(191.115079679279,-26.9618906429774,-60.));
#396=CARTESIAN_POINT($,(191.115079679279,-26.9618906429774,-60.));
#397=CARTESIAN_POINT($,(191.115079679279,-26.9618906429774,-60.));
#398=CARTESIAN_POINT('Origin',(191.115079679279,-26.9618906429774,-60.));
#399=CARTESIAN_POINT('',(210.115079679279,-62.1090769005916,-24.8528137423857));
#400=CARTESIAN_POINT($,(210.115079679279,-26.9618906429774,-60.));
#401=CARTESIAN_POINT('',(191.115079679279,-62.1090769005916,-24.8528137423857));
#402=CARTESIAN_POINT($,(191.115079679279,-62.1090769005916,-24.8528137423857));
#403=CARTESIAN_POINT($,(191.115079679279,-62.1090769005916,-24.8528137423857));
#404=CARTESIAN_POINT('Origin',(191.115079679279,-62.1090769005916,-24.8528137423857));
#405=CARTESIAN_POINT('',(210.115079679279,-62.1090769005916,24.8528137423857));
#406=CARTESIAN_POINT($,(210.115079679279,-62.1090769005916,-24.8528137423857));
#407=CARTESIAN_POINT('',(191.115079679279,-62.1090769005916,24.8528137423857));
#408=CARTESIAN_POINT($,(191.115079679279,-62.1090769005916,24.8528137423857));
#409=CARTESIAN_POINT($,(191.115079679279,-62.1090769005916,24.8528137423857));
#410=CARTESIAN_POINT('Origin',(191.115079679279,-62.1090769005916,24.8528137423857));
#411=CARTESIAN_POINT($,(210.115079679279,-62.1090769005916,24.8528137423857));
#412=CARTESIAN_POINT($,(191.115079679279,-26.9618906429773,60.));
#413=CARTESIAN_POINT('Origin',(210.115079679279,-2.10907690059162,1.421085E-014));
#414=CARTESIAN_POINT('Origin',(191.115079679279,-2.10907690059162,1.421085E-014));
#415=UNCERTAINTY_MEASURE_WITH_UNIT(LENGTH_MEASURE(0.01),#417,
'DISTANCE_ACCURACY_VALUE',
'Maximum model space distance between geometric entities at asserted c
onnectivities');
#416=(
GEOMETRIC_REPRESENTATION_CONTEXT(3)
GLOBAL_UNCERTAINTY_ASSIGNED_CONTEXT((#415))
GLOBAL_UNIT_ASSIGNED_CONTEXT((#417,#420,#418))
REPRESENTATION_CONTEXT('','3D')
);
#417=(
LENGTH_UNIT()
NAMED_UNIT(*)
SI_UNIT(.MILLI.,.METRE.)
);
#418=(
NAMED_UNIT(*)
SI_UNIT($,.STERADIAN.)
SOLID_ANGLE_UNIT()
);
#419=DIMENSIONAL_EXPONENTS(0.,0.,0.,0.,0.,0.,0.);
#420=(
CONVERSION_BASED_UNIT('degree',#422)
NAMED_UNIT(#419)
PLANE_ANGLE_UNIT()
);
#421=(
NAMED_UNIT(*)
PLANE_ANGLE_UNIT()
SI_UNIT($,.RADIAN.)
);
#422=PLANE_ANGLE_MEASURE_WITH_UNIT(PLANE_ANGLE_MEASURE(0.01745329252),#421);
#423=SHAPE_DEFINITION_REPRESENTATION(#424,#425);
#424=PRODUCT_DEFINITION_SHAPE('',$,#427);
#425=SHAPE_REPRESENTATION('',(#257),#416);
#426=PRODUCT_DEFINITION_CONTEXT('3D Mechanical Parts',#430,'design');
#427=PRODUCT_DEFINITION('NFV400','NFV400',#428,#426);
#428=PRODUCT_DEFINITION_FORMATION('',$,#432);
#429=APPLICATION_PROTOCOL_DEFINITION('international standard',
'automotive_design',2009,#430);
#430=APPLICATION_CONTEXT(
'Core Data for Automotive Mechanical Design Process');
#431=PRODUCT_CONTEXT('3D Mechanical Parts',#430,'mechanical');
#432=PRODUCT('NFV400','NFV400',$,(#431));
#433=PRESENTATION_STYLE_ASSIGNMENT((#435));
#434=PRESENTATION_STYLE_ASSIGNMENT((#436));
#435=SURFACE_STYLE_USAGE(.BOTH.,#437);
#436=SURFACE_STYLE_USAGE(.BOTH.,#438);
#437=SURFACE_SIDE_STYLE($,(#439));
#438=SURFACE_SIDE_STYLE($,(#440));
#439=SURFACE_STYLE_FILL_AREA(#441);
#440=SURFACE_STYLE_FILL_AREA(#442);
#441=FILL_AREA_STYLE($,(#443));
#442=FILL_AREA_STYLE($,(#444));
#443=FILL_AREA_STYLE_COLOUR($,#445);
#444=FILL_AREA_STYLE_COLOUR($,#446);
#445=COLOUR_RGB('',0.509803921568627,0.509803921568627,0.588235294117647);
#446=COLOUR_RGB('',1.,0.,0.);
ENDSEC;
END-ISO-10303-21;
