ISO-10303-21;
HEADER;
/* Generated by software containing ST-Developer
 * from STEP Tools, Inc. (www.steptools.com) 
 */

FILE_DESCRIPTION(
/* description */ (''),
/* implementation_level */ '2;1');

FILE_NAME(
/* name */ 'C:\\Users\\Gabriele\\Desktop\\catalogo\\TR40\\TR40040C.stp',

/* time_stamp */ '2016-10-17T15:32:47+02:00',
/* author */ ('Gabriele'),
/* organization */ (''),
/* preprocessor_version */ 'ST-DEVELOPER v16.5',
/* originating_system */ 'Autodesk Inventor 2017',
/* authorisation */ '');

FILE_SCHEMA (('AUTOMOTIVE_DESIGN { 1 0 10303 214 3 1 1 }'));
ENDSEC;

DATA;
#10=MECHANICAL_DESIGN_GEOMETRIC_PRESENTATION_REPRESENTATION('',(#13),#457);
#11=SHAPE_REPRESENTATION_RELATIONSHIP('SRR','None',#466,#12);
#12=ADVANCED_BREP_SHAPE_REPRESENTATION('',(#14),#456);
#13=STYLED_ITEM('',(#475),#14);
#14=MANIFOLD_SOLID_BREP('Solido1',#200);
#15=B_SPLINE_CURVE_WITH_KNOTS('',3,(#333,#334,#335,#336,#337,#338,#339,
#340,#341,#342,#343,#344,#345,#346,#347,#348,#349,#350,#351,#352,#353,#354,
#355,#356,#357,#358,#359,#360,#361,#362,#363,#364,#365,#366,#367,#368,#369,
#370,#371,#372,#373,#374,#375,#376,#377,#378,#379,#380,#381,#382),
 .UNSPECIFIED.,.T.,.F.,(4,2,2,2,2,2,2,2,2,2,2,2,2,2,2,2,2,2,2,2,2,2,2,2,
4),(0.,0.229422479698305,0.45884495939661,0.91768991879322,1.37331256715048,
1.6011238913291,1.82893521550773,2.05674653968636,2.28455786386499,2.74018051222224,
3.19902547161885,3.42844795131716,3.65787043101546,3.88729291071377,4.11671539041207,
4.57556034980868,5.03118299816594,5.25899432234456,5.48680564652319,5.71461697070182,
5.94242829488045,6.3980509432377,6.85689590263431,7.08631838233262,7.31574086203092),
 .UNSPECIFIED.);
#16=B_SPLINE_CURVE_WITH_KNOTS('',3,(#393,#394,#395,#396,#397,#398,#399,
#400,#401,#402,#403,#404,#405,#406,#407,#408,#409,#410,#411,#412,#413,#414,
#415,#416,#417,#418,#419,#420,#421,#422,#423,#424,#425,#426,#427,#428,#429,
#430,#431,#432,#433,#434,#435,#436,#437,#438,#439,#440,#441,#442,#443,#444,
#445,#446,#447,#448,#449,#450),.UNSPECIFIED.,.T.,.F.,(4,2,2,2,2,2,2,2,2,
2,2,2,2,2,2,2,2,2,2,2,2,2,2,2,2,2,2,2,4),(0.,0.335348249171353,0.670696498342706,
1.34139299668541,1.67305195089295,2.00471090510048,2.33636985930801,2.66802881351555,
2.99968776772308,3.33134672193062,3.66300567613815,3.99466463034568,4.66536112868839,
5.00070937785974,5.33605762703109,5.67140587620245,6.0067541253738,6.67745062371651,
7.00910957792404,7.34076853213157,7.67242748633911,8.00408644054664,8.33574539475417,
8.66740434896171,8.99906330316924,9.33072225737677,10.0014187557195,10.3367670048908,
10.6721152540622),.UNSPECIFIED.);
#17=PLANE('',#207);
#18=PLANE('',#214);
#19=PLANE('',#221);
#20=PLANE('',#228);
#21=PLANE('',#231);
#22=PLANE('',#232);
#23=CYLINDRICAL_SURFACE('',#205,20.);
#24=CYLINDRICAL_SURFACE('',#212,20.);
#25=CYLINDRICAL_SURFACE('',#219,12.5);
#26=CYLINDRICAL_SURFACE('',#223,11.75);
#27=CYLINDRICAL_SURFACE('',#225,19.25);
#28=CYLINDRICAL_SURFACE('',#229,17.);
#29=CYLINDRICAL_SURFACE('',#230,25.5);
#30=FACE_BOUND('',#65,.T.);
#31=FACE_BOUND('',#67,.T.);
#32=FACE_BOUND('',#69,.T.);
#33=FACE_BOUND('',#71,.T.);
#34=FACE_BOUND('',#73,.T.);
#35=FACE_BOUND('',#75,.T.);
#36=FACE_BOUND('',#77,.T.);
#37=FACE_BOUND('',#79,.T.);
#38=FACE_BOUND('',#81,.T.);
#39=FACE_BOUND('',#83,.T.);
#40=FACE_BOUND('',#85,.T.);
#41=FACE_BOUND('',#86,.T.);
#42=FACE_BOUND('',#88,.T.);
#43=FACE_BOUND('',#90,.T.);
#44=FACE_BOUND('',#92,.T.);
#45=FACE_BOUND('',#93,.T.);
#46=FACE_BOUND('',#95,.T.);
#47=FACE_BOUND('',#97,.T.);
#48=FACE_OUTER_BOUND('',#64,.T.);
#49=FACE_OUTER_BOUND('',#66,.T.);
#50=FACE_OUTER_BOUND('',#68,.T.);
#51=FACE_OUTER_BOUND('',#70,.T.);
#52=FACE_OUTER_BOUND('',#72,.T.);
#53=FACE_OUTER_BOUND('',#74,.T.);
#54=FACE_OUTER_BOUND('',#76,.T.);
#55=FACE_OUTER_BOUND('',#78,.T.);
#56=FACE_OUTER_BOUND('',#80,.T.);
#57=FACE_OUTER_BOUND('',#82,.T.);
#58=FACE_OUTER_BOUND('',#84,.T.);
#59=FACE_OUTER_BOUND('',#87,.T.);
#60=FACE_OUTER_BOUND('',#89,.T.);
#61=FACE_OUTER_BOUND('',#91,.T.);
#62=FACE_OUTER_BOUND('',#94,.T.);
#63=FACE_OUTER_BOUND('',#96,.T.);
#64=EDGE_LOOP('',(#147));
#65=EDGE_LOOP('',(#148));
#66=EDGE_LOOP('',(#149));
#67=EDGE_LOOP('',(#150));
#68=EDGE_LOOP('',(#151));
#69=EDGE_LOOP('',(#152));
#70=EDGE_LOOP('',(#153));
#71=EDGE_LOOP('',(#154));
#72=EDGE_LOOP('',(#155));
#73=EDGE_LOOP('',(#156));
#74=EDGE_LOOP('',(#157));
#75=EDGE_LOOP('',(#158));
#76=EDGE_LOOP('',(#159));
#77=EDGE_LOOP('',(#160));
#78=EDGE_LOOP('',(#161));
#79=EDGE_LOOP('',(#162));
#80=EDGE_LOOP('',(#163));
#81=EDGE_LOOP('',(#164));
#82=EDGE_LOOP('',(#165));
#83=EDGE_LOOP('',(#166));
#84=EDGE_LOOP('',(#167));
#85=EDGE_LOOP('',(#168));
#86=EDGE_LOOP('',(#169));
#87=EDGE_LOOP('',(#170));
#88=EDGE_LOOP('',(#171));
#89=EDGE_LOOP('',(#172));
#90=EDGE_LOOP('',(#173));
#91=EDGE_LOOP('',(#174));
#92=EDGE_LOOP('',(#175));
#93=EDGE_LOOP('',(#176));
#94=EDGE_LOOP('',(#177));
#95=EDGE_LOOP('',(#178));
#96=EDGE_LOOP('',(#179));
#97=EDGE_LOOP('',(#180));
#98=CIRCLE('',#203,20.);
#99=CIRCLE('',#204,20.5);
#100=CIRCLE('',#206,20.);
#101=CIRCLE('',#208,25.5);
#102=CIRCLE('',#210,20.);
#103=CIRCLE('',#211,20.5);
#104=CIRCLE('',#213,20.);
#105=CIRCLE('',#215,25.5);
#106=CIRCLE('',#217,12.5);
#107=CIRCLE('',#218,13.);
#108=CIRCLE('',#220,12.5);
#109=CIRCLE('',#222,17.);
#110=CIRCLE('',#224,11.75);
#111=CIRCLE('',#226,19.25);
#112=CIRCLE('',#227,19.25);
#113=VERTEX_POINT('',#299);
#114=VERTEX_POINT('',#301);
#115=VERTEX_POINT('',#304);
#116=VERTEX_POINT('',#307);
#117=VERTEX_POINT('',#310);
#118=VERTEX_POINT('',#312);
#119=VERTEX_POINT('',#315);
#120=VERTEX_POINT('',#318);
#121=VERTEX_POINT('',#321);
#122=VERTEX_POINT('',#323);
#123=VERTEX_POINT('',#326);
#124=VERTEX_POINT('',#329);
#125=VERTEX_POINT('',#332);
#126=VERTEX_POINT('',#383);
#127=VERTEX_POINT('',#386);
#128=VERTEX_POINT('',#388);
#129=VERTEX_POINT('',#392);
#130=EDGE_CURVE('',#113,#113,#98,.T.);
#131=EDGE_CURVE('',#114,#114,#99,.T.);
#132=EDGE_CURVE('',#115,#115,#100,.T.);
#133=EDGE_CURVE('',#116,#116,#101,.T.);
#134=EDGE_CURVE('',#117,#117,#102,.T.);
#135=EDGE_CURVE('',#118,#118,#103,.T.);
#136=EDGE_CURVE('',#119,#119,#104,.T.);
#137=EDGE_CURVE('',#120,#120,#105,.T.);
#138=EDGE_CURVE('',#121,#121,#106,.T.);
#139=EDGE_CURVE('',#122,#122,#107,.T.);
#140=EDGE_CURVE('',#123,#123,#108,.T.);
#141=EDGE_CURVE('',#124,#124,#109,.T.);
#142=EDGE_CURVE('',#125,#125,#15,.T.);
#143=EDGE_CURVE('',#126,#126,#110,.T.);
#144=EDGE_CURVE('',#127,#127,#111,.T.);
#145=EDGE_CURVE('',#128,#128,#112,.T.);
#146=EDGE_CURVE('',#129,#129,#16,.T.);
#147=ORIENTED_EDGE('',*,*,#130,.T.);
#148=ORIENTED_EDGE('',*,*,#131,.T.);
#149=ORIENTED_EDGE('',*,*,#132,.T.);
#150=ORIENTED_EDGE('',*,*,#130,.F.);
#151=ORIENTED_EDGE('',*,*,#133,.T.);
#152=ORIENTED_EDGE('',*,*,#131,.F.);
#153=ORIENTED_EDGE('',*,*,#134,.T.);
#154=ORIENTED_EDGE('',*,*,#135,.T.);
#155=ORIENTED_EDGE('',*,*,#136,.F.);
#156=ORIENTED_EDGE('',*,*,#134,.F.);
#157=ORIENTED_EDGE('',*,*,#137,.T.);
#158=ORIENTED_EDGE('',*,*,#135,.F.);
#159=ORIENTED_EDGE('',*,*,#138,.T.);
#160=ORIENTED_EDGE('',*,*,#139,.T.);
#161=ORIENTED_EDGE('',*,*,#140,.T.);
#162=ORIENTED_EDGE('',*,*,#138,.F.);
#163=ORIENTED_EDGE('',*,*,#141,.F.);
#164=ORIENTED_EDGE('',*,*,#139,.F.);
#165=ORIENTED_EDGE('',*,*,#142,.F.);
#166=ORIENTED_EDGE('',*,*,#143,.F.);
#167=ORIENTED_EDGE('',*,*,#144,.F.);
#168=ORIENTED_EDGE('',*,*,#142,.T.);
#169=ORIENTED_EDGE('',*,*,#145,.F.);
#170=ORIENTED_EDGE('',*,*,#140,.F.);
#171=ORIENTED_EDGE('',*,*,#143,.T.);
#172=ORIENTED_EDGE('',*,*,#141,.T.);
#173=ORIENTED_EDGE('',*,*,#146,.F.);
#174=ORIENTED_EDGE('',*,*,#133,.F.);
#175=ORIENTED_EDGE('',*,*,#137,.F.);
#176=ORIENTED_EDGE('',*,*,#146,.T.);
#177=ORIENTED_EDGE('',*,*,#136,.T.);
#178=ORIENTED_EDGE('',*,*,#145,.T.);
#179=ORIENTED_EDGE('',*,*,#132,.F.);
#180=ORIENTED_EDGE('',*,*,#144,.T.);
#181=TOROIDAL_SURFACE('',#202,20.5,0.5);
#182=TOROIDAL_SURFACE('',#209,20.5,0.5);
#183=TOROIDAL_SURFACE('',#216,13.,0.5);
#184=ADVANCED_FACE('',(#48,#30),#181,.T.);
#185=ADVANCED_FACE('',(#49,#31),#23,.F.);
#186=ADVANCED_FACE('',(#50,#32),#17,.T.);
#187=ADVANCED_FACE('',(#51,#33),#182,.T.);
#188=ADVANCED_FACE('',(#52,#34),#24,.F.);
#189=ADVANCED_FACE('',(#53,#35),#18,.F.);
#190=ADVANCED_FACE('',(#54,#36),#183,.T.);
#191=ADVANCED_FACE('',(#55,#37),#25,.F.);
#192=ADVANCED_FACE('',(#56,#38),#19,.T.);
#193=ADVANCED_FACE('',(#57,#39),#26,.F.);
#194=ADVANCED_FACE('',(#58,#40,#41),#27,.F.);
#195=ADVANCED_FACE('',(#59,#42),#20,.T.);
#196=ADVANCED_FACE('',(#60,#43),#28,.T.);
#197=ADVANCED_FACE('',(#61,#44,#45),#29,.T.);
#198=ADVANCED_FACE('',(#62,#46),#21,.F.);
#199=ADVANCED_FACE('',(#63,#47),#22,.T.);
#200=CLOSED_SHELL('',(#184,#185,#186,#187,#188,#189,#190,#191,#192,#193,
#194,#195,#196,#197,#198,#199));
#201=AXIS2_PLACEMENT_3D('placement',#297,#233,#234);
#202=AXIS2_PLACEMENT_3D('',#298,#235,#236);
#203=AXIS2_PLACEMENT_3D('',#300,#237,#238);
#204=AXIS2_PLACEMENT_3D('',#302,#239,#240);
#205=AXIS2_PLACEMENT_3D('',#303,#241,#242);
#206=AXIS2_PLACEMENT_3D('',#305,#243,#244);
#207=AXIS2_PLACEMENT_3D('',#306,#245,#246);
#208=AXIS2_PLACEMENT_3D('',#308,#247,#248);
#209=AXIS2_PLACEMENT_3D('',#309,#249,#250);
#210=AXIS2_PLACEMENT_3D('',#311,#251,#252);
#211=AXIS2_PLACEMENT_3D('',#313,#253,#254);
#212=AXIS2_PLACEMENT_3D('',#314,#255,#256);
#213=AXIS2_PLACEMENT_3D('',#316,#257,#258);
#214=AXIS2_PLACEMENT_3D('',#317,#259,#260);
#215=AXIS2_PLACEMENT_3D('',#319,#261,#262);
#216=AXIS2_PLACEMENT_3D('',#320,#263,#264);
#217=AXIS2_PLACEMENT_3D('',#322,#265,#266);
#218=AXIS2_PLACEMENT_3D('',#324,#267,#268);
#219=AXIS2_PLACEMENT_3D('',#325,#269,#270);
#220=AXIS2_PLACEMENT_3D('',#327,#271,#272);
#221=AXIS2_PLACEMENT_3D('',#328,#273,#274);
#222=AXIS2_PLACEMENT_3D('',#330,#275,#276);
#223=AXIS2_PLACEMENT_3D('',#331,#277,#278);
#224=AXIS2_PLACEMENT_3D('',#384,#279,#280);
#225=AXIS2_PLACEMENT_3D('',#385,#281,#282);
#226=AXIS2_PLACEMENT_3D('',#387,#283,#284);
#227=AXIS2_PLACEMENT_3D('',#389,#285,#286);
#228=AXIS2_PLACEMENT_3D('',#390,#287,#288);
#229=AXIS2_PLACEMENT_3D('',#391,#289,#290);
#230=AXIS2_PLACEMENT_3D('',#451,#291,#292);
#231=AXIS2_PLACEMENT_3D('',#452,#293,#294);
#232=AXIS2_PLACEMENT_3D('',#453,#295,#296);
#233=DIRECTION('axis',(0.,0.,1.));
#234=DIRECTION('refdir',(1.,0.,0.));
#235=DIRECTION('center_axis',(0.,0.,-1.));
#236=DIRECTION('ref_axis',(-1.,0.,0.));
#237=DIRECTION('center_axis',(0.,0.,-1.));
#238=DIRECTION('ref_axis',(-1.,0.,0.));
#239=DIRECTION('center_axis',(0.,0.,1.));
#240=DIRECTION('ref_axis',(-1.,0.,0.));
#241=DIRECTION('center_axis',(0.,0.,-1.));
#242=DIRECTION('ref_axis',(-1.,0.,0.));
#243=DIRECTION('center_axis',(0.,0.,-1.));
#244=DIRECTION('ref_axis',(-1.,0.,0.));
#245=DIRECTION('center_axis',(0.,0.,1.));
#246=DIRECTION('ref_axis',(1.,0.,0.));
#247=DIRECTION('center_axis',(0.,0.,1.));
#248=DIRECTION('ref_axis',(-1.,0.,0.));
#249=DIRECTION('center_axis',(0.,0.,1.));
#250=DIRECTION('ref_axis',(1.,0.,0.));
#251=DIRECTION('center_axis',(0.,0.,1.));
#252=DIRECTION('ref_axis',(-1.,0.,0.));
#253=DIRECTION('center_axis',(0.,0.,-1.));
#254=DIRECTION('ref_axis',(-1.,0.,0.));
#255=DIRECTION('center_axis',(0.,0.,-1.));
#256=DIRECTION('ref_axis',(-1.,0.,0.));
#257=DIRECTION('center_axis',(0.,0.,-1.));
#258=DIRECTION('ref_axis',(-1.,0.,0.));
#259=DIRECTION('center_axis',(0.,0.,1.));
#260=DIRECTION('ref_axis',(1.,0.,0.));
#261=DIRECTION('center_axis',(0.,0.,-1.));
#262=DIRECTION('ref_axis',(-1.,0.,0.));
#263=DIRECTION('center_axis',(0.,-1.,0.));
#264=DIRECTION('ref_axis',(0.,0.,-1.));
#265=DIRECTION('center_axis',(0.,-1.,0.));
#266=DIRECTION('ref_axis',(-1.,0.,0.));
#267=DIRECTION('center_axis',(0.,1.,0.));
#268=DIRECTION('ref_axis',(-1.,0.,0.));
#269=DIRECTION('center_axis',(0.,-1.,0.));
#270=DIRECTION('ref_axis',(-1.,0.,0.));
#271=DIRECTION('center_axis',(0.,-1.,0.));
#272=DIRECTION('ref_axis',(-1.,0.,0.));
#273=DIRECTION('center_axis',(0.,1.,0.));
#274=DIRECTION('ref_axis',(0.,0.,1.));
#275=DIRECTION('center_axis',(0.,-1.,0.));
#276=DIRECTION('ref_axis',(1.,0.,0.));
#277=DIRECTION('center_axis',(0.,-1.,0.));
#278=DIRECTION('ref_axis',(-1.,0.,0.));
#279=DIRECTION('center_axis',(0.,-1.,0.));
#280=DIRECTION('ref_axis',(-1.,0.,0.));
#281=DIRECTION('center_axis',(0.,0.,1.));
#282=DIRECTION('ref_axis',(1.,0.,0.));
#283=DIRECTION('center_axis',(0.,0.,-1.));
#284=DIRECTION('ref_axis',(1.,0.,0.));
#285=DIRECTION('center_axis',(0.,0.,1.));
#286=DIRECTION('ref_axis',(1.,0.,0.));
#287=DIRECTION('center_axis',(0.,1.,0.));
#288=DIRECTION('ref_axis',(0.,0.,1.));
#289=DIRECTION('center_axis',(0.,-1.,0.));
#290=DIRECTION('ref_axis',(1.,0.,0.));
#291=DIRECTION('center_axis',(0.,0.,1.));
#292=DIRECTION('ref_axis',(-1.,0.,0.));
#293=DIRECTION('center_axis',(0.,0.,1.));
#294=DIRECTION('ref_axis',(1.,0.,0.));
#295=DIRECTION('center_axis',(0.,0.,1.));
#296=DIRECTION('ref_axis',(1.,0.,0.));
#297=CARTESIAN_POINT('',(0.,0.,0.));
#298=CARTESIAN_POINT('Origin',(0.,0.,46.5));
#299=CARTESIAN_POINT('',(20.,-2.44929359829471E-15,46.5));
#300=CARTESIAN_POINT('Origin',(0.,0.,46.5));
#301=CARTESIAN_POINT('',(20.5,2.51052593825207E-15,47.));
#302=CARTESIAN_POINT('Origin',(0.,0.,47.));
#303=CARTESIAN_POINT('Origin',(0.,0.,47.));
#304=CARTESIAN_POINT('',(20.,2.44929359829471E-15,21.));
#305=CARTESIAN_POINT('Origin',(0.,0.,21.));
#306=CARTESIAN_POINT('Origin',(-1.42125498691048E-15,0.,47.));
#307=CARTESIAN_POINT('',(25.5,3.12284933782575E-15,47.));
#308=CARTESIAN_POINT('Origin',(0.,0.,47.));
#309=CARTESIAN_POINT('Origin',(0.,0.,-46.5));
#310=CARTESIAN_POINT('',(20.,2.44929359829471E-15,-46.5));
#311=CARTESIAN_POINT('Origin',(0.,0.,-46.5));
#312=CARTESIAN_POINT('',(20.5,-2.51052593825207E-15,-47.));
#313=CARTESIAN_POINT('Origin',(0.,0.,-47.));
#314=CARTESIAN_POINT('Origin',(0.,0.,-47.));
#315=CARTESIAN_POINT('',(20.,2.44929359829471E-15,-21.));
#316=CARTESIAN_POINT('Origin',(0.,0.,-21.));
#317=CARTESIAN_POINT('Origin',(-1.42125498691048E-15,0.,-47.));
#318=CARTESIAN_POINT('',(25.5,3.12284933782575E-15,-47.));
#319=CARTESIAN_POINT('Origin',(0.,0.,-47.));
#320=CARTESIAN_POINT('Origin',(0.,39.5,0.));
#321=CARTESIAN_POINT('',(12.5,39.5,1.53080849893419E-15));
#322=CARTESIAN_POINT('Origin',(0.,39.5,0.));
#323=CARTESIAN_POINT('',(13.,40.,-1.59204083889156E-15));
#324=CARTESIAN_POINT('Origin',(0.,40.,0.));
#325=CARTESIAN_POINT('Origin',(0.,40.,0.));
#326=CARTESIAN_POINT('',(12.5,21.,-1.53080849893419E-15));
#327=CARTESIAN_POINT('Origin',(0.,21.,0.));
#328=CARTESIAN_POINT('Origin',(1.91501794301671E-15,40.,4.35381578284375E-16));
#329=CARTESIAN_POINT('',(-17.,40.,2.0818995585505E-15));
#330=CARTESIAN_POINT('Origin',(0.,40.,0.));
#331=CARTESIAN_POINT('Origin',(0.,21.,0.));
#332=CARTESIAN_POINT('',(11.75,15.2479506819769,0.));
#333=CARTESIAN_POINT('Ctrl Pts',(11.75,15.2479506819769,0.));
#334=CARTESIAN_POINT('Ctrl Pts',(11.75,15.2479506819769,-0.76474159899435));
#335=CARTESIAN_POINT('Ctrl Pts',(11.6742428578293,15.3072390910384,-1.54521864645096));
#336=CARTESIAN_POINT('Ctrl Pts',(11.3659681207263,15.5375121328513,-3.08065187309933));
#337=CARTESIAN_POINT('Ctrl Pts',(11.1336162812134,15.7079186926858,-3.83572796555633));
#338=CARTESIAN_POINT('Ctrl Pts',(10.2271132217634,16.3249207994564,-5.99163274089347));
#339=CARTESIAN_POINT('Ctrl Pts',(9.33296689639077,16.8744785083517,-7.28404246149309));
#340=CARTESIAN_POINT('Ctrl Pts',(7.29123690886597,17.8513895362499,-9.3257724490179));
#341=CARTESIAN_POINT('Ctrl Pts',(5.99690210318744,18.352218638061,-10.2248933575011));
#342=CARTESIAN_POINT('Ctrl Pts',(3.83311324355246,18.8791104142257,-11.1347178209795));
#343=CARTESIAN_POINT('Ctrl Pts',(3.0751710985334,19.0185410629257,-11.3674962775106));
#344=CARTESIAN_POINT('Ctrl Pts',(1.53831850690721,19.2040401379887,-11.6751970038854));
#345=CARTESIAN_POINT('Ctrl Pts',(0.759371080595424,19.25,-11.75));
#346=CARTESIAN_POINT('Ctrl Pts',(-0.759371080595426,19.25,-11.75));
#347=CARTESIAN_POINT('Ctrl Pts',(-1.53831850690721,19.2040401379887,-11.6751970038854));
#348=CARTESIAN_POINT('Ctrl Pts',(-3.0751710985334,19.0185410629257,-11.3674962775106));
#349=CARTESIAN_POINT('Ctrl Pts',(-3.83311324355246,18.8791104142256,-11.1347178209795));
#350=CARTESIAN_POINT('Ctrl Pts',(-5.99690210318744,18.352218638061,-10.2248933575011));
#351=CARTESIAN_POINT('Ctrl Pts',(-7.29123690886597,17.8513895362499,-9.3257724490179));
#352=CARTESIAN_POINT('Ctrl Pts',(-9.33296689639078,16.8744785083517,-7.28404246149309));
#353=CARTESIAN_POINT('Ctrl Pts',(-10.2271132217634,16.3249207994564,-5.99163274089347));
#354=CARTESIAN_POINT('Ctrl Pts',(-11.1336162812134,15.7079186926858,-3.83572796555633));
#355=CARTESIAN_POINT('Ctrl Pts',(-11.3659681207263,15.5375121328513,-3.08065187309933));
#356=CARTESIAN_POINT('Ctrl Pts',(-11.6742428578293,15.3072390910384,-1.54521864645096));
#357=CARTESIAN_POINT('Ctrl Pts',(-11.75,15.2479506819769,-0.76474159899435));
#358=CARTESIAN_POINT('Ctrl Pts',(-11.75,15.2479506819769,0.76474159899435));
#359=CARTESIAN_POINT('Ctrl Pts',(-11.6742428578293,15.3072390910384,1.54521864645096));
#360=CARTESIAN_POINT('Ctrl Pts',(-11.3659681207263,15.5375121328513,3.08065187309933));
#361=CARTESIAN_POINT('Ctrl Pts',(-11.1336162812134,15.7079186926858,3.83572796555633));
#362=CARTESIAN_POINT('Ctrl Pts',(-10.2271132217634,16.3249207994564,5.99163274089348));
#363=CARTESIAN_POINT('Ctrl Pts',(-9.33296689639078,16.8744785083517,7.28404246149309));
#364=CARTESIAN_POINT('Ctrl Pts',(-7.29123690886597,17.8513895362499,9.3257724490179));
#365=CARTESIAN_POINT('Ctrl Pts',(-5.99690210318744,18.352218638061,10.2248933575011));
#366=CARTESIAN_POINT('Ctrl Pts',(-3.83311324355246,18.8791104142257,11.1347178209795));
#367=CARTESIAN_POINT('Ctrl Pts',(-3.0751710985334,19.0185410629257,11.3674962775106));
#368=CARTESIAN_POINT('Ctrl Pts',(-1.5383185069072,19.2040401379887,11.6751970038854));
#369=CARTESIAN_POINT('Ctrl Pts',(-0.759371080595424,19.25,11.75));
#370=CARTESIAN_POINT('Ctrl Pts',(0.759371080595422,19.25,11.75));
#371=CARTESIAN_POINT('Ctrl Pts',(1.5383185069072,19.2040401379887,11.6751970038854));
#372=CARTESIAN_POINT('Ctrl Pts',(3.07517109853339,19.0185410629257,11.3674962775106));
#373=CARTESIAN_POINT('Ctrl Pts',(3.83311324355246,18.8791104142257,11.1347178209795));
#374=CARTESIAN_POINT('Ctrl Pts',(5.99690210318743,18.352218638061,10.2248933575011));
#375=CARTESIAN_POINT('Ctrl Pts',(7.29123690886596,17.8513895362499,9.3257724490179));
#376=CARTESIAN_POINT('Ctrl Pts',(9.33296689639077,16.8744785083517,7.28404246149309));
#377=CARTESIAN_POINT('Ctrl Pts',(10.2271132217634,16.3249207994564,5.99163274089347));
#378=CARTESIAN_POINT('Ctrl Pts',(11.1336162812134,15.7079186926858,3.83572796555633));
#379=CARTESIAN_POINT('Ctrl Pts',(11.3659681207263,15.5375121328513,3.08065187309933));
#380=CARTESIAN_POINT('Ctrl Pts',(11.6742428578293,15.3072390910384,1.54521864645096));
#381=CARTESIAN_POINT('Ctrl Pts',(11.75,15.2479506819769,0.764741598994352));
#382=CARTESIAN_POINT('Ctrl Pts',(11.75,15.2479506819769,0.));
#383=CARTESIAN_POINT('',(11.75,21.,-1.43895998899814E-15));
#384=CARTESIAN_POINT('Origin',(0.,21.,0.));
#385=CARTESIAN_POINT('Origin',(0.,0.,-21.));
#386=CARTESIAN_POINT('',(-19.25,2.35744508835865E-15,21.));
#387=CARTESIAN_POINT('Origin',(0.,0.,21.));
#388=CARTESIAN_POINT('',(-19.25,2.35744508835865E-15,-21.));
#389=CARTESIAN_POINT('Origin',(0.,0.,-21.));
#390=CARTESIAN_POINT('Origin',(-7.19686321377933E-16,21.,0.));
#391=CARTESIAN_POINT('Origin',(0.,40.,0.));
#392=CARTESIAN_POINT('',(17.,19.0065778087482,-5.55111512312578E-16));
#393=CARTESIAN_POINT('Ctrl Pts',(17.,19.0065778087482,-5.55111512312578E-16));
#394=CARTESIAN_POINT('Ctrl Pts',(17.,19.0065778087482,1.11782749723784));
#395=CARTESIAN_POINT('Ctrl Pts',(16.8882504113594,19.1082502368616,2.25308639568209));
#396=CARTESIAN_POINT('Ctrl Pts',(16.4385691299761,19.496452834905,4.47915686041459));
#397=CARTESIAN_POINT('Ctrl Pts',(16.1009076270246,19.7817622889314,5.57023570293669));
#398=CARTESIAN_POINT('Ctrl Pts',(14.7885667159991,20.8033040809172,8.68133482647068));
#399=CARTESIAN_POINT('Ctrl Pts',(13.4995620633518,21.6984627405554,10.5420684969908));
#400=CARTESIAN_POINT('Ctrl Pts',(11.2895760194039,22.8797499699847,12.7520545409387));
#401=CARTESIAN_POINT('Ctrl Pts',(10.4605650805549,23.2763596960484,13.4456502146666));
#402=CARTESIAN_POINT('Ctrl Pts',(8.64140169460605,24.0112165298552,14.6811140023678));
#403=CARTESIAN_POINT('Ctrl Pts',(7.65113242684854,24.3490485238877,15.2230569751853));
#404=CARTESIAN_POINT('Ctrl Pts',(5.5652848263071,24.9087053326423,16.1030713363458));
#405=CARTESIAN_POINT('Ctrl Pts',(4.46748507112566,25.1307878265696,16.4418652566734));
#406=CARTESIAN_POINT('Ctrl Pts',(2.23763724885819,25.4265196044443,16.8904214136716));
#407=CARTESIAN_POINT('Ctrl Pts',(1.10552984735845,25.5,17.));
#408=CARTESIAN_POINT('Ctrl Pts',(-1.10552984735844,25.5,17.));
#409=CARTESIAN_POINT('Ctrl Pts',(-2.23763724885819,25.4265196044443,16.8904214136716));
#410=CARTESIAN_POINT('Ctrl Pts',(-4.46748507112566,25.1307878265696,16.4418652566734));
#411=CARTESIAN_POINT('Ctrl Pts',(-5.56528482630709,24.9087053326423,16.1030713363458));
#412=CARTESIAN_POINT('Ctrl Pts',(-7.65113242684853,24.3490485238877,15.2230569751853));
#413=CARTESIAN_POINT('Ctrl Pts',(-8.64140169460605,24.0112165298552,14.6811140023678));
#414=CARTESIAN_POINT('Ctrl Pts',(-10.4605650805549,23.2763596960484,13.4456502146666));
#415=CARTESIAN_POINT('Ctrl Pts',(-11.2895760194039,22.8797499699847,12.7520545409387));
#416=CARTESIAN_POINT('Ctrl Pts',(-13.4995620633518,21.6984627405554,10.5420684969908));
#417=CARTESIAN_POINT('Ctrl Pts',(-14.7885667159991,20.8033040809172,8.68133482647068));
#418=CARTESIAN_POINT('Ctrl Pts',(-16.1009076270246,19.7817622889314,5.57023570293669));
#419=CARTESIAN_POINT('Ctrl Pts',(-16.4385691299761,19.496452834905,4.47915686041459));
#420=CARTESIAN_POINT('Ctrl Pts',(-16.8882504113594,19.1082502368616,2.25308639568209));
#421=CARTESIAN_POINT('Ctrl Pts',(-17.,19.0065778087482,1.11782749723784));
#422=CARTESIAN_POINT('Ctrl Pts',(-17.,19.0065778087482,-1.11782749723784));
#423=CARTESIAN_POINT('Ctrl Pts',(-16.8882504113594,19.1082502368616,-2.25308639568209));
#424=CARTESIAN_POINT('Ctrl Pts',(-16.4385691299761,19.496452834905,-4.47915686041458));
#425=CARTESIAN_POINT('Ctrl Pts',(-16.1009076270246,19.7817622889314,-5.57023570293668));
#426=CARTESIAN_POINT('Ctrl Pts',(-14.7885667159991,20.8033040809172,-8.68133482647067));
#427=CARTESIAN_POINT('Ctrl Pts',(-13.4995620633518,21.6984627405554,-10.5420684969908));
#428=CARTESIAN_POINT('Ctrl Pts',(-11.2895760194039,22.8797499699847,-12.7520545409387));
#429=CARTESIAN_POINT('Ctrl Pts',(-10.4605650805549,23.2763596960484,-13.4456502146666));
#430=CARTESIAN_POINT('Ctrl Pts',(-8.64140169460604,24.0112165298552,-14.6811140023678));
#431=CARTESIAN_POINT('Ctrl Pts',(-7.65113242684853,24.3490485238877,-15.2230569751853));
#432=CARTESIAN_POINT('Ctrl Pts',(-5.5652848263071,24.9087053326423,-16.1030713363458));
#433=CARTESIAN_POINT('Ctrl Pts',(-4.46748507112566,25.1307878265696,-16.4418652566734));
#434=CARTESIAN_POINT('Ctrl Pts',(-2.2376372488582,25.4265196044443,-16.8904214136716));
#435=CARTESIAN_POINT('Ctrl Pts',(-1.10552984735845,25.5,-17.));
#436=CARTESIAN_POINT('Ctrl Pts',(1.10552984735844,25.5,-17.));
#437=CARTESIAN_POINT('Ctrl Pts',(2.23763724885819,25.4265196044443,-16.8904214136716));
#438=CARTESIAN_POINT('Ctrl Pts',(4.46748507112566,25.1307878265696,-16.4418652566734));
#439=CARTESIAN_POINT('Ctrl Pts',(5.56528482630709,24.9087053326423,-16.1030713363458));
#440=CARTESIAN_POINT('Ctrl Pts',(7.65113242684853,24.3490485238877,-15.2230569751853));
#441=CARTESIAN_POINT('Ctrl Pts',(8.64140169460604,24.0112165298552,-14.6811140023678));
#442=CARTESIAN_POINT('Ctrl Pts',(10.4605650805549,23.2763596960484,-13.4456502146666));
#443=CARTESIAN_POINT('Ctrl Pts',(11.2895760194039,22.8797499699847,-12.7520545409387));
#444=CARTESIAN_POINT('Ctrl Pts',(13.4995620633518,21.6984627405554,-10.5420684969908));
#445=CARTESIAN_POINT('Ctrl Pts',(14.7885667159991,20.8033040809172,-8.68133482647067));
#446=CARTESIAN_POINT('Ctrl Pts',(16.1009076270246,19.7817622889314,-5.57023570293668));
#447=CARTESIAN_POINT('Ctrl Pts',(16.4385691299761,19.496452834905,-4.47915686041458));
#448=CARTESIAN_POINT('Ctrl Pts',(16.8882504113594,19.1082502368616,-2.25308639568208));
#449=CARTESIAN_POINT('Ctrl Pts',(17.,19.0065778087482,-1.11782749723784));
#450=CARTESIAN_POINT('Ctrl Pts',(17.,19.0065778087482,1.66533453693773E-15));
#451=CARTESIAN_POINT('Origin',(0.,0.,0.));
#452=CARTESIAN_POINT('Origin',(-9.4425648294133E-16,0.,-21.));
#453=CARTESIAN_POINT('Origin',(-9.4425648294133E-16,0.,21.));
#454=UNCERTAINTY_MEASURE_WITH_UNIT(LENGTH_MEASURE(0.01),#458,
'DISTANCE_ACCURACY_VALUE',
'Maximum model space distance between geometric entities at asserted c
onnectivities');
#455=UNCERTAINTY_MEASURE_WITH_UNIT(LENGTH_MEASURE(1.E-6),#458,
'DISTANCE_ACCURACY_VALUE',
'Maximum model space distance between geometric entities at asserted c
onnectivities');
#456=(
GEOMETRIC_REPRESENTATION_CONTEXT(3)
GLOBAL_UNCERTAINTY_ASSIGNED_CONTEXT((#454))
GLOBAL_UNIT_ASSIGNED_CONTEXT((#458,#461,#459))
REPRESENTATION_CONTEXT('','3D')
);
#457=(
GEOMETRIC_REPRESENTATION_CONTEXT(3)
GLOBAL_UNCERTAINTY_ASSIGNED_CONTEXT((#455))
GLOBAL_UNIT_ASSIGNED_CONTEXT((#458,#461,#459))
REPRESENTATION_CONTEXT('','3D')
);
#458=(
LENGTH_UNIT()
NAMED_UNIT(*)
SI_UNIT(.MILLI.,.METRE.)
);
#459=(
NAMED_UNIT(*)
SI_UNIT($,.STERADIAN.)
SOLID_ANGLE_UNIT()
);
#460=DIMENSIONAL_EXPONENTS(0.,0.,0.,0.,0.,0.,0.);
#461=(
CONVERSION_BASED_UNIT('degree',#463)
NAMED_UNIT(#460)
PLANE_ANGLE_UNIT()
);
#462=(
NAMED_UNIT(*)
PLANE_ANGLE_UNIT()
SI_UNIT($,.RADIAN.)
);
#463=PLANE_ANGLE_MEASURE_WITH_UNIT(PLANE_ANGLE_MEASURE(0.01745329252),#462);
#464=SHAPE_DEFINITION_REPRESENTATION(#465,#466);
#465=PRODUCT_DEFINITION_SHAPE('',$,#468);
#466=SHAPE_REPRESENTATION('',(#201),#456);
#467=PRODUCT_DEFINITION_CONTEXT('part definition',#472,'design');
#468=PRODUCT_DEFINITION('TR40040C','TR40040C',#469,#467);
#469=PRODUCT_DEFINITION_FORMATION('',$,#474);
#470=PRODUCT_RELATED_PRODUCT_CATEGORY('TR40040C','TR40040C',(#474));
#471=APPLICATION_PROTOCOL_DEFINITION('international standard',
'automotive_design',2009,#472);
#472=APPLICATION_CONTEXT(
'Core Data for Automotive Mechanical Design Process');
#473=PRODUCT_CONTEXT('part definition',#472,'mechanical');
#474=PRODUCT('TR40040C','TR40040C',$,(#473));
#475=PRESENTATION_STYLE_ASSIGNMENT((#476));
#476=SURFACE_STYLE_USAGE(.BOTH.,#477);
#477=SURFACE_SIDE_STYLE('',(#478));
#478=SURFACE_STYLE_FILL_AREA(#479);
#479=FILL_AREA_STYLE('',(#480));
#480=FILL_AREA_STYLE_COLOUR('',#481);
#481=COLOUR_RGB('',0.8,0.8,0.8);
ENDSEC;
END-ISO-10303-21;
