ISO-10303-21;
HEADER;
FILE_DESCRIPTION( ( 'STEP AP214' ), '1' );
FILE_NAME( 'p:/temp/worker_8/temp/exporttempdir_5716_734_BR1aL/format_0/22056007507(architecture400).stp', '2021-11-18T07:28:24', ( 'License CC BY-ND 4.0' ), ( 'CADENAS' ), ' ', 'PARTsolutions', ' ' );
FILE_SCHEMA( ( 'AUTOMOTIVE_DESIGN { 1 0 10303 214 1 1 1 1 }' ) );
ENDSEC;
DATA;
#1 = MECHANICAL_DESIGN_GEOMETRIC_PRESENTATION_REPRESENTATION( ' ', ( #10, #11, #12, #13, #14, #15, #16, #17, #18, #19, #20, #21, #22 ), #6 );
#2 = PRODUCT_DEFINITION_CONTEXT( '', #23, 'design' );
#3 = APPLICATION_PROTOCOL_DEFINITION( 'international standard', 'automotive_design', 2001, #23 );
#4 = PRODUCT_CATEGORY_RELATIONSHIP( 'NONE', 'NONE', #24, #25 );
#5 = SHAPE_DEFINITION_REPRESENTATION( #26, #27 );
#6 =  ( GEOMETRIC_REPRESENTATION_CONTEXT( 3 )GLOBAL_UNCERTAINTY_ASSIGNED_CONTEXT( ( #30 ) )GLOBAL_UNIT_ASSIGNED_CONTEXT( ( #32, #33, #34 ) )REPRESENTATION_CONTEXT( 'NONE', 'WORKSPACE' ) );
#10 = STYLED_ITEM( '', ( #36 ), #37 );
#11 = STYLED_ITEM( '', ( #38 ), #39 );
#12 = STYLED_ITEM( '', ( #40 ), #41 );
#13 = STYLED_ITEM( '', ( #42 ), #43 );
#14 = STYLED_ITEM( '', ( #44 ), #45 );
#15 = STYLED_ITEM( '', ( #46 ), #47 );
#16 = STYLED_ITEM( '', ( #48 ), #49 );
#17 = STYLED_ITEM( '', ( #50 ), #51 );
#18 = STYLED_ITEM( '', ( #52 ), #53 );
#19 = STYLED_ITEM( '', ( #54 ), #55 );
#20 = STYLED_ITEM( '', ( #56 ), #57 );
#21 = STYLED_ITEM( '', ( #58 ), #59 );
#22 = STYLED_ITEM( '', ( #60 ), #61 );
#23 = APPLICATION_CONTEXT( 'core data for automotive mechanical design processes' );
#24 = PRODUCT_CATEGORY( 'part', 'NONE' );
#25 = PRODUCT_RELATED_PRODUCT_CATEGORY( 'detail', ' ', ( #62 ) );
#26 = PRODUCT_DEFINITION_SHAPE( 'NONE', 'NONE', #63 );
#27 = ADVANCED_BREP_SHAPE_REPRESENTATION( '_22056007507(architecture400)', ( #64, #65 ), #6 );
#30 = UNCERTAINTY_MEASURE_WITH_UNIT( LENGTH_MEASURE( 0.00100000000000000 ), #32, '', '' );
#32 =  ( CONVERSION_BASED_UNIT( 'MILLIMETRE', #68 )LENGTH_UNIT(  )NAMED_UNIT( #71 ) );
#33 =  ( NAMED_UNIT( #73 )PLANE_ANGLE_UNIT(  )SI_UNIT( $, .RADIAN. ) );
#34 =  ( NAMED_UNIT( #73 )SI_UNIT( $, .STERADIAN. )SOLID_ANGLE_UNIT(  ) );
#36 = PRESENTATION_STYLE_ASSIGNMENT( ( #79 ) );
#37 = ADVANCED_FACE( '', ( #80, #81 ), #82, .T. );
#38 = PRESENTATION_STYLE_ASSIGNMENT( ( #83 ) );
#39 = ADVANCED_FACE( '', ( #84, #85, #86 ), #87, .F. );
#40 = PRESENTATION_STYLE_ASSIGNMENT( ( #88 ) );
#41 = ADVANCED_FACE( '', ( #89, #90, #91 ), #92, .T. );
#42 = PRESENTATION_STYLE_ASSIGNMENT( ( #93 ) );
#43 = ADVANCED_FACE( '', ( #94, #95 ), #96, .T. );
#44 = PRESENTATION_STYLE_ASSIGNMENT( ( #97 ) );
#45 = ADVANCED_FACE( '', ( #98, #99 ), #100, .T. );
#46 = PRESENTATION_STYLE_ASSIGNMENT( ( #101 ) );
#47 = ADVANCED_FACE( '', ( #102, #103 ), #104, .F. );
#48 = PRESENTATION_STYLE_ASSIGNMENT( ( #105 ) );
#49 = ADVANCED_FACE( '', ( #106, #107 ), #108, .F. );
#50 = PRESENTATION_STYLE_ASSIGNMENT( ( #109 ) );
#51 = ADVANCED_FACE( '', ( #110, #111 ), #112, .T. );
#52 = PRESENTATION_STYLE_ASSIGNMENT( ( #113 ) );
#53 = ADVANCED_FACE( '', ( #114, #115 ), #116, .F. );
#54 = PRESENTATION_STYLE_ASSIGNMENT( ( #117 ) );
#55 = ADVANCED_FACE( '', ( #118, #119 ), #120, .F. );
#56 = PRESENTATION_STYLE_ASSIGNMENT( ( #121 ) );
#57 = ADVANCED_FACE( '', ( #122, #123 ), #124, .T. );
#58 = PRESENTATION_STYLE_ASSIGNMENT( ( #125 ) );
#59 = ADVANCED_FACE( '', ( #126, #127 ), #128, .F. );
#60 = PRESENTATION_STYLE_ASSIGNMENT( ( #129 ) );
#61 = ADVANCED_FACE( '', ( #130, #131 ), #132, .T. );
#62 = PRODUCT( '_22056007507(architecture400)', '_22056007507(architecture400)', 'PART-_22056007507(architecture400)-DESC', ( #133 ) );
#63 = PRODUCT_DEFINITION( 'NONE', 'NONE', #134, #2 );
#64 = MANIFOLD_SOLID_BREP( '_22056007507(architecture400)', #135 );
#65 = AXIS2_PLACEMENT_3D( '', #136, #137, #138 );
#68 = LENGTH_MEASURE_WITH_UNIT( LENGTH_MEASURE( 1.00000000000000 ), #139 );
#71 = DIMENSIONAL_EXPONENTS( 1.00000000000000, 0.000000000000000, 0.000000000000000, 0.000000000000000, 0.000000000000000, 0.000000000000000, 0.000000000000000 );
#73 = DIMENSIONAL_EXPONENTS( 0.000000000000000, 0.000000000000000, 0.000000000000000, 0.000000000000000, 0.000000000000000, 0.000000000000000, 0.000000000000000 );
#79 = SURFACE_STYLE_USAGE( .BOTH., #140 );
#80 = FACE_BOUND( '', #141, .T. );
#81 = FACE_OUTER_BOUND( '', #142, .T. );
#82 = PLANE( '', #143 );
#83 = SURFACE_STYLE_USAGE( .BOTH., #144 );
#84 = FACE_OUTER_BOUND( '', #145, .T. );
#85 = FACE_BOUND( '', #146, .T. );
#86 = FACE_OUTER_BOUND( '', #147, .T. );
#87 = CYLINDRICAL_SURFACE( '', #148, 34.5000000000000 );
#88 = SURFACE_STYLE_USAGE( .BOTH., #149 );
#89 = FACE_OUTER_BOUND( '', #150, .T. );
#90 = FACE_OUTER_BOUND( '', #151, .T. );
#91 = FACE_BOUND( '', #152, .T. );
#92 = CYLINDRICAL_SURFACE( '', #153, 46.5000000000000 );
#93 = SURFACE_STYLE_USAGE( .BOTH., #154 );
#94 = FACE_BOUND( '', #155, .T. );
#95 = FACE_OUTER_BOUND( '', #156, .T. );
#96 = PLANE( '', #157 );
#97 = SURFACE_STYLE_USAGE( .BOTH., #158 );
#98 = FACE_BOUND( '', #159, .T. );
#99 = FACE_OUTER_BOUND( '', #160, .T. );
#100 = PLANE( '', #161 );
#101 = SURFACE_STYLE_USAGE( .BOTH., #162 );
#102 = FACE_OUTER_BOUND( '', #163, .T. );
#103 = FACE_OUTER_BOUND( '', #164, .T. );
#104 = CYLINDRICAL_SURFACE( '', #165, 37.5000000000000 );
#105 = SURFACE_STYLE_USAGE( .BOTH., #166 );
#106 = FACE_BOUND( '', #167, .T. );
#107 = FACE_OUTER_BOUND( '', #168, .T. );
#108 = PLANE( '', #169 );
#109 = SURFACE_STYLE_USAGE( .BOTH., #170 );
#110 = FACE_OUTER_BOUND( '', #171, .T. );
#111 = FACE_BOUND( '', #172, .T. );
#112 = PLANE( '', #173 );
#113 = SURFACE_STYLE_USAGE( .BOTH., #174 );
#114 = FACE_OUTER_BOUND( '', #175, .T. );
#115 = FACE_OUTER_BOUND( '', #176, .T. );
#116 = CYLINDRICAL_SURFACE( '', #177, 34.5000000000000 );
#117 = SURFACE_STYLE_USAGE( .BOTH., #178 );
#118 = FACE_OUTER_BOUND( '', #179, .T. );
#119 = FACE_OUTER_BOUND( '', #180, .T. );
#120 = CYLINDRICAL_SURFACE( '', #181, 37.5000000000000 );
#121 = SURFACE_STYLE_USAGE( .BOTH., #182 );
#122 = FACE_BOUND( '', #183, .T. );
#123 = FACE_OUTER_BOUND( '', #184, .T. );
#124 = PLANE( '', #185 );
#125 = SURFACE_STYLE_USAGE( .BOTH., #186 );
#126 = FACE_OUTER_BOUND( '', #187, .T. );
#127 = FACE_OUTER_BOUND( '', #188, .T. );
#128 = CYLINDRICAL_SURFACE( '', #189, 37.5000000000000 );
#129 = SURFACE_STYLE_USAGE( .BOTH., #190 );
#130 = FACE_OUTER_BOUND( '', #191, .T. );
#131 = FACE_OUTER_BOUND( '', #192, .T. );
#132 = CYLINDRICAL_SURFACE( '', #193, 46.5000000000000 );
#133 = PRODUCT_CONTEXT( '', #23, 'mechanical' );
#134 = PRODUCT_DEFINITION_FORMATION_WITH_SPECIFIED_SOURCE( ' ', 'NONE', #62, .NOT_KNOWN. );
#135 = CLOSED_SHELL( '', ( #39, #41, #45, #49, #61, #43, #59, #37, #51, #55, #47, #57, #53 ) );
#136 = CARTESIAN_POINT( '', ( 0.000000000000000, 0.000000000000000, 0.000000000000000 ) );
#137 = DIRECTION( '', ( 0.000000000000000, 0.000000000000000, 1.00000000000000 ) );
#138 = DIRECTION( '', ( 1.00000000000000, 0.000000000000000, 0.000000000000000 ) );
#139 =  ( LENGTH_UNIT(  )NAMED_UNIT( #71 )SI_UNIT( .MILLI., .METRE. ) );
#140 = SURFACE_SIDE_STYLE( '', ( #195 ) );
#141 = EDGE_LOOP( '', ( #196 ) );
#142 = EDGE_LOOP( '', ( #197 ) );
#143 = AXIS2_PLACEMENT_3D( '', #198, #199, #200 );
#144 = SURFACE_SIDE_STYLE( '', ( #201 ) );
#145 = EDGE_LOOP( '', ( #202 ) );
#146 = EDGE_LOOP( '', ( #203, #204 ) );
#147 = EDGE_LOOP( '', ( #205 ) );
#148 = AXIS2_PLACEMENT_3D( '', #206, #207, #208 );
#149 = SURFACE_SIDE_STYLE( '', ( #209 ) );
#150 = EDGE_LOOP( '', ( #210 ) );
#151 = EDGE_LOOP( '', ( #211 ) );
#152 = EDGE_LOOP( '', ( #212, #213 ) );
#153 = AXIS2_PLACEMENT_3D( '', #214, #215, #216 );
#154 = SURFACE_SIDE_STYLE( '', ( #217 ) );
#155 = EDGE_LOOP( '', ( #218 ) );
#156 = EDGE_LOOP( '', ( #219 ) );
#157 = AXIS2_PLACEMENT_3D( '', #220, #221, #222 );
#158 = SURFACE_SIDE_STYLE( '', ( #223 ) );
#159 = EDGE_LOOP( '', ( #224 ) );
#160 = EDGE_LOOP( '', ( #225 ) );
#161 = AXIS2_PLACEMENT_3D( '', #226, #227, #228 );
#162 = SURFACE_SIDE_STYLE( '', ( #229 ) );
#163 = EDGE_LOOP( '', ( #230 ) );
#164 = EDGE_LOOP( '', ( #231 ) );
#165 = AXIS2_PLACEMENT_3D( '', #232, #233, #234 );
#166 = SURFACE_SIDE_STYLE( '', ( #235 ) );
#167 = EDGE_LOOP( '', ( #236 ) );
#168 = EDGE_LOOP( '', ( #237 ) );
#169 = AXIS2_PLACEMENT_3D( '', #238, #239, #240 );
#170 = SURFACE_SIDE_STYLE( '', ( #241 ) );
#171 = EDGE_LOOP( '', ( #242 ) );
#172 = EDGE_LOOP( '', ( #243 ) );
#173 = AXIS2_PLACEMENT_3D( '', #244, #245, #246 );
#174 = SURFACE_SIDE_STYLE( '', ( #247 ) );
#175 = EDGE_LOOP( '', ( #248, #249 ) );
#176 = EDGE_LOOP( '', ( #250 ) );
#177 = AXIS2_PLACEMENT_3D( '', #251, #252, #253 );
#178 = SURFACE_SIDE_STYLE( '', ( #254 ) );
#179 = EDGE_LOOP( '', ( #255 ) );
#180 = EDGE_LOOP( '', ( #256 ) );
#181 = AXIS2_PLACEMENT_3D( '', #257, #258, #259 );
#182 = SURFACE_SIDE_STYLE( '', ( #260 ) );
#183 = EDGE_LOOP( '', ( #261 ) );
#184 = EDGE_LOOP( '', ( #262 ) );
#185 = AXIS2_PLACEMENT_3D( '', #263, #264, #265 );
#186 = SURFACE_SIDE_STYLE( '', ( #266 ) );
#187 = EDGE_LOOP( '', ( #267 ) );
#188 = EDGE_LOOP( '', ( #268 ) );
#189 = AXIS2_PLACEMENT_3D( '', #269, #270, #271 );
#190 = SURFACE_SIDE_STYLE( '', ( #272 ) );
#191 = EDGE_LOOP( '', ( #273 ) );
#192 = EDGE_LOOP( '', ( #274, #275 ) );
#193 = AXIS2_PLACEMENT_3D( '', #276, #277, #278 );
#195 = SURFACE_STYLE_FILL_AREA( #279 );
#196 = ORIENTED_EDGE( '', *, *, #280, .T. );
#197 = ORIENTED_EDGE( '', *, *, #281, .F. );
#198 = CARTESIAN_POINT( '', ( -87.0000000000000, 0.000000000000000, 37.5000000000000 ) );
#199 = DIRECTION( '', ( -1.00000000000000, 0.000000000000000, 0.000000000000000 ) );
#200 = DIRECTION( '', ( 0.000000000000000, 0.000000000000000, 1.00000000000000 ) );
#201 = SURFACE_STYLE_FILL_AREA( #282 );
#202 = ORIENTED_EDGE( '', *, *, #283, .T. );
#203 = ORIENTED_EDGE( '', *, *, #284, .T. );
#204 = ORIENTED_EDGE( '', *, *, #285, .T. );
#205 = ORIENTED_EDGE( '', *, *, #280, .F. );
#206 = CARTESIAN_POINT( '', ( 32.5000000000000, 0.000000000000000, 0.000000000000000 ) );
#207 = DIRECTION( '', ( -1.00000000000000, -0.000000000000000, 0.000000000000000 ) );
#208 = DIRECTION( '', ( -0.000000000000000, 0.000000000000000, -1.00000000000000 ) );
#209 = SURFACE_STYLE_FILL_AREA( #286 );
#210 = ORIENTED_EDGE( '', *, *, #287, .T. );
#211 = ORIENTED_EDGE( '', *, *, #288, .F. );
#212 = ORIENTED_EDGE( '', *, *, #289, .F. );
#213 = ORIENTED_EDGE( '', *, *, #290, .F. );
#214 = CARTESIAN_POINT( '', ( 32.5000000000000, 0.000000000000000, 0.000000000000000 ) );
#215 = DIRECTION( '', ( 1.00000000000000, -0.000000000000000, -0.000000000000000 ) );
#216 = DIRECTION( '', ( 0.000000000000000, 0.000000000000000, 1.00000000000000 ) );
#217 = SURFACE_STYLE_FILL_AREA( #291 );
#218 = ORIENTED_EDGE( '', *, *, #292, .T. );
#219 = ORIENTED_EDGE( '', *, *, #293, .T. );
#220 = CARTESIAN_POINT( '', ( -43.5000000000000, 0.000000000000000, 71.0000000000000 ) );
#221 = DIRECTION( '', ( 0.000000000000000, 0.000000000000000, 1.00000000000000 ) );
#222 = DIRECTION( '', ( 1.00000000000000, 0.000000000000000, -0.000000000000000 ) );
#223 = SURFACE_STYLE_FILL_AREA( #294 );
#224 = ORIENTED_EDGE( '', *, *, #295, .F. );
#225 = ORIENTED_EDGE( '', *, *, #288, .T. );
#226 = CARTESIAN_POINT( '', ( 32.5000000000000, 0.000000000000000, 0.000000000000000 ) );
#227 = DIRECTION( '', ( 1.00000000000000, 0.000000000000000, 0.000000000000000 ) );
#228 = DIRECTION( '', ( 0.000000000000000, 0.000000000000000, -1.00000000000000 ) );
#229 = SURFACE_STYLE_FILL_AREA( #296 );
#230 = ORIENTED_EDGE( '', *, *, #297, .T. );
#231 = ORIENTED_EDGE( '', *, *, #292, .F. );
#232 = CARTESIAN_POINT( '', ( -43.5000000000000, 0.000000000000000, 0.000000000000000 ) );
#233 = DIRECTION( '', ( 0.000000000000000, -0.000000000000000, 1.00000000000000 ) );
#234 = DIRECTION( '', ( -1.00000000000000, 0.000000000000000, 0.000000000000000 ) );
#235 = SURFACE_STYLE_FILL_AREA( #298 );
#236 = ORIENTED_EDGE( '', *, *, #299, .T. );
#237 = ORIENTED_EDGE( '', *, *, #287, .F. );
#238 = CARTESIAN_POINT( '', ( -119.500000000000, 0.000000000000000, 0.000000000000000 ) );
#239 = DIRECTION( '', ( 1.00000000000000, 0.000000000000000, 0.000000000000000 ) );
#240 = DIRECTION( '', ( 0.000000000000000, 0.000000000000000, -1.00000000000000 ) );
#241 = SURFACE_STYLE_FILL_AREA( #300 );
#242 = ORIENTED_EDGE( '', *, *, #301, .T. );
#243 = ORIENTED_EDGE( '', *, *, #283, .F. );
#244 = CARTESIAN_POINT( '', ( 0.000000000000000, 0.000000000000000, 34.5000000000000 ) );
#245 = DIRECTION( '', ( 1.00000000000000, 0.000000000000000, -0.000000000000000 ) );
#246 = DIRECTION( '', ( -0.000000000000000, 0.000000000000000, -1.00000000000000 ) );
#247 = SURFACE_STYLE_FILL_AREA( #302 );
#248 = ORIENTED_EDGE( '', *, *, #284, .F. );
#249 = ORIENTED_EDGE( '', *, *, #285, .F. );
#250 = ORIENTED_EDGE( '', *, *, #303, .F. );
#251 = CARTESIAN_POINT( '', ( -43.5000000000000, 0.000000000000000, 0.000000000000000 ) );
#252 = DIRECTION( '', ( 0.000000000000000, -0.000000000000000, 1.00000000000000 ) );
#253 = DIRECTION( '', ( -1.00000000000000, 0.000000000000000, 0.000000000000000 ) );
#254 = SURFACE_STYLE_FILL_AREA( #304 );
#255 = ORIENTED_EDGE( '', *, *, #295, .T. );
#256 = ORIENTED_EDGE( '', *, *, #301, .F. );
#257 = CARTESIAN_POINT( '', ( 32.5000000000000, 0.000000000000000, 0.000000000000000 ) );
#258 = DIRECTION( '', ( -1.00000000000000, -0.000000000000000, 0.000000000000000 ) );
#259 = DIRECTION( '', ( -0.000000000000000, 0.000000000000000, -1.00000000000000 ) );
#260 = SURFACE_STYLE_FILL_AREA( #305 );
#261 = ORIENTED_EDGE( '', *, *, #303, .T. );
#262 = ORIENTED_EDGE( '', *, *, #297, .F. );
#263 = CARTESIAN_POINT( '', ( -6.00000000000000, 0.000000000000000, 38.5000000000000 ) );
#264 = DIRECTION( '', ( 0.000000000000000, 0.000000000000000, 1.00000000000000 ) );
#265 = DIRECTION( '', ( 1.00000000000000, 0.000000000000000, -0.000000000000000 ) );
#266 = SURFACE_STYLE_FILL_AREA( #306 );
#267 = ORIENTED_EDGE( '', *, *, #281, .T. );
#268 = ORIENTED_EDGE( '', *, *, #299, .F. );
#269 = CARTESIAN_POINT( '', ( 32.5000000000000, 0.000000000000000, 0.000000000000000 ) );
#270 = DIRECTION( '', ( -1.00000000000000, -0.000000000000000, 0.000000000000000 ) );
#271 = DIRECTION( '', ( -0.000000000000000, 0.000000000000000, -1.00000000000000 ) );
#272 = SURFACE_STYLE_FILL_AREA( #307 );
#273 = ORIENTED_EDGE( '', *, *, #293, .F. );
#274 = ORIENTED_EDGE( '', *, *, #290, .T. );
#275 = ORIENTED_EDGE( '', *, *, #289, .T. );
#276 = CARTESIAN_POINT( '', ( -43.5000000000000, 0.000000000000000, 71.0000000000000 ) );
#277 = DIRECTION( '', ( 0.000000000000000, -0.000000000000000, 1.00000000000000 ) );
#278 = DIRECTION( '', ( -1.00000000000000, 0.000000000000000, 0.000000000000000 ) );
#279 = FILL_AREA_STYLE( '', ( #308 ) );
#280 = EDGE_CURVE( '', #309, #309, #310, .T. );
#281 = EDGE_CURVE( '', #311, #311, #312, .T. );
#282 = FILL_AREA_STYLE( '', ( #313 ) );
#283 = EDGE_CURVE( '', #314, #314, #315, .T. );
#284 = EDGE_CURVE( '', #316, #317, #318, .F. );
#285 = EDGE_CURVE( '', #317, #316, #319, .T. );
#286 = FILL_AREA_STYLE( '', ( #320 ) );
#287 = EDGE_CURVE( '', #321, #321, #322, .T. );
#288 = EDGE_CURVE( '', #323, #323, #324, .T. );
#289 = EDGE_CURVE( '', #325, #326, #327, .F. );
#290 = EDGE_CURVE( '', #326, #325, #328, .T. );
#291 = FILL_AREA_STYLE( '', ( #329 ) );
#292 = EDGE_CURVE( '', #330, #330, #331, .T. );
#293 = EDGE_CURVE( '', #332, #332, #333, .T. );
#294 = FILL_AREA_STYLE( '', ( #334 ) );
#295 = EDGE_CURVE( '', #335, #335, #336, .T. );
#296 = FILL_AREA_STYLE( '', ( #337 ) );
#297 = EDGE_CURVE( '', #338, #338, #339, .T. );
#298 = FILL_AREA_STYLE( '', ( #340 ) );
#299 = EDGE_CURVE( '', #341, #341, #342, .T. );
#300 = FILL_AREA_STYLE( '', ( #343 ) );
#301 = EDGE_CURVE( '', #344, #344, #345, .T. );
#302 = FILL_AREA_STYLE( '', ( #346 ) );
#303 = EDGE_CURVE( '', #347, #347, #348, .T. );
#304 = FILL_AREA_STYLE( '', ( #349 ) );
#305 = FILL_AREA_STYLE( '', ( #350 ) );
#306 = FILL_AREA_STYLE( '', ( #351 ) );
#307 = FILL_AREA_STYLE( '', ( #352 ) );
#308 = FILL_AREA_STYLE_COLOUR( '', #353 );
#309 = VERTEX_POINT( '', #354 );
#310 = CIRCLE( '', #355, 34.5000000000000 );
#311 = VERTEX_POINT( '', #356 );
#312 = CIRCLE( '', #357, 37.5000000000000 );
#313 = FILL_AREA_STYLE_COLOUR( '', #358 );
#314 = VERTEX_POINT( '', #359 );
#315 = CIRCLE( '', #360, 34.5000000000000 );
#316 = VERTEX_POINT( '', #361 );
#317 = VERTEX_POINT( '', #362 );
#318 = ELLIPSE( '', #363, 48.7903679019000, 34.5000000000000 );
#319 = ELLIPSE( '', #364, 48.7903679019000, 34.5000000000000 );
#320 = FILL_AREA_STYLE_COLOUR( '', #365 );
#321 = VERTEX_POINT( '', #366 );
#322 = CIRCLE( '', #367, 46.5000000000000 );
#323 = VERTEX_POINT( '', #368 );
#324 = CIRCLE( '', #369, 46.5000000000000 );
#325 = VERTEX_POINT( '', #370 );
#326 = VERTEX_POINT( '', #371 );
#327 = ELLIPSE( '', #372, 65.7609306503000, 46.5000000000000 );
#328 = ELLIPSE( '', #373, 65.7609306503000, 46.5000000000000 );
#329 = FILL_AREA_STYLE_COLOUR( '', #374 );
#330 = VERTEX_POINT( '', #375 );
#331 = CIRCLE( '', #376, 37.5000000000000 );
#332 = VERTEX_POINT( '', #377 );
#333 = CIRCLE( '', #378, 46.5000000000000 );
#334 = FILL_AREA_STYLE_COLOUR( '', #379 );
#335 = VERTEX_POINT( '', #380 );
#336 = CIRCLE( '', #381, 37.5000000000000 );
#337 = FILL_AREA_STYLE_COLOUR( '', #382 );
#338 = VERTEX_POINT( '', #383 );
#339 = CIRCLE( '', #384, 37.5000000000000 );
#340 = FILL_AREA_STYLE_COLOUR( '', #385 );
#341 = VERTEX_POINT( '', #386 );
#342 = CIRCLE( '', #387, 37.5000000000000 );
#343 = FILL_AREA_STYLE_COLOUR( '', #388 );
#344 = VERTEX_POINT( '', #389 );
#345 = CIRCLE( '', #390, 37.5000000000000 );
#346 = FILL_AREA_STYLE_COLOUR( '', #391 );
#347 = VERTEX_POINT( '', #392 );
#348 = CIRCLE( '', #393, 34.5000000000000 );
#349 = FILL_AREA_STYLE_COLOUR( '', #394 );
#350 = FILL_AREA_STYLE_COLOUR( '', #395 );
#351 = FILL_AREA_STYLE_COLOUR( '', #396 );
#352 = FILL_AREA_STYLE_COLOUR( '', #397 );
#353 = COLOUR_RGB( '', 0.689999997600000, 0.689999997600000, 0.689999997600000 );
#354 = CARTESIAN_POINT( '', ( -87.0000000000000, 0.000000000000000, -34.5000000000000 ) );
#355 = AXIS2_PLACEMENT_3D( '', #398, #399, #400 );
#356 = CARTESIAN_POINT( '', ( -87.0000000000000, 0.000000000000000, -37.5000000000000 ) );
#357 = AXIS2_PLACEMENT_3D( '', #401, #402, #403 );
#358 = COLOUR_RGB( '', 0.689999997600000, 0.689999997600000, 0.689999997600000 );
#359 = CARTESIAN_POINT( '', ( 0.000000000000000, 0.000000000000000, -34.5000000000000 ) );
#360 = AXIS2_PLACEMENT_3D( '', #404, #405, #406 );
#361 = CARTESIAN_POINT( '', ( -43.5000000000000, -34.5000000000000, 0.000000000000000 ) );
#362 = CARTESIAN_POINT( '', ( -43.5000000000000, 34.5000000000000, 0.000000000000000 ) );
#363 = AXIS2_PLACEMENT_3D( '', #407, #408, #409 );
#364 = AXIS2_PLACEMENT_3D( '', #410, #411, #412 );
#365 = COLOUR_RGB( '', 0.689999997600000, 0.689999997600000, 0.689999997600000 );
#366 = CARTESIAN_POINT( '', ( -119.500000000000, 46.5000000000000, 0.000000000000000 ) );
#367 = AXIS2_PLACEMENT_3D( '', #413, #414, #415 );
#368 = CARTESIAN_POINT( '', ( 32.5000000000000, 46.5000000000000, 0.000000000000000 ) );
#369 = AXIS2_PLACEMENT_3D( '', #416, #417, #418 );
#370 = CARTESIAN_POINT( '', ( -43.5000000000000, 46.5000000000000, 0.000000000000000 ) );
#371 = CARTESIAN_POINT( '', ( -43.5000000000000, -46.5000000000000, 0.000000000000000 ) );
#372 = AXIS2_PLACEMENT_3D( '', #419, #420, #421 );
#373 = AXIS2_PLACEMENT_3D( '', #422, #423, #424 );
#374 = COLOUR_RGB( '', 0.689999997600000, 0.689999997600000, 0.689999997600000 );
#375 = CARTESIAN_POINT( '', ( -81.0000000000000, 0.000000000000000, 71.0000000000000 ) );
#376 = AXIS2_PLACEMENT_3D( '', #425, #426, #427 );
#377 = CARTESIAN_POINT( '', ( 3.00000000000000, 0.000000000000000, 71.0000000000000 ) );
#378 = AXIS2_PLACEMENT_3D( '', #428, #429, #430 );
#379 = COLOUR_RGB( '', 0.689999997600000, 0.689999997600000, 0.689999997600000 );
#380 = CARTESIAN_POINT( '', ( 32.5000000000000, 0.000000000000000, -37.5000000000000 ) );
#381 = AXIS2_PLACEMENT_3D( '', #431, #432, #433 );
#382 = COLOUR_RGB( '', 0.689999997600000, 0.689999997600000, 0.689999997600000 );
#383 = CARTESIAN_POINT( '', ( -81.0000000000000, 0.000000000000000, 38.5000000000000 ) );
#384 = AXIS2_PLACEMENT_3D( '', #434, #435, #436 );
#385 = COLOUR_RGB( '', 0.689999997600000, 0.689999997600000, 0.689999997600000 );
#386 = CARTESIAN_POINT( '', ( -119.500000000000, 0.000000000000000, -37.5000000000000 ) );
#387 = AXIS2_PLACEMENT_3D( '', #437, #438, #439 );
#388 = COLOUR_RGB( '', 0.689999997600000, 0.689999997600000, 0.689999997600000 );
#389 = CARTESIAN_POINT( '', ( 0.000000000000000, 0.000000000000000, -37.5000000000000 ) );
#390 = AXIS2_PLACEMENT_3D( '', #440, #441, #442 );
#391 = COLOUR_RGB( '', 0.689999997600000, 0.689999997600000, 0.689999997600000 );
#392 = CARTESIAN_POINT( '', ( -78.0000000000000, 0.000000000000000, 38.5000000000000 ) );
#393 = AXIS2_PLACEMENT_3D( '', #443, #444, #445 );
#394 = COLOUR_RGB( '', 0.689999997600000, 0.689999997600000, 0.689999997600000 );
#395 = COLOUR_RGB( '', 0.689999997600000, 0.689999997600000, 0.689999997600000 );
#396 = COLOUR_RGB( '', 0.689999997600000, 0.689999997600000, 0.689999997600000 );
#397 = COLOUR_RGB( '', 0.689999997600000, 0.689999997600000, 0.689999997600000 );
#398 = CARTESIAN_POINT( '', ( -87.0000000000000, 0.000000000000000, 0.000000000000000 ) );
#399 = DIRECTION( '', ( 1.00000000000000, 0.000000000000000, -0.000000000000000 ) );
#400 = DIRECTION( '', ( -0.000000000000000, 0.000000000000000, -1.00000000000000 ) );
#401 = CARTESIAN_POINT( '', ( -87.0000000000000, 0.000000000000000, 0.000000000000000 ) );
#402 = DIRECTION( '', ( 1.00000000000000, 0.000000000000000, -0.000000000000000 ) );
#403 = DIRECTION( '', ( -0.000000000000000, 0.000000000000000, -1.00000000000000 ) );
#404 = CARTESIAN_POINT( '', ( 0.000000000000000, 0.000000000000000, 0.000000000000000 ) );
#405 = DIRECTION( '', ( 1.00000000000000, 0.000000000000000, -0.000000000000000 ) );
#406 = DIRECTION( '', ( -0.000000000000000, 0.000000000000000, -1.00000000000000 ) );
#407 = CARTESIAN_POINT( '', ( -43.5000000000000, 0.000000000000000, 0.000000000000000 ) );
#408 = DIRECTION( '', ( 0.707106781186548, 0.000000000000000, -0.707106781186548 ) );
#409 = DIRECTION( '', ( 0.707106781186548, 0.000000000000000, 0.707106781186548 ) );
#410 = CARTESIAN_POINT( '', ( -43.5000000000000, 0.000000000000000, 0.000000000000000 ) );
#411 = DIRECTION( '', ( 0.707106781186548, 0.000000000000000, 0.707106781186548 ) );
#412 = DIRECTION( '', ( 0.707106781186548, -0.000000000000000, -0.707106781186548 ) );
#413 = CARTESIAN_POINT( '', ( -119.500000000000, 0.000000000000000, 0.000000000000000 ) );
#414 = DIRECTION( '', ( 1.00000000000000, 0.000000000000000, 0.000000000000000 ) );
#415 = DIRECTION( '', ( 0.000000000000000, 1.00000000000000, 0.000000000000000 ) );
#416 = CARTESIAN_POINT( '', ( 32.5000000000000, 0.000000000000000, 0.000000000000000 ) );
#417 = DIRECTION( '', ( 1.00000000000000, 0.000000000000000, 0.000000000000000 ) );
#418 = DIRECTION( '', ( 0.000000000000000, 1.00000000000000, 0.000000000000000 ) );
#419 = CARTESIAN_POINT( '', ( -43.5000000000000, 0.000000000000000, 0.000000000000000 ) );
#420 = DIRECTION( '', ( -0.707106781186548, 0.000000000000000, -0.707106781186548 ) );
#421 = DIRECTION( '', ( -0.707106781186548, 0.000000000000000, 0.707106781186548 ) );
#422 = CARTESIAN_POINT( '', ( -43.5000000000000, 0.000000000000000, 0.000000000000000 ) );
#423 = DIRECTION( '', ( -0.707106781186548, 0.000000000000000, 0.707106781186548 ) );
#424 = DIRECTION( '', ( -0.707106781186548, -0.000000000000000, -0.707106781186548 ) );
#425 = CARTESIAN_POINT( '', ( -43.5000000000000, 0.000000000000000, 71.0000000000000 ) );
#426 = DIRECTION( '', ( -0.000000000000000, 0.000000000000000, -1.00000000000000 ) );
#427 = DIRECTION( '', ( -1.00000000000000, 0.000000000000000, 0.000000000000000 ) );
#428 = CARTESIAN_POINT( '', ( -43.5000000000000, 0.000000000000000, 71.0000000000000 ) );
#429 = DIRECTION( '', ( 0.000000000000000, 0.000000000000000, 1.00000000000000 ) );
#430 = DIRECTION( '', ( 1.00000000000000, 0.000000000000000, 0.000000000000000 ) );
#431 = CARTESIAN_POINT( '', ( 32.5000000000000, 0.000000000000000, 0.000000000000000 ) );
#432 = DIRECTION( '', ( 1.00000000000000, 0.000000000000000, -0.000000000000000 ) );
#433 = DIRECTION( '', ( -0.000000000000000, 0.000000000000000, -1.00000000000000 ) );
#434 = CARTESIAN_POINT( '', ( -43.5000000000000, 0.000000000000000, 38.5000000000000 ) );
#435 = DIRECTION( '', ( -0.000000000000000, 0.000000000000000, -1.00000000000000 ) );
#436 = DIRECTION( '', ( -1.00000000000000, 0.000000000000000, 0.000000000000000 ) );
#437 = CARTESIAN_POINT( '', ( -119.500000000000, 0.000000000000000, 0.000000000000000 ) );
#438 = DIRECTION( '', ( 1.00000000000000, 0.000000000000000, -0.000000000000000 ) );
#439 = DIRECTION( '', ( -0.000000000000000, 0.000000000000000, -1.00000000000000 ) );
#440 = CARTESIAN_POINT( '', ( 0.000000000000000, 0.000000000000000, 0.000000000000000 ) );
#441 = DIRECTION( '', ( 1.00000000000000, 0.000000000000000, -0.000000000000000 ) );
#442 = DIRECTION( '', ( -0.000000000000000, 0.000000000000000, -1.00000000000000 ) );
#443 = CARTESIAN_POINT( '', ( -43.5000000000000, 0.000000000000000, 38.5000000000000 ) );
#444 = DIRECTION( '', ( -0.000000000000000, 0.000000000000000, -1.00000000000000 ) );
#445 = DIRECTION( '', ( -1.00000000000000, 0.000000000000000, 0.000000000000000 ) );
ENDSEC;
END-ISO-10303-21;
