ISO-10303-21;
HEADER;
FILE_DESCRIPTION( ( 'STEP AP214' ), '1' );
FILE_NAME( 'p:/temp/worker_5/temp/exporttempdir_3852_289_Awill/format_0/22050005007(architecture400).stp', '2021-11-17T11:34:32', ( 'License CC BY-ND 4.0' ), ( 'CADENAS' ), ' ', 'PARTsolutions', ' ' );
FILE_SCHEMA( ( 'AUTOMOTIVE_DESIGN { 1 0 10303 214 1 1 1 1 }' ) );
ENDSEC;
DATA;
#1 = MECHANICAL_DESIGN_GEOMETRIC_PRESENTATION_REPRESENTATION( ' ', ( #10, #11, #12, #13, #14, #15, #16, #17, #18, #19, #20, #21 ), #6 );
#2 = PRODUCT_DEFINITION_CONTEXT( '', #22, 'design' );
#3 = APPLICATION_PROTOCOL_DEFINITION( 'international standard', 'automotive_design', 2001, #22 );
#4 = PRODUCT_CATEGORY_RELATIONSHIP( 'NONE', 'NONE', #23, #24 );
#5 = SHAPE_DEFINITION_REPRESENTATION( #25, #26 );
#6 =  ( GEOMETRIC_REPRESENTATION_CONTEXT( 3 )GLOBAL_UNCERTAINTY_ASSIGNED_CONTEXT( ( #29 ) )GLOBAL_UNIT_ASSIGNED_CONTEXT( ( #31, #32, #33 ) )REPRESENTATION_CONTEXT( 'NONE', 'WORKSPACE' ) );
#10 = STYLED_ITEM( '', ( #35 ), #36 );
#11 = STYLED_ITEM( '', ( #37 ), #38 );
#12 = STYLED_ITEM( '', ( #39 ), #40 );
#13 = STYLED_ITEM( '', ( #41 ), #42 );
#14 = STYLED_ITEM( '', ( #43 ), #44 );
#15 = STYLED_ITEM( '', ( #45 ), #46 );
#16 = STYLED_ITEM( '', ( #47 ), #48 );
#17 = STYLED_ITEM( '', ( #49 ), #50 );
#18 = STYLED_ITEM( '', ( #51 ), #52 );
#19 = STYLED_ITEM( '', ( #53 ), #54 );
#20 = STYLED_ITEM( '', ( #55 ), #56 );
#21 = STYLED_ITEM( '', ( #57 ), #58 );
#22 = APPLICATION_CONTEXT( 'core data for automotive mechanical design processes' );
#23 = PRODUCT_CATEGORY( 'part', 'NONE' );
#24 = PRODUCT_RELATED_PRODUCT_CATEGORY( 'detail', ' ', ( #59 ) );
#25 = PRODUCT_DEFINITION_SHAPE( 'NONE', 'NONE', #60 );
#26 = ADVANCED_BREP_SHAPE_REPRESENTATION( '_22050005007(architecture400)', ( #61, #62 ), #6 );
#29 = UNCERTAINTY_MEASURE_WITH_UNIT( LENGTH_MEASURE( 0.00100000000000000 ), #31, '', '' );
#31 =  ( CONVERSION_BASED_UNIT( 'MILLIMETRE', #65 )LENGTH_UNIT(  )NAMED_UNIT( #68 ) );
#32 =  ( NAMED_UNIT( #70 )PLANE_ANGLE_UNIT(  )SI_UNIT( $, .RADIAN. ) );
#33 =  ( NAMED_UNIT( #70 )SI_UNIT( $, .STERADIAN. )SOLID_ANGLE_UNIT(  ) );
#35 = PRESENTATION_STYLE_ASSIGNMENT( ( #76 ) );
#36 = ADVANCED_FACE( '', ( #77, #78 ), #79, .T. );
#37 = PRESENTATION_STYLE_ASSIGNMENT( ( #80 ) );
#38 = ADVANCED_FACE( '', ( #81, #82 ), #83, .F. );
#39 = PRESENTATION_STYLE_ASSIGNMENT( ( #84 ) );
#40 = ADVANCED_FACE( '', ( #85, #86 ), #87, .F. );
#41 = PRESENTATION_STYLE_ASSIGNMENT( ( #88 ) );
#42 = ADVANCED_FACE( '', ( #89, #90 ), #91, .T. );
#43 = PRESENTATION_STYLE_ASSIGNMENT( ( #92 ) );
#44 = ADVANCED_FACE( '', ( #93 ), #94, .F. );
#45 = PRESENTATION_STYLE_ASSIGNMENT( ( #95 ) );
#46 = ADVANCED_FACE( '', ( #96, #97 ), #98, .T. );
#47 = PRESENTATION_STYLE_ASSIGNMENT( ( #99 ) );
#48 = ADVANCED_FACE( '', ( #100 ), #101, .T. );
#49 = PRESENTATION_STYLE_ASSIGNMENT( ( #102 ) );
#50 = ADVANCED_FACE( '', ( #103, #104 ), #105, .F. );
#51 = PRESENTATION_STYLE_ASSIGNMENT( ( #106 ) );
#52 = ADVANCED_FACE( '', ( #107, #108 ), #109, .T. );
#53 = PRESENTATION_STYLE_ASSIGNMENT( ( #110 ) );
#54 = ADVANCED_FACE( '', ( #111, #112 ), #113, .F. );
#55 = PRESENTATION_STYLE_ASSIGNMENT( ( #114 ) );
#56 = ADVANCED_FACE( '', ( #115, #116 ), #117, .F. );
#57 = PRESENTATION_STYLE_ASSIGNMENT( ( #118 ) );
#58 = ADVANCED_FACE( '', ( #119, #120 ), #121, .F. );
#59 = PRODUCT( '_22050005007(architecture400)', '_22050005007(architecture400)', 'PART-_22050005007(architecture400)-DESC', ( #122 ) );
#60 = PRODUCT_DEFINITION( 'NONE', 'NONE', #123, #2 );
#61 = MANIFOLD_SOLID_BREP( '_22050005007(architecture400)', #124 );
#62 = AXIS2_PLACEMENT_3D( '', #125, #126, #127 );
#65 = LENGTH_MEASURE_WITH_UNIT( LENGTH_MEASURE( 1.00000000000000 ), #128 );
#68 = DIMENSIONAL_EXPONENTS( 1.00000000000000, 0.000000000000000, 0.000000000000000, 0.000000000000000, 0.000000000000000, 0.000000000000000, 0.000000000000000 );
#70 = DIMENSIONAL_EXPONENTS( 0.000000000000000, 0.000000000000000, 0.000000000000000, 0.000000000000000, 0.000000000000000, 0.000000000000000, 0.000000000000000 );
#76 = SURFACE_STYLE_USAGE( .BOTH., #129 );
#77 = FACE_OUTER_BOUND( '', #130, .T. );
#78 = FACE_OUTER_BOUND( '', #131, .T. );
#79 = CYLINDRICAL_SURFACE( '', #132, 32.5000000000000 );
#80 = SURFACE_STYLE_USAGE( .BOTH., #133 );
#81 = FACE_OUTER_BOUND( '', #134, .T. );
#82 = FACE_OUTER_BOUND( '', #135, .T. );
#83 = CYLINDRICAL_SURFACE( '', #136, 25.0000000000000 );
#84 = SURFACE_STYLE_USAGE( .BOTH., #137 );
#85 = FACE_BOUND( '', #138, .T. );
#86 = FACE_OUTER_BOUND( '', #139, .T. );
#87 = PLANE( '', #140 );
#88 = SURFACE_STYLE_USAGE( .BOTH., #141 );
#89 = FACE_BOUND( '', #142, .T. );
#90 = FACE_OUTER_BOUND( '', #143, .T. );
#91 = PLANE( '', #144 );
#92 = SURFACE_STYLE_USAGE( .BOTH., #145 );
#93 = FACE_OUTER_BOUND( '', #146, .T. );
#94 = SPHERICAL_SURFACE( '', #147, 22.5000000000000 );
#95 = SURFACE_STYLE_USAGE( .BOTH., #148 );
#96 = FACE_OUTER_BOUND( '', #149, .T. );
#97 = FACE_OUTER_BOUND( '', #150, .T. );
#98 = CYLINDRICAL_SURFACE( '', #151, 32.5000000000000 );
#99 = SURFACE_STYLE_USAGE( .BOTH., #152 );
#100 = FACE_OUTER_BOUND( '', #153, .T. );
#101 = SPHERICAL_SURFACE( '', #154, 32.5000000000000 );
#102 = SURFACE_STYLE_USAGE( .BOTH., #155 );
#103 = FACE_OUTER_BOUND( '', #156, .T. );
#104 = FACE_OUTER_BOUND( '', #157, .T. );
#105 = CYLINDRICAL_SURFACE( '', #158, 22.5000000000000 );
#106 = SURFACE_STYLE_USAGE( .BOTH., #159 );
#107 = FACE_OUTER_BOUND( '', #160, .T. );
#108 = FACE_BOUND( '', #161, .T. );
#109 = PLANE( '', #162 );
#110 = SURFACE_STYLE_USAGE( .BOTH., #163 );
#111 = FACE_BOUND( '', #164, .T. );
#112 = FACE_OUTER_BOUND( '', #165, .T. );
#113 = PLANE( '', #166 );
#114 = SURFACE_STYLE_USAGE( .BOTH., #167 );
#115 = FACE_OUTER_BOUND( '', #168, .T. );
#116 = FACE_OUTER_BOUND( '', #169, .T. );
#117 = CYLINDRICAL_SURFACE( '', #170, 25.0000000000000 );
#118 = SURFACE_STYLE_USAGE( .BOTH., #171 );
#119 = FACE_OUTER_BOUND( '', #172, .T. );
#120 = FACE_OUTER_BOUND( '', #173, .T. );
#121 = CYLINDRICAL_SURFACE( '', #174, 22.5000000000000 );
#122 = PRODUCT_CONTEXT( '', #22, 'mechanical' );
#123 = PRODUCT_DEFINITION_FORMATION_WITH_SPECIFIED_SOURCE( ' ', 'NONE', #59, .NOT_KNOWN. );
#124 = CLOSED_SHELL( '', ( #54, #36, #48, #46, #58, #42, #38, #40, #56, #52, #50, #44 ) );
#125 = CARTESIAN_POINT( '', ( 0.000000000000000, 0.000000000000000, 0.000000000000000 ) );
#126 = DIRECTION( '', ( 0.000000000000000, 0.000000000000000, 1.00000000000000 ) );
#127 = DIRECTION( '', ( 1.00000000000000, 0.000000000000000, 0.000000000000000 ) );
#128 =  ( LENGTH_UNIT(  )NAMED_UNIT( #68 )SI_UNIT( .MILLI., .METRE. ) );
#129 = SURFACE_SIDE_STYLE( '', ( #176 ) );
#130 = EDGE_LOOP( '', ( #177 ) );
#131 = EDGE_LOOP( '', ( #178, #179 ) );
#132 = AXIS2_PLACEMENT_3D( '', #180, #181, #182 );
#133 = SURFACE_SIDE_STYLE( '', ( #183 ) );
#134 = EDGE_LOOP( '', ( #184 ) );
#135 = EDGE_LOOP( '', ( #185 ) );
#136 = AXIS2_PLACEMENT_3D( '', #186, #187, #188 );
#137 = SURFACE_SIDE_STYLE( '', ( #189 ) );
#138 = EDGE_LOOP( '', ( #190 ) );
#139 = EDGE_LOOP( '', ( #191 ) );
#140 = AXIS2_PLACEMENT_3D( '', #192, #193, #194 );
#141 = SURFACE_SIDE_STYLE( '', ( #195 ) );
#142 = EDGE_LOOP( '', ( #196 ) );
#143 = EDGE_LOOP( '', ( #197 ) );
#144 = AXIS2_PLACEMENT_3D( '', #198, #199, #200 );
#145 = SURFACE_SIDE_STYLE( '', ( #201 ) );
#146 = EDGE_LOOP( '', ( #202, #203 ) );
#147 = AXIS2_PLACEMENT_3D( '', #204, #205, #206 );
#148 = SURFACE_SIDE_STYLE( '', ( #207 ) );
#149 = EDGE_LOOP( '', ( #208 ) );
#150 = EDGE_LOOP( '', ( #209, #210 ) );
#151 = AXIS2_PLACEMENT_3D( '', #211, #212, #213 );
#152 = SURFACE_SIDE_STYLE( '', ( #214 ) );
#153 = EDGE_LOOP( '', ( #215, #216 ) );
#154 = AXIS2_PLACEMENT_3D( '', #217, #218, #219 );
#155 = SURFACE_SIDE_STYLE( '', ( #220 ) );
#156 = EDGE_LOOP( '', ( #221 ) );
#157 = EDGE_LOOP( '', ( #222, #223 ) );
#158 = AXIS2_PLACEMENT_3D( '', #224, #225, #226 );
#159 = SURFACE_SIDE_STYLE( '', ( #227 ) );
#160 = EDGE_LOOP( '', ( #228 ) );
#161 = EDGE_LOOP( '', ( #229 ) );
#162 = AXIS2_PLACEMENT_3D( '', #230, #231, #232 );
#163 = SURFACE_SIDE_STYLE( '', ( #233 ) );
#164 = EDGE_LOOP( '', ( #234 ) );
#165 = EDGE_LOOP( '', ( #235 ) );
#166 = AXIS2_PLACEMENT_3D( '', #236, #237, #238 );
#167 = SURFACE_SIDE_STYLE( '', ( #239 ) );
#168 = EDGE_LOOP( '', ( #240 ) );
#169 = EDGE_LOOP( '', ( #241 ) );
#170 = AXIS2_PLACEMENT_3D( '', #242, #243, #244 );
#171 = SURFACE_SIDE_STYLE( '', ( #245 ) );
#172 = EDGE_LOOP( '', ( #246, #247 ) );
#173 = EDGE_LOOP( '', ( #248 ) );
#174 = AXIS2_PLACEMENT_3D( '', #249, #250, #251 );
#176 = SURFACE_STYLE_FILL_AREA( #252 );
#177 = ORIENTED_EDGE( '', *, *, #253, .T. );
#178 = ORIENTED_EDGE( '', *, *, #254, .F. );
#179 = ORIENTED_EDGE( '', *, *, #255, .F. );
#180 = CARTESIAN_POINT( '', ( 0.000000000000000, 0.000000000000000, 15.0000000000000 ) );
#181 = DIRECTION( '', ( 0.000000000000000, -0.000000000000000, 1.00000000000000 ) );
#182 = DIRECTION( '', ( -1.00000000000000, 0.000000000000000, 0.000000000000000 ) );
#183 = SURFACE_STYLE_FILL_AREA( #256 );
#184 = ORIENTED_EDGE( '', *, *, #257, .T. );
#185 = ORIENTED_EDGE( '', *, *, #258, .T. );
#186 = CARTESIAN_POINT( '', ( 0.000000000000000, 0.000000000000000, 37.5000000000000 ) );
#187 = DIRECTION( '', ( -0.000000000000000, 0.000000000000000, -1.00000000000000 ) );
#188 = DIRECTION( '', ( 1.00000000000000, 0.000000000000000, 0.000000000000000 ) );
#189 = SURFACE_STYLE_FILL_AREA( #259 );
#190 = ORIENTED_EDGE( '', *, *, #260, .F. );
#191 = ORIENTED_EDGE( '', *, *, #261, .T. );
#192 = CARTESIAN_POINT( '', ( 4.59619407771256, 0.000000000000000, 65.5581348548381 ) );
#193 = DIRECTION( '', ( -0.707106781186548, 0.000000000000000, -0.707106781186547 ) );
#194 = DIRECTION( '', ( -0.707106781186547, 0.000000000000000, 0.707106781186548 ) );
#195 = SURFACE_STYLE_FILL_AREA( #262 );
#196 = ORIENTED_EDGE( '', *, *, #263, .T. );
#197 = ORIENTED_EDGE( '', *, *, #257, .F. );
#198 = CARTESIAN_POINT( '', ( -25.0000000000000, 0.000000000000000, 0.000000000000000 ) );
#199 = DIRECTION( '', ( 0.000000000000000, 0.000000000000000, -1.00000000000000 ) );
#200 = DIRECTION( '', ( -1.00000000000000, 0.000000000000000, 0.000000000000000 ) );
#201 = SURFACE_STYLE_FILL_AREA( #264 );
#202 = ORIENTED_EDGE( '', *, *, #265, .F. );
#203 = ORIENTED_EDGE( '', *, *, #266, .T. );
#204 = CARTESIAN_POINT( '', ( -6.93889390390723E-15, 0.000000000000000, 15.0000000000000 ) );
#205 = DIRECTION( '', ( 0.000000000000000, 0.000000000000000, 1.00000000000000 ) );
#206 = DIRECTION( '', ( 1.00000000000000, 0.000000000000000, 0.000000000000000 ) );
#207 = SURFACE_STYLE_FILL_AREA( #267 );
#208 = ORIENTED_EDGE( '', *, *, #261, .F. );
#209 = ORIENTED_EDGE( '', *, *, #268, .T. );
#210 = ORIENTED_EDGE( '', *, *, #254, .T. );
#211 = CARTESIAN_POINT( '', ( 27.5771644662754, 0.000000000000000, 42.5771644662753 ) );
#212 = DIRECTION( '', ( -0.707106781186548, 0.000000000000000, -0.707106781186547 ) );
#213 = DIRECTION( '', ( 0.707106781186547, 0.000000000000000, -0.707106781186548 ) );
#214 = SURFACE_STYLE_FILL_AREA( #269 );
#215 = ORIENTED_EDGE( '', *, *, #255, .T. );
#216 = ORIENTED_EDGE( '', *, *, #268, .F. );
#217 = CARTESIAN_POINT( '', ( 0.000000000000000, 0.000000000000000, 15.0000000000000 ) );
#218 = DIRECTION( '', ( 0.000000000000000, 0.000000000000000, 1.00000000000000 ) );
#219 = DIRECTION( '', ( 1.00000000000000, 0.000000000000000, 0.000000000000000 ) );
#220 = SURFACE_STYLE_FILL_AREA( #270 );
#221 = ORIENTED_EDGE( '', *, *, #271, .T. );
#222 = ORIENTED_EDGE( '', *, *, #272, .F. );
#223 = ORIENTED_EDGE( '', *, *, #266, .F. );
#224 = CARTESIAN_POINT( '', ( 28.2842712474619, 0.000000000000000, 43.2842712474619 ) );
#225 = DIRECTION( '', ( -0.707106781186548, 0.000000000000000, -0.707106781186548 ) );
#226 = DIRECTION( '', ( 0.707106781186548, 0.000000000000000, -0.707106781186548 ) );
#227 = SURFACE_STYLE_FILL_AREA( #273 );
#228 = ORIENTED_EDGE( '', *, *, #274, .T. );
#229 = ORIENTED_EDGE( '', *, *, #271, .F. );
#230 = CARTESIAN_POINT( '', ( -5.30330085889910, 0.000000000000000, 41.5165042944955 ) );
#231 = DIRECTION( '', ( 0.707106781186548, -0.000000000000000, 0.707106781186548 ) );
#232 = DIRECTION( '', ( 0.707106781186547, 0.000000000000000, -0.707106781186547 ) );
#233 = SURFACE_STYLE_FILL_AREA( #275 );
#234 = ORIENTED_EDGE( '', *, *, #258, .F. );
#235 = ORIENTED_EDGE( '', *, *, #253, .F. );
#236 = CARTESIAN_POINT( '', ( 0.000000000000000, 0.000000000000000, -24.0000000000000 ) );
#237 = DIRECTION( '', ( 0.000000000000000, 0.000000000000000, 1.00000000000000 ) );
#238 = DIRECTION( '', ( 1.00000000000000, 0.000000000000000, -0.000000000000000 ) );
#239 = SURFACE_STYLE_FILL_AREA( #276 );
#240 = ORIENTED_EDGE( '', *, *, #260, .T. );
#241 = ORIENTED_EDGE( '', *, *, #274, .F. );
#242 = CARTESIAN_POINT( '', ( 28.2842712474619, 0.000000000000000, 43.2842712474619 ) );
#243 = DIRECTION( '', ( -0.707106781186548, 0.000000000000000, -0.707106781186548 ) );
#244 = DIRECTION( '', ( 0.707106781186548, 0.000000000000000, -0.707106781186548 ) );
#245 = SURFACE_STYLE_FILL_AREA( #277 );
#246 = ORIENTED_EDGE( '', *, *, #272, .T. );
#247 = ORIENTED_EDGE( '', *, *, #265, .T. );
#248 = ORIENTED_EDGE( '', *, *, #263, .F. );
#249 = CARTESIAN_POINT( '', ( 0.000000000000000, 0.000000000000000, 37.5000000000000 ) );
#250 = DIRECTION( '', ( -0.000000000000000, 0.000000000000000, -1.00000000000000 ) );
#251 = DIRECTION( '', ( 1.00000000000000, 0.000000000000000, 0.000000000000000 ) );
#252 = FILL_AREA_STYLE( '', ( #278 ) );
#253 = EDGE_CURVE( '', #279, #279, #280, .T. );
#254 = EDGE_CURVE( '', #281, #282, #283, .F. );
#255 = EDGE_CURVE( '', #282, #281, #284, .T. );
#256 = FILL_AREA_STYLE( '', ( #285 ) );
#257 = EDGE_CURVE( '', #286, #286, #287, .T. );
#258 = EDGE_CURVE( '', #288, #288, #289, .F. );
#259 = FILL_AREA_STYLE( '', ( #290 ) );
#260 = EDGE_CURVE( '', #291, #291, #292, .F. );
#261 = EDGE_CURVE( '', #293, #293, #294, .T. );
#262 = FILL_AREA_STYLE( '', ( #295 ) );
#263 = EDGE_CURVE( '', #296, #296, #297, .T. );
#264 = FILL_AREA_STYLE( '', ( #298 ) );
#265 = EDGE_CURVE( '', #299, #300, #301, .T. );
#266 = EDGE_CURVE( '', #299, #300, #302, .T. );
#267 = FILL_AREA_STYLE( '', ( #303 ) );
#268 = EDGE_CURVE( '', #282, #281, #304, .T. );
#269 = FILL_AREA_STYLE( '', ( #305 ) );
#270 = FILL_AREA_STYLE( '', ( #306 ) );
#271 = EDGE_CURVE( '', #307, #307, #308, .T. );
#272 = EDGE_CURVE( '', #300, #299, #309, .T. );
#273 = FILL_AREA_STYLE( '', ( #310 ) );
#274 = EDGE_CURVE( '', #311, #311, #312, .T. );
#275 = FILL_AREA_STYLE( '', ( #313 ) );
#276 = FILL_AREA_STYLE( '', ( #314 ) );
#277 = FILL_AREA_STYLE( '', ( #315 ) );
#278 = FILL_AREA_STYLE_COLOUR( '', #316 );
#279 = VERTEX_POINT( '', #317 );
#280 = CIRCLE( '', #318, 32.5000000000000 );
#281 = VERTEX_POINT( '', #319 );
#282 = VERTEX_POINT( '', #320 );
#283 = ELLIPSE( '', #321, 35.1777465095000, 32.5000000000000 );
#284 = CIRCLE( '', #322, 32.5000000000000 );
#285 = FILL_AREA_STYLE_COLOUR( '', #323 );
#286 = VERTEX_POINT( '', #324 );
#287 = CIRCLE( '', #325, 25.0000000000000 );
#288 = VERTEX_POINT( '', #326 );
#289 = CIRCLE( '', #327, 25.0000000000000 );
#290 = FILL_AREA_STYLE_COLOUR( '', #328 );
#291 = VERTEX_POINT( '', #329 );
#292 = CIRCLE( '', #330, 25.0000000000000 );
#293 = VERTEX_POINT( '', #331 );
#294 = CIRCLE( '', #332, 32.5000000000000 );
#295 = FILL_AREA_STYLE_COLOUR( '', #333 );
#296 = VERTEX_POINT( '', #334 );
#297 = CIRCLE( '', #335, 22.5000000000000 );
#298 = FILL_AREA_STYLE_COLOUR( '', #336 );
#299 = VERTEX_POINT( '', #337 );
#300 = VERTEX_POINT( '', #338 );
#301 = CIRCLE( '', #339, 22.5000000000000 );
#302 = CIRCLE( '', #340, 22.5000000000000 );
#303 = FILL_AREA_STYLE_COLOUR( '', #341 );
#304 = CIRCLE( '', #342, 32.5000000000000 );
#305 = FILL_AREA_STYLE_COLOUR( '', #343 );
#306 = FILL_AREA_STYLE_COLOUR( '', #344 );
#307 = VERTEX_POINT( '', #345 );
#308 = CIRCLE( '', #346, 22.5000000000000 );
#309 = ELLIPSE( '', #347, 24.3538245066000, 22.5000000000000 );
#310 = FILL_AREA_STYLE_COLOUR( '', #348 );
#311 = VERTEX_POINT( '', #349 );
#312 = CIRCLE( '', #350, 25.0000000000000 );
#313 = FILL_AREA_STYLE_COLOUR( '', #351 );
#314 = FILL_AREA_STYLE_COLOUR( '', #352 );
#315 = FILL_AREA_STYLE_COLOUR( '', #353 );
#316 = COLOUR_RGB( '', 0.689999997600000, 0.689999997600000, 0.689999997600000 );
#317 = CARTESIAN_POINT( '', ( 32.5000000000000, 0.000000000000000, -24.0000000000000 ) );
#318 = AXIS2_PLACEMENT_3D( '', #354, #355, #356 );
#319 = CARTESIAN_POINT( '', ( -3.12558433179899E-15, -32.5000000000000, 15.0000000000000 ) );
#320 = CARTESIAN_POINT( '', ( -2.09399647133510E-15, 32.5000000000000, 15.0000000000000 ) );
#321 = AXIS2_PLACEMENT_3D( '', #357, #358, #359 );
#322 = AXIS2_PLACEMENT_3D( '', #360, #361, #362 );
#323 = COLOUR_RGB( '', 0.689999997600000, 0.689999997600000, 0.689999997600000 );
#324 = CARTESIAN_POINT( '', ( 25.0000000000000, 0.000000000000000, 0.000000000000000 ) );
#325 = AXIS2_PLACEMENT_3D( '', #363, #364, #365 );
#326 = CARTESIAN_POINT( '', ( 25.0000000000000, 0.000000000000000, -24.0000000000000 ) );
#327 = AXIS2_PLACEMENT_3D( '', #366, #367, #368 );
#328 = COLOUR_RGB( '', 0.689999997600000, 0.689999997600000, 0.689999997600000 );
#329 = CARTESIAN_POINT( '', ( 9.89949493661167, 0.000000000000000, 60.2548339959390 ) );
#330 = AXIS2_PLACEMENT_3D( '', #369, #370, #371 );
#331 = CARTESIAN_POINT( '', ( 50.5581348548382, 0.000000000000000, 19.5961940777125 ) );
#332 = AXIS2_PLACEMENT_3D( '', #372, #373, #374 );
#333 = COLOUR_RGB( '', 0.689999997600000, 0.689999997600000, 0.689999997600000 );
#334 = CARTESIAN_POINT( '', ( 22.5000000000000, 0.000000000000000, 0.000000000000000 ) );
#335 = AXIS2_PLACEMENT_3D( '', #375, #376, #377 );
#336 = COLOUR_RGB( '', 0.689999997600000, 0.689999997600000, 0.689999997600000 );
#337 = CARTESIAN_POINT( '', ( -1.60770129031928E-15, 22.5000000000000, 15.0000000000000 ) );
#338 = CARTESIAN_POINT( '', ( -2.96135820932351E-15, -22.5000000000000, 15.0000000000000 ) );
#339 = AXIS2_PLACEMENT_3D( '', #378, #379, #380 );
#340 = AXIS2_PLACEMENT_3D( '', #381, #382, #383 );
#341 = COLOUR_RGB( '', 0.689999997600000, 0.689999997600000, 0.689999997600000 );
#342 = AXIS2_PLACEMENT_3D( '', #384, #385, #386 );
#343 = COLOUR_RGB( '', 0.689999997600000, 0.689999997600000, 0.689999997600000 );
#344 = COLOUR_RGB( '', 0.689999997600000, 0.689999997600000, 0.689999997600000 );
#345 = CARTESIAN_POINT( '', ( 26.5165042944955, 0.000000000000000, 9.69669914110088 ) );
#346 = AXIS2_PLACEMENT_3D( '', #387, #388, #389 );
#347 = AXIS2_PLACEMENT_3D( '', #390, #391, #392 );
#348 = COLOUR_RGB( '', 0.689999997600000, 0.689999997600000, 0.689999997600000 );
#349 = CARTESIAN_POINT( '', ( 28.2842712474619, 0.000000000000000, 7.92893218813452 ) );
#350 = AXIS2_PLACEMENT_3D( '', #393, #394, #395 );
#351 = COLOUR_RGB( '', 0.689999997600000, 0.689999997600000, 0.689999997600000 );
#352 = COLOUR_RGB( '', 0.689999997600000, 0.689999997600000, 0.689999997600000 );
#353 = COLOUR_RGB( '', 0.689999997600000, 0.689999997600000, 0.689999997600000 );
#354 = CARTESIAN_POINT( '', ( 0.000000000000000, 0.000000000000000, -24.0000000000000 ) );
#355 = DIRECTION( '', ( 0.000000000000000, 0.000000000000000, 1.00000000000000 ) );
#356 = DIRECTION( '', ( 1.00000000000000, 0.000000000000000, 0.000000000000000 ) );
#357 = CARTESIAN_POINT( '', ( -3.46944695195361E-15, 0.000000000000000, 15.0000000000000 ) );
#358 = DIRECTION( '', ( -0.382683432365090, 0.000000000000000, -0.923879532511287 ) );
#359 = DIRECTION( '', ( 0.923879532511287, 0.000000000000000, -0.382683432365090 ) );
#360 = CARTESIAN_POINT( '', ( 0.000000000000000, 0.000000000000000, 15.0000000000000 ) );
#361 = DIRECTION( '', ( 0.000000000000000, 0.000000000000000, 1.00000000000000 ) );
#362 = DIRECTION( '', ( 1.00000000000000, 0.000000000000000, 0.000000000000000 ) );
#363 = CARTESIAN_POINT( '', ( 0.000000000000000, 0.000000000000000, 0.000000000000000 ) );
#364 = DIRECTION( '', ( 0.000000000000000, -0.000000000000000, 1.00000000000000 ) );
#365 = DIRECTION( '', ( 1.00000000000000, 0.000000000000000, 0.000000000000000 ) );
#366 = CARTESIAN_POINT( '', ( 0.000000000000000, 0.000000000000000, -24.0000000000000 ) );
#367 = DIRECTION( '', ( 0.000000000000000, 0.000000000000000, 1.00000000000000 ) );
#368 = DIRECTION( '', ( 1.00000000000000, 0.000000000000000, -0.000000000000000 ) );
#369 = CARTESIAN_POINT( '', ( 27.5771644662754, 0.000000000000000, 42.5771644662753 ) );
#370 = DIRECTION( '', ( -0.707106781186548, 0.000000000000000, -0.707106781186547 ) );
#371 = DIRECTION( '', ( -0.707106781186547, 0.000000000000000, 0.707106781186548 ) );
#372 = CARTESIAN_POINT( '', ( 27.5771644662754, 0.000000000000000, 42.5771644662753 ) );
#373 = DIRECTION( '', ( 0.707106781186548, -0.000000000000000, 0.707106781186547 ) );
#374 = DIRECTION( '', ( 0.707106781186547, 0.000000000000000, -0.707106781186548 ) );
#375 = CARTESIAN_POINT( '', ( 0.000000000000000, 0.000000000000000, 0.000000000000000 ) );
#376 = DIRECTION( '', ( 0.000000000000000, -0.000000000000000, 1.00000000000000 ) );
#377 = DIRECTION( '', ( 1.00000000000000, 0.000000000000000, 0.000000000000000 ) );
#378 = CARTESIAN_POINT( '', ( 0.000000000000000, 0.000000000000000, 15.0000000000000 ) );
#379 = DIRECTION( '', ( 0.000000000000000, -0.000000000000000, 1.00000000000000 ) );
#380 = DIRECTION( '', ( 1.00000000000000, 0.000000000000000, 0.000000000000000 ) );
#381 = CARTESIAN_POINT( '', ( -3.46944695195361E-15, 0.000000000000000, 15.0000000000000 ) );
#382 = DIRECTION( '', ( 0.707106781186548, -0.000000000000000, 0.707106781186548 ) );
#383 = DIRECTION( '', ( 0.707106781186548, 0.000000000000000, -0.707106781186548 ) );
#384 = CARTESIAN_POINT( '', ( 0.000000000000000, 0.000000000000000, 15.0000000000000 ) );
#385 = DIRECTION( '', ( 0.707106781186548, -0.000000000000000, 0.707106781186547 ) );
#386 = DIRECTION( '', ( 0.707106781186547, 0.000000000000000, -0.707106781186548 ) );
#387 = CARTESIAN_POINT( '', ( 10.6066017177982, 0.000000000000000, 25.6066017177982 ) );
#388 = DIRECTION( '', ( 0.707106781186548, -0.000000000000000, 0.707106781186548 ) );
#389 = DIRECTION( '', ( 0.707106781186547, 0.000000000000000, -0.707106781186547 ) );
#390 = CARTESIAN_POINT( '', ( -3.46944695195361E-15, 0.000000000000000, 15.0000000000000 ) );
#391 = DIRECTION( '', ( 0.382683432365090, 0.000000000000000, 0.923879532511287 ) );
#392 = DIRECTION( '', ( -0.923879532511287, 0.000000000000000, 0.382683432365090 ) );
#393 = CARTESIAN_POINT( '', ( 10.6066017177982, 0.000000000000000, 25.6066017177982 ) );
#394 = DIRECTION( '', ( 0.707106781186548, -0.000000000000000, 0.707106781186548 ) );
#395 = DIRECTION( '', ( 0.707106781186547, 0.000000000000000, -0.707106781186547 ) );
ENDSEC;
END-ISO-10303-21;
