ISO-10303-21;
HEADER;
/* Generated by software containing ST-Developer
 * from STEP Tools, Inc. (www.steptools.com) 
 */

FILE_DESCRIPTION(
/* description */ (''),
/* implementation_level */ '2;1');

FILE_NAME(
/* name */ 
'Q:\\Ric010\\FF7\\FIPlastiCAD\\FIP\\Lavoro\\PVC Fittings\\PVC Fittings
 STEP\\TRIV\\TRIV090063.ipt.stp',
/* time_stamp */ '2013-10-01T14:56:40+02:00',
/* author */ ('bfaro'),
/* organization */ (''),
/* preprocessor_version */ 'ST-DEVELOPER v15.2',
/* originating_system */ 'Autodesk Inventor 2014',
/* authorisation */ '');

FILE_SCHEMA (('AUTOMOTIVE_DESIGN { 1 0 10303 214 3 1 1 }'));
ENDSEC;

DATA;
#10=SHAPE_REPRESENTATION_RELATIONSHIP('SRR','None',#451,#11);
#11=ADVANCED_BREP_SHAPE_REPRESENTATION($,(#181),#442);
#12=STYLED_ITEM($,(#459),#181);
#13=PLANE($,#202);
#14=PLANE($,#203);
#15=PLANE($,#204);
#16=PLANE($,#205);
#17=PLANE($,#206);
#18=PLANE($,#207);
#19=FACE_BOUND($,#53,.T.);
#20=FACE_BOUND($,#55,.T.);
#21=FACE_BOUND($,#56,.T.);
#22=FACE_BOUND($,#58,.T.);
#23=FACE_BOUND($,#59,.T.);
#24=FACE_BOUND($,#61,.T.);
#25=FACE_BOUND($,#63,.T.);
#26=FACE_BOUND($,#65,.T.);
#27=FACE_BOUND($,#67,.T.);
#28=FACE_BOUND($,#69,.T.);
#29=FACE_BOUND($,#70,.T.);
#30=FACE_BOUND($,#71,.T.);
#31=FACE_BOUND($,#73,.T.);
#32=FACE_BOUND($,#75,.T.);
#33=FACE_BOUND($,#76,.T.);
#34=FACE_BOUND($,#77,.T.);
#35=FACE_BOUND($,#78,.T.);
#36=FACE_BOUND($,#79,.T.);
#37=B_SPLINE_CURVE_WITH_KNOTS($,3,(#265,#266,#267,#268,#269,#270,#271,#272,
#273,#274,#275,#276,#277,#278,#279,#280,#281,#282,#283,#284,#285,#286,#287,
#288,#289,#290,#291,#292,#293,#294,#295,#296,#297,#298,#299,#300,#301,#302,
#303,#304,#305,#306,#307,#308,#309,#310,#311,#312,#313,#314,#315,#316,#317,
#318,#319,#320,#321,#322,#323,#324,#325,#326,#327,#328,#329,#330),
 .UNSPECIFIED.,.T.,.F.,(4,2,2,2,2,2,2,2,2,2,2,2,2,2,2,2,2,2,2,2,2,2,2,2,
2,2,2,2,2,2,2,2,4),(0.,0.607499474235166,1.21499894847033,1.8224984227055,
2.42999789694067,3.02817722701026,3.62635655707986,4.22453588714945,4.82271521721905,
5.42089454728865,6.01907387735824,6.61725320742784,7.21543253749744,7.8229320117326,
8.43043148596777,9.03793096020294,9.6454304344381,10.2529299086588,10.8604293828795,
11.4679288571001,12.0754283313208,12.6736076613868,13.2717869914528,13.8699663215187,
14.4681456515847,15.0663249816507,15.6645043117166,16.2626836417826,16.8608629718486,
17.4683624460693,18.07586192029,18.6833613945106,19.2908608687313),
 .UNSPECIFIED.);
#38=B_SPLINE_CURVE_WITH_KNOTS($,3,(#343,#344,#345,#346,#347,#348,#349,#350,
#351,#352,#353,#354,#355,#356,#357,#358,#359,#360),.UNSPECIFIED.,.F.,.F.,
(4,2,2,2,2,2,2,2,4),(11.9903437804377,12.7450117771315,13.4996797738254,
14.2543477705192,15.0090157672131,15.753140743052,16.497265718891,17.2413906947299,
17.9855156705689),.UNSPECIFIED.);
#39=B_SPLINE_CURVE_WITH_KNOTS($,3,(#362,#363,#364,#365,#366,#367,#368,#369,
#370,#371,#372,#373,#374,#375,#376,#377,#378,#379),.UNSPECIFIED.,.F.,.F.,
(4,2,2,2,2,2,2,2,4),(-11.9903437804377,-11.2356757837371,-10.4810077870365,
-9.72633979033584,-8.97167179363522,-8.22754681778113,-7.48342184192704,
-6.73929686607295,-5.99517189021886),.UNSPECIFIED.);
#40=B_SPLINE_CURVE_WITH_KNOTS($,3,(#381,#382,#383,#384,#385,#386,#387,#388,
#389,#390,#391,#392,#393,#394,#395,#396,#397,#398),.UNSPECIFIED.,.F.,.F.,
(4,2,2,2,2,2,2,2,4),(17.9855156704812,18.7296406463353,19.4737656221894,
20.2178905980435,20.9620155738976,21.7166835705982,22.4713515672988,23.2260195639995,
23.9806875607001),.UNSPECIFIED.);
#41=B_SPLINE_CURVE_WITH_KNOTS($,3,(#399,#400,#401,#402,#403,#404,#405,#406,
#407,#408,#409,#410,#411,#412,#413,#414,#415,#416),.UNSPECIFIED.,.F.,.F.,
(4,2,2,2,2,2,2,2,4),(-5.99517189013119,-5.25104691429223,-4.50692193845327,
-3.7627969626143,-3.01867198677534,-2.2640039900815,-1.50933599338767,-0.754667996693834,
8.88178419700125E-016),.UNSPECIFIED.);
#42=FACE_OUTER_BOUND($,#52,.T.);
#43=FACE_OUTER_BOUND($,#54,.T.);
#44=FACE_OUTER_BOUND($,#57,.T.);
#45=FACE_OUTER_BOUND($,#60,.T.);
#46=FACE_OUTER_BOUND($,#62,.T.);
#47=FACE_OUTER_BOUND($,#64,.T.);
#48=FACE_OUTER_BOUND($,#66,.T.);
#49=FACE_OUTER_BOUND($,#68,.T.);
#50=FACE_OUTER_BOUND($,#72,.T.);
#51=FACE_OUTER_BOUND($,#74,.T.);
#52=EDGE_LOOP($,(#126));
#53=EDGE_LOOP($,(#127));
#54=EDGE_LOOP($,(#128));
#55=EDGE_LOOP($,(#129));
#56=EDGE_LOOP($,(#130));
#57=EDGE_LOOP($,(#131));
#58=EDGE_LOOP($,(#132));
#59=EDGE_LOOP($,(#133,#134,#135,#136));
#60=EDGE_LOOP($,(#137));
#61=EDGE_LOOP($,(#138));
#62=EDGE_LOOP($,(#139,#140,#141,#142));
#63=EDGE_LOOP($,(#143));
#64=EDGE_LOOP($,(#144));
#65=EDGE_LOOP($,(#145));
#66=EDGE_LOOP($,(#146));
#67=EDGE_LOOP($,(#147));
#68=EDGE_LOOP($,(#148));
#69=EDGE_LOOP($,(#149));
#70=EDGE_LOOP($,(#150));
#71=EDGE_LOOP($,(#151));
#72=EDGE_LOOP($,(#152));
#73=EDGE_LOOP($,(#153));
#74=EDGE_LOOP($,(#154));
#75=EDGE_LOOP($,(#155));
#76=EDGE_LOOP($,(#156));
#77=EDGE_LOOP($,(#157));
#78=EDGE_LOOP($,(#158));
#79=EDGE_LOOP($,(#159));
#80=CIRCLE($,#184,30.5);
#81=CIRCLE($,#186,43.);
#82=CIRCLE($,#187,43.);
#83=CIRCLE($,#189,54.5);
#84=CIRCLE($,#190,54.5);
#85=CIRCLE($,#192,45.);
#86=CIRCLE($,#193,45.);
#87=CIRCLE($,#195,38.);
#88=CIRCLE($,#197,45.);
#89=CIRCLE($,#198,45.);
#90=CIRCLE($,#200,31.5);
#91=CIRCLE($,#201,31.5);
#92=VERTEX_POINT($,#262);
#93=VERTEX_POINT($,#264);
#94=VERTEX_POINT($,#332);
#95=VERTEX_POINT($,#334);
#96=VERTEX_POINT($,#337);
#97=VERTEX_POINT($,#339);
#98=VERTEX_POINT($,#341);
#99=VERTEX_POINT($,#342);
#100=VERTEX_POINT($,#361);
#101=VERTEX_POINT($,#380);
#102=VERTEX_POINT($,#418);
#103=VERTEX_POINT($,#420);
#104=VERTEX_POINT($,#423);
#105=VERTEX_POINT($,#426);
#106=VERTEX_POINT($,#428);
#107=VERTEX_POINT($,#431);
#108=VERTEX_POINT($,#433);
#109=EDGE_CURVE($,#92,#92,#80,.T.);
#110=EDGE_CURVE($,#93,#93,#37,.T.);
#111=EDGE_CURVE($,#94,#94,#81,.T.);
#112=EDGE_CURVE($,#95,#95,#82,.T.);
#113=EDGE_CURVE($,#96,#96,#83,.T.);
#114=EDGE_CURVE($,#97,#97,#84,.T.);
#115=EDGE_CURVE($,#98,#99,#38,.T.);
#116=EDGE_CURVE($,#98,#100,#39,.T.);
#117=EDGE_CURVE($,#100,#101,#40,.T.);
#118=EDGE_CURVE($,#99,#101,#41,.T.);
#119=EDGE_CURVE($,#102,#102,#85,.T.);
#120=EDGE_CURVE($,#103,#103,#86,.T.);
#121=EDGE_CURVE($,#104,#104,#87,.T.);
#122=EDGE_CURVE($,#105,#105,#88,.T.);
#123=EDGE_CURVE($,#106,#106,#89,.T.);
#124=EDGE_CURVE($,#107,#107,#90,.T.);
#125=EDGE_CURVE($,#108,#108,#91,.T.);
#126=ORIENTED_EDGE($,*,*,#109,.F.);
#127=ORIENTED_EDGE($,*,*,#110,.F.);
#128=ORIENTED_EDGE($,*,*,#111,.F.);
#129=ORIENTED_EDGE($,*,*,#112,.F.);
#130=ORIENTED_EDGE($,*,*,#110,.T.);
#131=ORIENTED_EDGE($,*,*,#113,.F.);
#132=ORIENTED_EDGE($,*,*,#114,.T.);
#133=ORIENTED_EDGE($,*,*,#115,.F.);
#134=ORIENTED_EDGE($,*,*,#116,.T.);
#135=ORIENTED_EDGE($,*,*,#117,.T.);
#136=ORIENTED_EDGE($,*,*,#118,.F.);
#137=ORIENTED_EDGE($,*,*,#119,.T.);
#138=ORIENTED_EDGE($,*,*,#120,.F.);
#139=ORIENTED_EDGE($,*,*,#116,.F.);
#140=ORIENTED_EDGE($,*,*,#115,.T.);
#141=ORIENTED_EDGE($,*,*,#118,.T.);
#142=ORIENTED_EDGE($,*,*,#117,.F.);
#143=ORIENTED_EDGE($,*,*,#121,.F.);
#144=ORIENTED_EDGE($,*,*,#122,.T.);
#145=ORIENTED_EDGE($,*,*,#123,.F.);
#146=ORIENTED_EDGE($,*,*,#124,.T.);
#147=ORIENTED_EDGE($,*,*,#125,.F.);
#148=ORIENTED_EDGE($,*,*,#114,.F.);
#149=ORIENTED_EDGE($,*,*,#120,.T.);
#150=ORIENTED_EDGE($,*,*,#112,.T.);
#151=ORIENTED_EDGE($,*,*,#119,.F.);
#152=ORIENTED_EDGE($,*,*,#113,.T.);
#153=ORIENTED_EDGE($,*,*,#122,.F.);
#154=ORIENTED_EDGE($,*,*,#121,.T.);
#155=ORIENTED_EDGE($,*,*,#124,.F.);
#156=ORIENTED_EDGE($,*,*,#111,.T.);
#157=ORIENTED_EDGE($,*,*,#123,.T.);
#158=ORIENTED_EDGE($,*,*,#109,.T.);
#159=ORIENTED_EDGE($,*,*,#125,.T.);
#160=CYLINDRICAL_SURFACE($,#183,30.5);
#161=CYLINDRICAL_SURFACE($,#185,43.);
#162=CYLINDRICAL_SURFACE($,#188,54.5);
#163=CYLINDRICAL_SURFACE($,#191,45.);
#164=CYLINDRICAL_SURFACE($,#194,38.);
#165=CYLINDRICAL_SURFACE($,#196,45.);
#166=CYLINDRICAL_SURFACE($,#199,31.5000000000001);
#167=ADVANCED_FACE($,(#42,#19),#160,.F.);
#168=ADVANCED_FACE($,(#43,#20,#21),#161,.F.);
#169=ADVANCED_FACE($,(#44,#22,#23),#162,.T.);
#170=ADVANCED_FACE($,(#45,#24),#163,.F.);
#171=ADVANCED_FACE($,(#46,#25),#164,.T.);
#172=ADVANCED_FACE($,(#47,#26),#165,.F.);
#173=ADVANCED_FACE($,(#48,#27),#166,.F.);
#174=ADVANCED_FACE($,(#49,#28),#13,.T.);
#175=ADVANCED_FACE($,(#29,#30),#14,.T.);
#176=ADVANCED_FACE($,(#50,#31),#15,.T.);
#177=ADVANCED_FACE($,(#51,#32),#16,.T.);
#178=ADVANCED_FACE($,(#33,#34),#17,.T.);
#179=ADVANCED_FACE($,(#35,#36),#18,.T.);
#180=CLOSED_SHELL($,(#167,#168,#169,#170,#171,#172,#173,#174,#175,#176,
#177,#178,#179));
#181=MANIFOLD_SOLID_BREP('Solido1',#180);
#182=AXIS2_PLACEMENT_3D('placement',#260,#208,#209);
#183=AXIS2_PLACEMENT_3D($,#261,#210,#211);
#184=AXIS2_PLACEMENT_3D($,#263,#212,#213);
#185=AXIS2_PLACEMENT_3D($,#331,#214,#215);
#186=AXIS2_PLACEMENT_3D($,#333,#216,#217);
#187=AXIS2_PLACEMENT_3D($,#335,#218,#219);
#188=AXIS2_PLACEMENT_3D($,#336,#220,#221);
#189=AXIS2_PLACEMENT_3D($,#338,#222,#223);
#190=AXIS2_PLACEMENT_3D($,#340,#224,#225);
#191=AXIS2_PLACEMENT_3D($,#417,#226,#227);
#192=AXIS2_PLACEMENT_3D($,#419,#228,#229);
#193=AXIS2_PLACEMENT_3D($,#421,#230,#231);
#194=AXIS2_PLACEMENT_3D($,#422,#232,#233);
#195=AXIS2_PLACEMENT_3D($,#424,#234,#235);
#196=AXIS2_PLACEMENT_3D($,#425,#236,#237);
#197=AXIS2_PLACEMENT_3D($,#427,#238,#239);
#198=AXIS2_PLACEMENT_3D($,#429,#240,#241);
#199=AXIS2_PLACEMENT_3D($,#430,#242,#243);
#200=AXIS2_PLACEMENT_3D($,#432,#244,#245);
#201=AXIS2_PLACEMENT_3D($,#434,#246,#247);
#202=AXIS2_PLACEMENT_3D($,#435,#248,#249);
#203=AXIS2_PLACEMENT_3D($,#436,#250,#251);
#204=AXIS2_PLACEMENT_3D($,#437,#252,#253);
#205=AXIS2_PLACEMENT_3D($,#438,#254,#255);
#206=AXIS2_PLACEMENT_3D($,#439,#256,#257);
#207=AXIS2_PLACEMENT_3D($,#440,#258,#259);
#208=DIRECTION('axis',(0.,0.,1.));
#209=DIRECTION('refdir',(1.,0.,0.));
#210=DIRECTION('center_axis',(-1.,0.,-4.48966536906421E-011));
#211=DIRECTION('ref_axis',(-4.48966536906421E-011,0.,1.));
#212=DIRECTION('center_axis',(-1.,0.,-4.489664E-011));
#213=DIRECTION('ref_axis',(-4.48966536906421E-011,0.,1.));
#214=DIRECTION('center_axis',(0.,0.,-1.));
#215=DIRECTION('ref_axis',(-1.,0.,0.));
#216=DIRECTION('center_axis',(0.,0.,-1.));
#217=DIRECTION('ref_axis',(-1.,0.,0.));
#218=DIRECTION('center_axis',(0.,0.,1.));
#219=DIRECTION('ref_axis',(-1.,0.,0.));
#220=DIRECTION('center_axis',(0.,0.,1.));
#221=DIRECTION('ref_axis',(1.,0.,0.));
#222=DIRECTION('center_axis',(0.,0.,1.));
#223=DIRECTION('ref_axis',(1.,0.,0.));
#224=DIRECTION('center_axis',(0.,0.,1.));
#225=DIRECTION('ref_axis',(1.,0.,0.));
#226=DIRECTION('center_axis',(0.,0.,1.));
#227=DIRECTION('ref_axis',(1.,0.,0.));
#228=DIRECTION('center_axis',(0.,0.,1.));
#229=DIRECTION('ref_axis',(1.,0.,0.));
#230=DIRECTION('center_axis',(0.,0.,1.));
#231=DIRECTION('ref_axis',(1.,0.,0.));
#232=DIRECTION('center_axis',(1.,0.,4.489664E-011));
#233=DIRECTION('ref_axis',(4.489664E-011,0.,-1.));
#234=DIRECTION('center_axis',(1.,0.,4.489664E-011));
#235=DIRECTION('ref_axis',(4.489664E-011,0.,-1.));
#236=DIRECTION('center_axis',(0.,0.,1.));
#237=DIRECTION('ref_axis',(1.,0.,0.));
#238=DIRECTION('center_axis',(0.,0.,1.));
#239=DIRECTION('ref_axis',(1.,0.,0.));
#240=DIRECTION('center_axis',(0.,0.,1.));
#241=DIRECTION('ref_axis',(1.,0.,0.));
#242=DIRECTION('center_axis',(1.,1.48167542359842E-014,4.48971216398155E-011));
#243=DIRECTION('ref_axis',(4.48969961737366E-011,0.,-1.));
#244=DIRECTION('center_axis',(1.,0.,4.489664E-011));
#245=DIRECTION('ref_axis',(4.489664E-011,0.,-1.));
#246=DIRECTION('center_axis',(1.,0.,4.489664E-011));
#247=DIRECTION('ref_axis',(4.489664E-011,0.,-1.));
#248=DIRECTION('center_axis',(0.,0.,-1.));
#249=DIRECTION('ref_axis',(-1.,0.,0.));
#250=DIRECTION('center_axis',(0.,0.,-1.));
#251=DIRECTION('ref_axis',(-1.,0.,0.));
#252=DIRECTION('center_axis',(0.,0.,1.));
#253=DIRECTION('ref_axis',(1.,0.,0.));
#254=DIRECTION('center_axis',(1.,0.,4.489664E-011));
#255=DIRECTION('ref_axis',(4.48963533017377E-011,0.,-1.));
#256=DIRECTION('center_axis',(0.,0.,1.));
#257=DIRECTION('ref_axis',(1.,0.,0.));
#258=DIRECTION('center_axis',(1.,0.,4.489664E-011));
#259=DIRECTION('ref_axis',(4.48963533017377E-011,0.,-1.));
#260=CARTESIAN_POINT('',(0.,0.,0.));
#261=CARTESIAN_POINT('Origin',(48.,0.,99.000000002155));
#262=CARTESIAN_POINT('',(48.0000000013694,3.73517273739943E-015,68.500000002155));
#263=CARTESIAN_POINT('Origin',(48.,0.,99.000000002155));
#264=CARTESIAN_POINT('',(30.3108891324553,30.5,99.0000000013608));
#265=CARTESIAN_POINT('Ctrl Pts',(30.3108891324553,30.5,99.0000000013608));
#266=CARTESIAN_POINT('Ctrl Pts',(30.3108891324553,30.5,101.024998248811));
#267=CARTESIAN_POINT('Ctrl Pts',(30.5201351063285,30.2958835438339,103.071054466973));
#268=CARTESIAN_POINT('Ctrl Pts',(31.3055841661691,29.4835480061426,107.070591369942));
#269=CARTESIAN_POINT('Ctrl Pts',(31.878845326219,28.87583553945,109.024752116148));
#270=CARTESIAN_POINT('Ctrl Pts',(33.2332310573259,27.3061678872107,112.736192543306));
#271=CARTESIAN_POINT('Ctrl Pts',(34.0134232538774,26.3428294160666,114.497362406796));
#272=CARTESIAN_POINT('Ctrl Pts',(35.6134189704422,24.1359071159596,117.750223761347));
#273=CARTESIAN_POINT('Ctrl Pts',(36.432375252474,22.8916431807032,119.241870473312));
#274=CARTESIAN_POINT('Ctrl Pts',(37.9567816282015,20.2621966321929,121.871317021891));
#275=CARTESIAN_POINT('Ctrl Pts',(38.7219651002279,18.7818087545329,123.111495237008));
#276=CARTESIAN_POINT('Ctrl Pts',(40.1374292081265,15.5284802171366,125.32464330509));
#277=CARTESIAN_POINT('Ctrl Pts',(40.7869941057369,13.7553042934455,126.297725019456));
#278=CARTESIAN_POINT('Ctrl Pts',(41.8627806370279,10.0147343049724,127.880431460147));
#279=CARTESIAN_POINT('Ctrl Pts',(42.2895719474148,8.04323905229393,128.49137210035));
#280=CARTESIAN_POINT('Ctrl Pts',(42.8583405031158,4.0328946550136,129.301328082367));
#281=CARTESIAN_POINT('Ctrl Pts',(43.,1.99393110023199,129.500000001931));
#282=CARTESIAN_POINT('Ctrl Pts',(43.,-1.99393110023199,129.500000001931));
#283=CARTESIAN_POINT('Ctrl Pts',(42.8583405031159,-4.0328946550136,129.301328082367));
#284=CARTESIAN_POINT('Ctrl Pts',(42.2895719474148,-8.04323905229392,128.49137210035));
#285=CARTESIAN_POINT('Ctrl Pts',(41.8627806370279,-10.0147343049724,127.880431460147));
#286=CARTESIAN_POINT('Ctrl Pts',(40.7869941057368,-13.7553042934454,126.297725019456));
#287=CARTESIAN_POINT('Ctrl Pts',(40.1374292081265,-15.5284802171366,125.32464330509));
#288=CARTESIAN_POINT('Ctrl Pts',(38.7219651002279,-18.7818087545329,123.111495237008));
#289=CARTESIAN_POINT('Ctrl Pts',(37.9567816282015,-20.2621966321929,121.871317021891));
#290=CARTESIAN_POINT('Ctrl Pts',(36.432375252474,-22.8916431807032,119.241870473312));
#291=CARTESIAN_POINT('Ctrl Pts',(35.6134189704422,-24.1359071159596,117.750223761347));
#292=CARTESIAN_POINT('Ctrl Pts',(34.0134232538774,-26.3428294160666,114.497362406796));
#293=CARTESIAN_POINT('Ctrl Pts',(33.233231057326,-27.3061678872107,112.736192543307));
#294=CARTESIAN_POINT('Ctrl Pts',(31.878845326219,-28.87583553945,109.024752116148));
#295=CARTESIAN_POINT('Ctrl Pts',(31.3055841661691,-29.4835480061426,107.070591369942));
#296=CARTESIAN_POINT('Ctrl Pts',(30.5201351063285,-30.2958835438339,103.071054466973));
#297=CARTESIAN_POINT('Ctrl Pts',(30.3108891324553,-30.5,101.024998248811));
#298=CARTESIAN_POINT('Ctrl Pts',(30.3108891324553,-30.5,96.9750017539586));
#299=CARTESIAN_POINT('Ctrl Pts',(30.5201351063192,-30.295883543843,94.9289455358432));
#300=CARTESIAN_POINT('Ctrl Pts',(31.305584166143,-29.4835480061702,90.9294086329734));
#301=CARTESIAN_POINT('Ctrl Pts',(31.8788453261854,-28.8758355394868,88.9752478868201));
#302=CARTESIAN_POINT('Ctrl Pts',(33.2332310572836,-27.3061678872619,85.2638074597795));
#303=CARTESIAN_POINT('Ctrl Pts',(34.0134232538336,-26.3428294161229,83.5026375963535));
#304=CARTESIAN_POINT('Ctrl Pts',(35.6134189703979,-24.1359071160246,80.249776241934));
#305=CARTESIAN_POINT('Ctrl Pts',(36.4323752524304,-22.891643180772,78.7581295300376));
#306=CARTESIAN_POINT('Ctrl Pts',(37.9567816281706,-20.2621966322523,76.1286829815678));
#307=CARTESIAN_POINT('Ctrl Pts',(38.721965100208,-18.7818087545756,74.8885047665005));
#308=CARTESIAN_POINT('Ctrl Pts',(40.1374292081222,-15.5284802171499,72.6753566985209));
#309=CARTESIAN_POINT('Ctrl Pts',(40.7869941057371,-13.7553042934459,71.7022749842062));
#310=CARTESIAN_POINT('Ctrl Pts',(41.8627806370323,-10.0147343049557,70.1195685436056));
#311=CARTESIAN_POINT('Ctrl Pts',(42.2895719474187,-8.04323905227299,69.5086279034412));
#312=CARTESIAN_POINT('Ctrl Pts',(42.8583405031176,-4.03289465499495,68.6986719214786));
#313=CARTESIAN_POINT('Ctrl Pts',(43.,-1.99393110021991,68.5000000019305));
#314=CARTESIAN_POINT('Ctrl Pts',(43.,1.9939311002199,68.5000000019305));
#315=CARTESIAN_POINT('Ctrl Pts',(42.8583405031175,4.03289465499494,68.6986719214786));
#316=CARTESIAN_POINT('Ctrl Pts',(42.2895719474187,8.04323905227298,69.5086279034412));
#317=CARTESIAN_POINT('Ctrl Pts',(41.8627806370323,10.0147343049557,70.1195685436056));
#318=CARTESIAN_POINT('Ctrl Pts',(40.7869941057371,13.7553042934459,71.7022749842061));
#319=CARTESIAN_POINT('Ctrl Pts',(40.1374292081222,15.5284802171499,72.6753566985208));
#320=CARTESIAN_POINT('Ctrl Pts',(38.721965100208,18.7818087545756,74.8885047665005));
#321=CARTESIAN_POINT('Ctrl Pts',(37.9567816281706,20.2621966322523,76.1286829815678));
#322=CARTESIAN_POINT('Ctrl Pts',(36.4323752524304,22.891643180772,78.7581295300376));
#323=CARTESIAN_POINT('Ctrl Pts',(35.6134189703979,24.1359071160246,80.249776241934));
#324=CARTESIAN_POINT('Ctrl Pts',(34.0134232538336,26.3428294161229,83.5026375963535));
#325=CARTESIAN_POINT('Ctrl Pts',(33.2332310572836,27.3061678872619,85.2638074597795));
#326=CARTESIAN_POINT('Ctrl Pts',(31.8788453261854,28.8758355394868,88.9752478868201));
#327=CARTESIAN_POINT('Ctrl Pts',(31.305584166143,29.4835480061702,90.9294086329734));
#328=CARTESIAN_POINT('Ctrl Pts',(30.5201351063192,30.295883543843,94.9289455358433));
#329=CARTESIAN_POINT('Ctrl Pts',(30.3108891324553,30.5,96.9750017539586));
#330=CARTESIAN_POINT('Ctrl Pts',(30.3108891324553,30.5,99.0000000013608));
#331=CARTESIAN_POINT('Origin',(0.,0.,147.));
#332=CARTESIAN_POINT('',(43.,5.26598123633362E-015,147.));
#333=CARTESIAN_POINT('Origin',(0.,0.,147.));
#334=CARTESIAN_POINT('',(43.,5.26598123633362E-015,51.));
#335=CARTESIAN_POINT('Origin',(0.,0.,51.));
#336=CARTESIAN_POINT('Origin',(0.,0.,0.));
#337=CARTESIAN_POINT('',(-54.5,-6.674105E-015,198.));
#338=CARTESIAN_POINT('Origin',(0.,0.,198.));
#339=CARTESIAN_POINT('',(54.5,-1.334821E-014,0.));
#340=CARTESIAN_POINT('Origin',(0.,0.,0.));
#341=CARTESIAN_POINT('',(39.067249711235,-38.,99.000000001754));
#342=CARTESIAN_POINT('',(54.5,-1.132761E-014,61.000000002447));
#343=CARTESIAN_POINT('Ctrl Pts',(39.0672497112351,-38.,99.000000001754));
#344=CARTESIAN_POINT('Ctrl Pts',(39.0672497112351,-38.,96.4844400127745));
#345=CARTESIAN_POINT('Ctrl Pts',(39.3177823492373,-37.7470594225838,93.9386263000301));
#346=CARTESIAN_POINT('Ctrl Pts',(40.2631664073117,-36.7369831302177,88.9574866213228));
#347=CARTESIAN_POINT('Ctrl Pts',(40.9546479693465,-35.9804751110206,86.5213944157754));
#348=CARTESIAN_POINT('Ctrl Pts',(42.5933817765669,-34.0247155936224,81.8935878524122));
#349=CARTESIAN_POINT('Ctrl Pts',(43.5394978498597,-32.8237608404783,79.696981443907));
#350=CARTESIAN_POINT('Ctrl Pts',(45.4833746796913,-30.0724088885864,75.6407186524115));
#351=CARTESIAN_POINT('Ctrl Pts',(46.4800280442601,-28.5211985861012,73.7810832179991));
#352=CARTESIAN_POINT('Ctrl Pts',(48.3383294194995,-25.2419838982133,70.5018685302171));
#353=CARTESIAN_POINT('Ctrl Pts',(49.2725665592059,-23.395013624296,68.9551845052849));
#354=CARTESIAN_POINT('Ctrl Pts',(51.0015643306608,-19.3378621773848,66.1965750646741));
#355=CARTESIAN_POINT('Ctrl Pts',(51.7954212670942,-17.1273966091096,64.984501595202));
#356=CARTESIAN_POINT('Ctrl Pts',(53.1102799701861,-12.4664177431253,63.0140259100984));
#357=CARTESIAN_POINT('Ctrl Pts',(53.6319520460222,-10.0108358531469,62.2539916470182));
#358=CARTESIAN_POINT('Ctrl Pts',(54.327007488875,-5.01790515009164,61.2467671277493));
#359=CARTESIAN_POINT('Ctrl Pts',(54.5,-2.48041658612987,61.0000000024469));
#360=CARTESIAN_POINT('Ctrl Pts',(54.5,-1.38777878078145E-016,61.0000000024469));
#361=CARTESIAN_POINT('',(54.5,-1.334821E-014,137.00000000244));
#362=CARTESIAN_POINT('Ctrl Pts',(39.0672497112351,-38.,99.000000001754));
#363=CARTESIAN_POINT('Ctrl Pts',(39.0672497112351,-38.,101.515559990756));
#364=CARTESIAN_POINT('Ctrl Pts',(39.317782349241,-37.7470594225799,104.061373703523));
#365=CARTESIAN_POINT('Ctrl Pts',(40.2631664073118,-36.7369831302175,109.04251338229));
#366=CARTESIAN_POINT('Ctrl Pts',(40.9546479693393,-35.980475111028,111.478605587875));
#367=CARTESIAN_POINT('Ctrl Pts',(42.5933817765359,-34.0247155936604,116.106412151332));
#368=CARTESIAN_POINT('Ctrl Pts',(43.5394978498124,-32.8237608405394,118.303018559894));
#369=CARTESIAN_POINT('Ctrl Pts',(45.4833746796122,-30.0724088887043,122.359281351517));
#370=CARTESIAN_POINT('Ctrl Pts',(46.4800280441657,-28.5211985862528,124.218916786));
#371=CARTESIAN_POINT('Ctrl Pts',(48.3383294193951,-25.2419838984124,127.498131473947));
#372=CARTESIAN_POINT('Ctrl Pts',(49.2725665591067,-23.395013624505,129.044815498977));
#373=CARTESIAN_POINT('Ctrl Pts',(51.0015643305796,-19.3378621775991,131.80342493978));
#374=CARTESIAN_POINT('Ctrl Pts',(51.7954212670256,-17.1273966093193,133.015498409345));
#375=CARTESIAN_POINT('Ctrl Pts',(53.1102799701441,-12.4664177433075,134.985974094609));
#376=CARTESIAN_POINT('Ctrl Pts',(53.6319520459942,-10.0108358533058,135.746008357757));
#377=CARTESIAN_POINT('Ctrl Pts',(54.327007488868,-5.0179051501846,136.753232877119));
#378=CARTESIAN_POINT('Ctrl Pts',(54.5,-2.4804165861803,137.000000002447));
#379=CARTESIAN_POINT('Ctrl Pts',(54.5,-3.88578058618805E-015,137.000000002447));
#380=CARTESIAN_POINT('',(39.067249711235,38.,99.000000001754));
#381=CARTESIAN_POINT('Ctrl Pts',(54.5,4.44089209850063E-015,137.000000002447));
#382=CARTESIAN_POINT('Ctrl Pts',(54.5,2.4804165861803,137.000000002447));
#383=CARTESIAN_POINT('Ctrl Pts',(54.327007488868,5.01790515018459,136.753232877119));
#384=CARTESIAN_POINT('Ctrl Pts',(53.6319520459942,10.0108358533057,135.746008357757));
#385=CARTESIAN_POINT('Ctrl Pts',(53.1102799701441,12.4664177433075,134.985974094609));
#386=CARTESIAN_POINT('Ctrl Pts',(51.7954212670256,17.1273966093194,133.015498409345));
#387=CARTESIAN_POINT('Ctrl Pts',(51.0015643305796,19.3378621775991,131.80342493978));
#388=CARTESIAN_POINT('Ctrl Pts',(49.2725665591067,23.395013624505,129.044815498977));
#389=CARTESIAN_POINT('Ctrl Pts',(48.3383294193951,25.2419838984124,127.498131473947));
#390=CARTESIAN_POINT('Ctrl Pts',(46.4800280441657,28.5211985862528,124.218916786));
#391=CARTESIAN_POINT('Ctrl Pts',(45.4833746796121,30.0724088887043,122.359281351517));
#392=CARTESIAN_POINT('Ctrl Pts',(43.5394978498124,32.8237608405394,118.303018559894));
#393=CARTESIAN_POINT('Ctrl Pts',(42.5933817765359,34.0247155936604,116.106412151332));
#394=CARTESIAN_POINT('Ctrl Pts',(40.9546479693393,35.980475111028,111.478605587875));
#395=CARTESIAN_POINT('Ctrl Pts',(40.2631664073118,36.7369831302175,109.04251338229));
#396=CARTESIAN_POINT('Ctrl Pts',(39.317782349241,37.7470594225799,104.061373703523));
#397=CARTESIAN_POINT('Ctrl Pts',(39.0672497112351,38.,101.515559990756));
#398=CARTESIAN_POINT('Ctrl Pts',(39.0672497112351,38.,99.000000001754));
#399=CARTESIAN_POINT('Ctrl Pts',(54.5,-9.57567358739198E-015,61.0000000024469));
#400=CARTESIAN_POINT('Ctrl Pts',(54.5,2.48041658612987,61.0000000024469));
#401=CARTESIAN_POINT('Ctrl Pts',(54.327007488875,5.01790515009164,61.2467671277493));
#402=CARTESIAN_POINT('Ctrl Pts',(53.6319520460222,10.0108358531469,62.2539916470182));
#403=CARTESIAN_POINT('Ctrl Pts',(53.1102799701861,12.4664177431253,63.0140259100984));
#404=CARTESIAN_POINT('Ctrl Pts',(51.7954212670942,17.1273966091096,64.984501595202));
#405=CARTESIAN_POINT('Ctrl Pts',(51.0015643306608,19.3378621773848,66.1965750646741));
#406=CARTESIAN_POINT('Ctrl Pts',(49.2725665592059,23.395013624296,68.9551845052849));
#407=CARTESIAN_POINT('Ctrl Pts',(48.3383294194995,25.2419838982133,70.5018685302171));
#408=CARTESIAN_POINT('Ctrl Pts',(46.4800280442601,28.5211985861012,73.7810832179991));
#409=CARTESIAN_POINT('Ctrl Pts',(45.4833746796913,30.0724088885864,75.6407186524116));
#410=CARTESIAN_POINT('Ctrl Pts',(43.5394978498597,32.8237608404783,79.696981443907));
#411=CARTESIAN_POINT('Ctrl Pts',(42.5933817765669,34.0247155936224,81.8935878524122));
#412=CARTESIAN_POINT('Ctrl Pts',(40.9546479693465,35.9804751110206,86.5213944157754));
#413=CARTESIAN_POINT('Ctrl Pts',(40.2631664073117,36.7369831302177,88.9574866213227));
#414=CARTESIAN_POINT('Ctrl Pts',(39.3177823492373,37.7470594225838,93.93862630003));
#415=CARTESIAN_POINT('Ctrl Pts',(39.0672497112351,38.,96.4844400127745));
#416=CARTESIAN_POINT('Ctrl Pts',(39.0672497112351,38.,99.000000001754));
#417=CARTESIAN_POINT('Origin',(0.,0.,25.5));
#418=CARTESIAN_POINT('',(-45.,-5.510729E-015,51.));
#419=CARTESIAN_POINT('Origin',(0.,0.,51.));
#420=CARTESIAN_POINT('',(-45.,-5.510729E-015,0.));
#421=CARTESIAN_POINT('Origin',(0.,0.,0.));
#422=CARTESIAN_POINT('Origin',(0.,0.,99.));
#423=CARTESIAN_POINT('',(85.9999999982939,-4.653504E-015,137.000000003861));
#424=CARTESIAN_POINT('Origin',(86.,0.,99.000000003861));
#425=CARTESIAN_POINT('Origin',(0.,0.,172.5));
#426=CARTESIAN_POINT('',(-45.,-5.510729E-015,198.));
#427=CARTESIAN_POINT('Origin',(0.,0.,198.));
#428=CARTESIAN_POINT('',(-45.,-5.510729E-015,147.));
#429=CARTESIAN_POINT('Origin',(0.,0.,147.));
#430=CARTESIAN_POINT('Origin',(67.,0.,99.0000000030081));
#431=CARTESIAN_POINT('',(85.9999999985858,-3.85751E-015,130.500000003861));
#432=CARTESIAN_POINT('Origin',(86.,0.,99.000000003861));
#433=CARTESIAN_POINT('',(47.9999999985858,-3.85751E-015,130.500000002155));
#434=CARTESIAN_POINT('Origin',(48.,0.,99.000000002155));
#435=CARTESIAN_POINT('Origin',(0.,0.,0.));
#436=CARTESIAN_POINT('Origin',(0.,0.,51.));
#437=CARTESIAN_POINT('Origin',(0.,0.,198.));
#438=CARTESIAN_POINT('Origin',(86.,0.,99.000000003861));
#439=CARTESIAN_POINT('Origin',(0.,0.,147.));
#440=CARTESIAN_POINT('Origin',(48.,0.,99.000000002155));
#441=UNCERTAINTY_MEASURE_WITH_UNIT(LENGTH_MEASURE(0.01),#443,
'DISTANCE_ACCURACY_VALUE',
'Maximum model space distance between geometric entities at asserted c
onnectivities');
#442=(
GEOMETRIC_REPRESENTATION_CONTEXT(3)
GLOBAL_UNCERTAINTY_ASSIGNED_CONTEXT((#441))
GLOBAL_UNIT_ASSIGNED_CONTEXT((#443,#446,#444))
REPRESENTATION_CONTEXT('','3D')
);
#443=(
LENGTH_UNIT()
NAMED_UNIT(*)
SI_UNIT(.MILLI.,.METRE.)
);
#444=(
NAMED_UNIT(*)
SI_UNIT($,.STERADIAN.)
SOLID_ANGLE_UNIT()
);
#445=DIMENSIONAL_EXPONENTS(0.,0.,0.,0.,0.,0.,0.);
#446=(
CONVERSION_BASED_UNIT('degree',#448)
NAMED_UNIT(#445)
PLANE_ANGLE_UNIT()
);
#447=(
NAMED_UNIT(*)
PLANE_ANGLE_UNIT()
SI_UNIT($,.RADIAN.)
);
#448=PLANE_ANGLE_MEASURE_WITH_UNIT(PLANE_ANGLE_MEASURE(0.01745329252),#447);
#449=SHAPE_DEFINITION_REPRESENTATION(#450,#451);
#450=PRODUCT_DEFINITION_SHAPE('',$,#453);
#451=SHAPE_REPRESENTATION('',(#182),#442);
#452=PRODUCT_DEFINITION_CONTEXT('3D Mechanical Parts',#456,'design');
#453=PRODUCT_DEFINITION('TRIV090063','TRIV090063',#454,#452);
#454=PRODUCT_DEFINITION_FORMATION('',$,#458);
#455=APPLICATION_PROTOCOL_DEFINITION('international standard',
'automotive_design',2009,#456);
#456=APPLICATION_CONTEXT(
'Core Data for Automotive Mechanical Design Process');
#457=PRODUCT_CONTEXT('3D Mechanical Parts',#456,'mechanical');
#458=PRODUCT('TRIV090063','TRIV090063',$,(#457));
#459=PRESENTATION_STYLE_ASSIGNMENT((#460));
#460=SURFACE_STYLE_USAGE(.BOTH.,#461);
#461=SURFACE_SIDE_STYLE($,(#462));
#462=SURFACE_STYLE_FILL_AREA(#463);
#463=FILL_AREA_STYLE($,(#464));
#464=FILL_AREA_STYLE_COLOUR($,#465);
#465=COLOUR_RGB('',0.509803921568627,0.509803921568627,0.588235294117647);
ENDSEC;
END-ISO-10303-21;
