ISO-10303-21;
HEADER;
/* Generated by software containing ST-Developer
 * from STEP Tools, Inc. (www.steptools.com) 
 */

FILE_DESCRIPTION(
/* description */ (''),
/* implementation_level */ '2;1');

FILE_NAME(
/* name */ 
'Q:\\Ric010\\FF7\\FIPlastiCAD\\FIP\\Lavoro\\PVC Fittings\\PVC Fittings
 STEP\\KIFV\\KIFV020016012.ipt.stp',
/* time_stamp */ '2013-10-01T14:44:22+02:00',
/* author */ ('bfaro'),
/* organization */ (''),
/* preprocessor_version */ 'ST-DEVELOPER v15.2',
/* originating_system */ 'Autodesk Inventor 2014',
/* authorisation */ '');

FILE_SCHEMA (('AUTOMOTIVE_DESIGN { 1 0 10303 214 3 1 1 }'));
ENDSEC;

DATA;
#10=SHAPE_REPRESENTATION_RELATIONSHIP('SRR','None',#464,#11);
#11=ADVANCED_BREP_SHAPE_REPRESENTATION($,(#277),#455);
#12=LINE($,#405,#36);
#13=LINE($,#407,#37);
#14=LINE($,#409,#38);
#15=LINE($,#411,#39);
#16=LINE($,#413,#40);
#17=LINE($,#415,#41);
#18=LINE($,#417,#42);
#19=LINE($,#418,#43);
#20=LINE($,#421,#44);
#21=LINE($,#423,#45);
#22=LINE($,#424,#46);
#23=LINE($,#427,#47);
#24=LINE($,#428,#48);
#25=LINE($,#431,#49);
#26=LINE($,#432,#50);
#27=LINE($,#435,#51);
#28=LINE($,#436,#52);
#29=LINE($,#439,#53);
#30=LINE($,#440,#54);
#31=LINE($,#443,#55);
#32=LINE($,#444,#56);
#33=LINE($,#447,#57);
#34=LINE($,#448,#58);
#35=LINE($,#450,#59);
#36=VECTOR($,#334,9.112698372088);
#37=VECTOR($,#335,9.11269837406361);
#38=VECTOR($,#336,9.112698372089);
#39=VECTOR($,#337,9.11269837208158);
#40=VECTOR($,#338,9.112698372089);
#41=VECTOR($,#339,9.11269837208512);
#42=VECTOR($,#340,9.112698372088);
#43=VECTOR($,#341,9.11269837208441);
#44=VECTOR($,#344,6.5);
#45=VECTOR($,#345,6.5);
#46=VECTOR($,#346,9.112698372088);
#47=VECTOR($,#349,6.5);
#48=VECTOR($,#350,9.11269837406361);
#49=VECTOR($,#353,6.5);
#50=VECTOR($,#354,9.11269837208441);
#51=VECTOR($,#357,6.5);
#52=VECTOR($,#358,9.112698372089);
#53=VECTOR($,#361,6.5);
#54=VECTOR($,#362,9.112698372088);
#55=VECTOR($,#365,6.5);
#56=VECTOR($,#366,9.11269837208158);
#57=VECTOR($,#369,6.5);
#58=VECTOR($,#370,9.11269837208512);
#59=VECTOR($,#373,9.112698372089);
#60=PLANE($,#291);
#61=PLANE($,#292);
#62=PLANE($,#293);
#63=PLANE($,#294);
#64=PLANE($,#295);
#65=PLANE($,#296);
#66=PLANE($,#297);
#67=PLANE($,#298);
#68=PLANE($,#299);
#69=PLANE($,#300);
#70=PLANE($,#301);
#71=PLANE($,#302);
#72=PLANE($,#303);
#73=STYLED_ITEM($,(#473),#262);
#74=STYLED_ITEM($,(#472),#277);
#75=FACE_BOUND($,#102,.T.);
#76=FACE_BOUND($,#104,.T.);
#77=FACE_BOUND($,#106,.T.);
#78=FACE_BOUND($,#108,.T.);
#79=FACE_BOUND($,#110,.T.);
#80=FACE_BOUND($,#112,.T.);
#81=FACE_BOUND($,#122,.T.);
#82=FACE_BOUND($,#124,.T.);
#83=FACE_BOUND($,#125,.T.);
#84=FACE_BOUND($,#126,.T.);
#85=FACE_OUTER_BOUND($,#101,.T.);
#86=FACE_OUTER_BOUND($,#103,.T.);
#87=FACE_OUTER_BOUND($,#105,.T.);
#88=FACE_OUTER_BOUND($,#107,.T.);
#89=FACE_OUTER_BOUND($,#109,.T.);
#90=FACE_OUTER_BOUND($,#111,.T.);
#91=FACE_OUTER_BOUND($,#113,.T.);
#92=FACE_OUTER_BOUND($,#114,.T.);
#93=FACE_OUTER_BOUND($,#115,.T.);
#94=FACE_OUTER_BOUND($,#116,.T.);
#95=FACE_OUTER_BOUND($,#117,.T.);
#96=FACE_OUTER_BOUND($,#118,.T.);
#97=FACE_OUTER_BOUND($,#119,.T.);
#98=FACE_OUTER_BOUND($,#120,.T.);
#99=FACE_OUTER_BOUND($,#121,.T.);
#100=FACE_OUTER_BOUND($,#123,.T.);
#101=EDGE_LOOP($,(#191));
#102=EDGE_LOOP($,(#192));
#103=EDGE_LOOP($,(#193));
#104=EDGE_LOOP($,(#194));
#105=EDGE_LOOP($,(#195));
#106=EDGE_LOOP($,(#196));
#107=EDGE_LOOP($,(#197));
#108=EDGE_LOOP($,(#198));
#109=EDGE_LOOP($,(#199));
#110=EDGE_LOOP($,(#200));
#111=EDGE_LOOP($,(#201,#202,#203,#204,#205,#206,#207,#208));
#112=EDGE_LOOP($,(#209));
#113=EDGE_LOOP($,(#210,#211,#212,#213));
#114=EDGE_LOOP($,(#214,#215,#216,#217));
#115=EDGE_LOOP($,(#218,#219,#220,#221));
#116=EDGE_LOOP($,(#222,#223,#224,#225));
#117=EDGE_LOOP($,(#226,#227,#228,#229));
#118=EDGE_LOOP($,(#230,#231,#232,#233));
#119=EDGE_LOOP($,(#234,#235,#236,#237));
#120=EDGE_LOOP($,(#238,#239,#240,#241));
#121=EDGE_LOOP($,(#242,#243,#244,#245,#246,#247,#248,#249));
#122=EDGE_LOOP($,(#250));
#123=EDGE_LOOP($,(#251));
#124=EDGE_LOOP($,(#252));
#125=EDGE_LOOP($,(#253));
#126=EDGE_LOOP($,(#254));
#127=CIRCLE($,#280,8.);
#128=CIRCLE($,#281,8.);
#129=CIRCLE($,#283,10.);
#130=CIRCLE($,#284,10.);
#131=CIRCLE($,#286,5.5);
#132=CIRCLE($,#287,5.5);
#133=CIRCLE($,#289,10.5);
#134=CIRCLE($,#290,10.5);
#135=VERTEX_POINT($,#382);
#136=VERTEX_POINT($,#384);
#137=VERTEX_POINT($,#387);
#138=VERTEX_POINT($,#389);
#139=VERTEX_POINT($,#392);
#140=VERTEX_POINT($,#394);
#141=VERTEX_POINT($,#397);
#142=VERTEX_POINT($,#399);
#143=VERTEX_POINT($,#403);
#144=VERTEX_POINT($,#404);
#145=VERTEX_POINT($,#406);
#146=VERTEX_POINT($,#408);
#147=VERTEX_POINT($,#410);
#148=VERTEX_POINT($,#412);
#149=VERTEX_POINT($,#414);
#150=VERTEX_POINT($,#416);
#151=VERTEX_POINT($,#420);
#152=VERTEX_POINT($,#422);
#153=VERTEX_POINT($,#426);
#154=VERTEX_POINT($,#430);
#155=VERTEX_POINT($,#434);
#156=VERTEX_POINT($,#438);
#157=VERTEX_POINT($,#442);
#158=VERTEX_POINT($,#446);
#159=EDGE_CURVE($,#135,#135,#127,.T.);
#160=EDGE_CURVE($,#136,#136,#128,.T.);
#161=EDGE_CURVE($,#137,#137,#129,.T.);
#162=EDGE_CURVE($,#138,#138,#130,.T.);
#163=EDGE_CURVE($,#139,#139,#131,.T.);
#164=EDGE_CURVE($,#140,#140,#132,.T.);
#165=EDGE_CURVE($,#141,#141,#133,.T.);
#166=EDGE_CURVE($,#142,#142,#134,.T.);
#167=EDGE_CURVE($,#143,#144,#12,.T.);
#168=EDGE_CURVE($,#145,#143,#13,.T.);
#169=EDGE_CURVE($,#146,#145,#14,.T.);
#170=EDGE_CURVE($,#147,#146,#15,.T.);
#171=EDGE_CURVE($,#148,#147,#16,.T.);
#172=EDGE_CURVE($,#149,#148,#17,.T.);
#173=EDGE_CURVE($,#150,#149,#18,.T.);
#174=EDGE_CURVE($,#144,#150,#19,.T.);
#175=EDGE_CURVE($,#143,#151,#20,.T.);
#176=EDGE_CURVE($,#144,#152,#21,.T.);
#177=EDGE_CURVE($,#151,#152,#22,.T.);
#178=EDGE_CURVE($,#145,#153,#23,.T.);
#179=EDGE_CURVE($,#153,#151,#24,.T.);
#180=EDGE_CURVE($,#150,#154,#25,.T.);
#181=EDGE_CURVE($,#152,#154,#26,.T.);
#182=EDGE_CURVE($,#146,#155,#27,.T.);
#183=EDGE_CURVE($,#155,#153,#28,.T.);
#184=EDGE_CURVE($,#149,#156,#29,.T.);
#185=EDGE_CURVE($,#154,#156,#30,.T.);
#186=EDGE_CURVE($,#147,#157,#31,.T.);
#187=EDGE_CURVE($,#157,#155,#32,.T.);
#188=EDGE_CURVE($,#148,#158,#33,.T.);
#189=EDGE_CURVE($,#156,#158,#34,.T.);
#190=EDGE_CURVE($,#158,#157,#35,.T.);
#191=ORIENTED_EDGE($,*,*,#159,.T.);
#192=ORIENTED_EDGE($,*,*,#160,.F.);
#193=ORIENTED_EDGE($,*,*,#161,.T.);
#194=ORIENTED_EDGE($,*,*,#162,.F.);
#195=ORIENTED_EDGE($,*,*,#163,.F.);
#196=ORIENTED_EDGE($,*,*,#164,.F.);
#197=ORIENTED_EDGE($,*,*,#165,.T.);
#198=ORIENTED_EDGE($,*,*,#166,.F.);
#199=ORIENTED_EDGE($,*,*,#165,.F.);
#200=ORIENTED_EDGE($,*,*,#164,.T.);
#201=ORIENTED_EDGE($,*,*,#167,.F.);
#202=ORIENTED_EDGE($,*,*,#168,.F.);
#203=ORIENTED_EDGE($,*,*,#169,.F.);
#204=ORIENTED_EDGE($,*,*,#170,.F.);
#205=ORIENTED_EDGE($,*,*,#171,.F.);
#206=ORIENTED_EDGE($,*,*,#172,.F.);
#207=ORIENTED_EDGE($,*,*,#173,.F.);
#208=ORIENTED_EDGE($,*,*,#174,.F.);
#209=ORIENTED_EDGE($,*,*,#166,.T.);
#210=ORIENTED_EDGE($,*,*,#175,.F.);
#211=ORIENTED_EDGE($,*,*,#167,.T.);
#212=ORIENTED_EDGE($,*,*,#176,.T.);
#213=ORIENTED_EDGE($,*,*,#177,.F.);
#214=ORIENTED_EDGE($,*,*,#178,.F.);
#215=ORIENTED_EDGE($,*,*,#168,.T.);
#216=ORIENTED_EDGE($,*,*,#175,.T.);
#217=ORIENTED_EDGE($,*,*,#179,.F.);
#218=ORIENTED_EDGE($,*,*,#176,.F.);
#219=ORIENTED_EDGE($,*,*,#174,.T.);
#220=ORIENTED_EDGE($,*,*,#180,.T.);
#221=ORIENTED_EDGE($,*,*,#181,.F.);
#222=ORIENTED_EDGE($,*,*,#182,.F.);
#223=ORIENTED_EDGE($,*,*,#169,.T.);
#224=ORIENTED_EDGE($,*,*,#178,.T.);
#225=ORIENTED_EDGE($,*,*,#183,.F.);
#226=ORIENTED_EDGE($,*,*,#180,.F.);
#227=ORIENTED_EDGE($,*,*,#173,.T.);
#228=ORIENTED_EDGE($,*,*,#184,.T.);
#229=ORIENTED_EDGE($,*,*,#185,.F.);
#230=ORIENTED_EDGE($,*,*,#186,.F.);
#231=ORIENTED_EDGE($,*,*,#170,.T.);
#232=ORIENTED_EDGE($,*,*,#182,.T.);
#233=ORIENTED_EDGE($,*,*,#187,.F.);
#234=ORIENTED_EDGE($,*,*,#184,.F.);
#235=ORIENTED_EDGE($,*,*,#172,.T.);
#236=ORIENTED_EDGE($,*,*,#188,.T.);
#237=ORIENTED_EDGE($,*,*,#189,.F.);
#238=ORIENTED_EDGE($,*,*,#188,.F.);
#239=ORIENTED_EDGE($,*,*,#171,.T.);
#240=ORIENTED_EDGE($,*,*,#186,.T.);
#241=ORIENTED_EDGE($,*,*,#190,.F.);
#242=ORIENTED_EDGE($,*,*,#177,.T.);
#243=ORIENTED_EDGE($,*,*,#181,.T.);
#244=ORIENTED_EDGE($,*,*,#185,.T.);
#245=ORIENTED_EDGE($,*,*,#189,.T.);
#246=ORIENTED_EDGE($,*,*,#190,.T.);
#247=ORIENTED_EDGE($,*,*,#187,.T.);
#248=ORIENTED_EDGE($,*,*,#183,.T.);
#249=ORIENTED_EDGE($,*,*,#179,.T.);
#250=ORIENTED_EDGE($,*,*,#161,.F.);
#251=ORIENTED_EDGE($,*,*,#162,.T.);
#252=ORIENTED_EDGE($,*,*,#159,.F.);
#253=ORIENTED_EDGE($,*,*,#163,.T.);
#254=ORIENTED_EDGE($,*,*,#160,.T.);
#255=CYLINDRICAL_SURFACE($,#279,8.);
#256=CYLINDRICAL_SURFACE($,#282,10.);
#257=CYLINDRICAL_SURFACE($,#285,5.5);
#258=CYLINDRICAL_SURFACE($,#288,10.5);
#259=ADVANCED_FACE($,(#85,#75),#255,.F.);
#260=ADVANCED_FACE($,(#86,#76),#256,.T.);
#261=ADVANCED_FACE($,(#87,#77),#257,.F.);
#262=ADVANCED_FACE($,(#88,#78),#258,.T.);
#263=ADVANCED_FACE($,(#89,#79),#60,.F.);
#264=ADVANCED_FACE($,(#90,#80),#61,.T.);
#265=ADVANCED_FACE($,(#91),#62,.F.);
#266=ADVANCED_FACE($,(#92),#63,.F.);
#267=ADVANCED_FACE($,(#93),#64,.F.);
#268=ADVANCED_FACE($,(#94),#65,.F.);
#269=ADVANCED_FACE($,(#95),#66,.F.);
#270=ADVANCED_FACE($,(#96),#67,.F.);
#271=ADVANCED_FACE($,(#97),#68,.F.);
#272=ADVANCED_FACE($,(#98),#69,.F.);
#273=ADVANCED_FACE($,(#99,#81),#70,.F.);
#274=ADVANCED_FACE($,(#100,#82),#71,.T.);
#275=ADVANCED_FACE($,(#83,#84),#72,.T.);
#276=CLOSED_SHELL($,(#259,#260,#261,#262,#263,#264,#265,#266,#267,#268,
#269,#270,#271,#272,#273,#274,#275));
#277=MANIFOLD_SOLID_BREP('44B',#276);
#278=AXIS2_PLACEMENT_3D('placement',#380,#304,#305);
#279=AXIS2_PLACEMENT_3D($,#381,#306,#307);
#280=AXIS2_PLACEMENT_3D($,#383,#308,#309);
#281=AXIS2_PLACEMENT_3D($,#385,#310,#311);
#282=AXIS2_PLACEMENT_3D($,#386,#312,#313);
#283=AXIS2_PLACEMENT_3D($,#388,#314,#315);
#284=AXIS2_PLACEMENT_3D($,#390,#316,#317);
#285=AXIS2_PLACEMENT_3D($,#391,#318,#319);
#286=AXIS2_PLACEMENT_3D($,#393,#320,#321);
#287=AXIS2_PLACEMENT_3D($,#395,#322,#323);
#288=AXIS2_PLACEMENT_3D($,#396,#324,#325);
#289=AXIS2_PLACEMENT_3D($,#398,#326,#327);
#290=AXIS2_PLACEMENT_3D($,#400,#328,#329);
#291=AXIS2_PLACEMENT_3D($,#401,#330,#331);
#292=AXIS2_PLACEMENT_3D($,#402,#332,#333);
#293=AXIS2_PLACEMENT_3D($,#419,#342,#343);
#294=AXIS2_PLACEMENT_3D($,#425,#347,#348);
#295=AXIS2_PLACEMENT_3D($,#429,#351,#352);
#296=AXIS2_PLACEMENT_3D($,#433,#355,#356);
#297=AXIS2_PLACEMENT_3D($,#437,#359,#360);
#298=AXIS2_PLACEMENT_3D($,#441,#363,#364);
#299=AXIS2_PLACEMENT_3D($,#445,#367,#368);
#300=AXIS2_PLACEMENT_3D($,#449,#371,#372);
#301=AXIS2_PLACEMENT_3D($,#451,#374,#375);
#302=AXIS2_PLACEMENT_3D($,#452,#376,#377);
#303=AXIS2_PLACEMENT_3D($,#453,#378,#379);
#304=DIRECTION('axis',(0.,0.,1.));
#305=DIRECTION('refdir',(1.,0.,0.));
#306=DIRECTION('center_axis',(0.,0.,1.));
#307=DIRECTION('ref_axis',(1.,0.,0.));
#308=DIRECTION('center_axis',(0.,0.,1.));
#309=DIRECTION('ref_axis',(1.,0.,0.));
#310=DIRECTION('center_axis',(0.,0.,1.));
#311=DIRECTION('ref_axis',(1.,0.,0.));
#312=DIRECTION('center_axis',(0.,0.,1.));
#313=DIRECTION('ref_axis',(1.,0.,0.));
#314=DIRECTION('center_axis',(0.,0.,1.));
#315=DIRECTION('ref_axis',(1.,0.,0.));
#316=DIRECTION('center_axis',(0.,0.,1.));
#317=DIRECTION('ref_axis',(1.,0.,0.));
#318=DIRECTION('center_axis',(0.,0.,1.));
#319=DIRECTION('ref_axis',(1.,0.,0.));
#320=DIRECTION('center_axis',(0.,0.,-1.));
#321=DIRECTION('ref_axis',(1.,0.,0.));
#322=DIRECTION('center_axis',(0.,0.,1.));
#323=DIRECTION('ref_axis',(1.,0.,0.));
#324=DIRECTION('center_axis',(0.,0.,1.));
#325=DIRECTION('ref_axis',(1.,0.,0.));
#326=DIRECTION('center_axis',(0.,0.,1.));
#327=DIRECTION('ref_axis',(1.,0.,0.));
#328=DIRECTION('center_axis',(0.,0.,1.));
#329=DIRECTION('ref_axis',(1.,0.,0.));
#330=DIRECTION('center_axis',(0.,0.,1.));
#331=DIRECTION('ref_axis',(1.,0.,0.));
#332=DIRECTION('center_axis',(0.,0.,-1.));
#333=DIRECTION('ref_axis',(-1.,0.,0.));
#334=DIRECTION($,(-1.,4.488252E-011,0.));
#335=DIRECTION($,(-0.707106781107208,0.707106781265887,0.));
#336=DIRECTION($,(1.796394E-010,1.,0.));
#337=DIRECTION($,(0.707106781298095,0.707106781075,0.));
#338=DIRECTION($,(1.,-1.338793E-010,0.));
#339=DIRECTION($,(0.707106781106988,-0.707106781266107,0.));
#340=DIRECTION($,(-8.998394E-011,-1.,0.));
#341=DIRECTION($,(-0.707106781233899,-0.707106781139196,0.));
#342=DIRECTION('center_axis',(-4.489655E-011,-1.,0.));
#343=DIRECTION('ref_axis',(0.,0.,-1.));
#344=DIRECTION($,(0.,0.,1.));
#345=DIRECTION($,(0.,0.,1.));
#346=DIRECTION($,(-1.,4.488252E-011,0.));
#347=DIRECTION('center_axis',(-0.707106781266048,-0.707106781107048,0.));
#348=DIRECTION('ref_axis',(0.,0.,1.));
#349=DIRECTION($,(0.,0.,1.));
#350=DIRECTION($,(-0.707106781107208,0.707106781265887,0.));
#351=DIRECTION('center_axis',(0.707106781139048,-0.707106781234048,0.));
#352=DIRECTION('ref_axis',(0.,0.,-1.));
#353=DIRECTION($,(0.,0.,1.));
#354=DIRECTION($,(-0.707106781233899,-0.707106781139196,0.));
#355=DIRECTION('center_axis',(-1.,1.795864E-010,0.));
#356=DIRECTION('ref_axis',(0.,0.,1.));
#357=DIRECTION($,(0.,0.,1.));
#358=DIRECTION($,(1.796394E-010,1.,0.));
#359=DIRECTION('center_axis',(1.,-8.979291E-011,0.));
#360=DIRECTION('ref_axis',(0.,0.,-1.));
#361=DIRECTION($,(0.,0.,1.));
#362=DIRECTION($,(-8.998394E-011,-1.,0.));
#363=DIRECTION('center_axis',(-0.707106781075048,0.707106781298047,0.));
#364=DIRECTION('ref_axis',(0.,0.,1.));
#365=DIRECTION($,(0.,0.,1.));
#366=DIRECTION($,(0.707106781298095,0.707106781075,0.));
#367=DIRECTION('center_axis',(0.707106781266048,0.707106781107048,0.));
#368=DIRECTION('ref_axis',(0.,0.,-1.));
#369=DIRECTION($,(0.,0.,1.));
#370=DIRECTION($,(0.707106781106988,-0.707106781266107,0.));
#371=DIRECTION('center_axis',(1.346893E-010,1.,0.));
#372=DIRECTION('ref_axis',(0.,0.,1.));
#373=DIRECTION($,(1.,-1.338793E-010,0.));
#374=DIRECTION('center_axis',(0.,0.,-1.));
#375=DIRECTION('ref_axis',(-1.,0.,0.));
#376=DIRECTION('center_axis',(0.,0.,1.));
#377=DIRECTION('ref_axis',(1.,0.,0.));
#378=DIRECTION('center_axis',(0.,0.,1.));
#379=DIRECTION('ref_axis',(1.,0.,0.));
#380=CARTESIAN_POINT('',(0.,0.,0.));
#381=CARTESIAN_POINT('Origin',(0.,0.,23.5));
#382=CARTESIAN_POINT('',(-8.,-9.796851E-016,37.5));
#383=CARTESIAN_POINT('Origin',(0.,0.,37.5));
#384=CARTESIAN_POINT('',(-8.,-9.796851E-016,23.5));
#385=CARTESIAN_POINT('Origin',(0.,0.,23.5));
#386=CARTESIAN_POINT('Origin',(0.,0.,21.5));
#387=CARTESIAN_POINT('',(-10.,-1.224606E-015,21.5));
#388=CARTESIAN_POINT('Origin',(0.,0.,21.5));
#389=CARTESIAN_POINT('',(-10.,-1.224606E-015,37.5));
#390=CARTESIAN_POINT('Origin',(0.,0.,37.5));
#391=CARTESIAN_POINT('Origin',(0.,0.,0.));
#392=CARTESIAN_POINT('',(-5.5,6.73555739531044E-016,23.5));
#393=CARTESIAN_POINT('Origin',(0.,0.,23.5));
#394=CARTESIAN_POINT('',(-5.5,-6.735335E-016,0.));
#395=CARTESIAN_POINT('Origin',(0.,0.,0.));
#396=CARTESIAN_POINT('Origin',(0.,0.,0.));
#397=CARTESIAN_POINT('',(-10.5,-1.285837E-015,0.));
#398=CARTESIAN_POINT('Origin',(0.,0.,0.));
#399=CARTESIAN_POINT('',(-10.5,-1.285837E-015,15.));
#400=CARTESIAN_POINT('Origin',(0.,0.,15.));
#401=CARTESIAN_POINT('Origin',(0.,0.,0.));
#402=CARTESIAN_POINT('Origin',(4.556349186538,11.,15.));
#403=CARTESIAN_POINT('',(4.556349186538,11.,15.));
#404=CARTESIAN_POINT('',(-4.55634918555,11.000000000409,15.));
#405=CARTESIAN_POINT($,(4.556349186538,11.,15.));
#406=CARTESIAN_POINT('',(11.000000001023,4.556349184069,15.));
#407=CARTESIAN_POINT($,(11.000000001023,4.556349184069,15.));
#408=CARTESIAN_POINT('',(10.999999999386,-4.55634918802,15.));
#409=CARTESIAN_POINT($,(10.999999999386,-4.55634918802,15.));
#410=CARTESIAN_POINT('',(4.556349184563,-11.00000000081,15.));
#411=CARTESIAN_POINT($,(4.556349184563,-11.00000000081,15.));
#412=CARTESIAN_POINT('',(-4.556349187526,-10.99999999959,15.));
#413=CARTESIAN_POINT($,(-4.556349187526,-10.99999999959,15.));
#414=CARTESIAN_POINT('',(-11.00000000061,-4.556349185056,15.));
#415=CARTESIAN_POINT($,(-11.00000000061,-4.556349185056,15.));
#416=CARTESIAN_POINT('',(-10.99999999979,4.556349187032,15.));
#417=CARTESIAN_POINT($,(-10.99999999979,4.556349187032,15.));
#418=CARTESIAN_POINT($,(-4.55634918555,11.000000000409,15.));
#419=CARTESIAN_POINT('Origin',(4.556349186538,11.,15.));
#420=CARTESIAN_POINT('',(4.556349186538,11.,21.5));
#421=CARTESIAN_POINT($,(4.556349186538,11.,15.));
#422=CARTESIAN_POINT('',(-4.55634918555,11.000000000409,21.5));
#423=CARTESIAN_POINT($,(-4.55634918555,11.000000000409,15.));
#424=CARTESIAN_POINT($,(4.556349186538,11.,21.5));
#425=CARTESIAN_POINT('Origin',(11.000000001023,4.556349184069,15.));
#426=CARTESIAN_POINT('',(11.000000001023,4.556349184069,21.5));
#427=CARTESIAN_POINT($,(11.000000001023,4.556349184069,15.));
#428=CARTESIAN_POINT($,(11.000000001023,4.556349184069,21.5));
#429=CARTESIAN_POINT('Origin',(-4.55634918555,11.000000000409,15.));
#430=CARTESIAN_POINT('',(-10.99999999979,4.556349187032,21.5));
#431=CARTESIAN_POINT($,(-10.99999999979,4.556349187032,15.));
#432=CARTESIAN_POINT($,(-4.55634918555,11.000000000409,21.5));
#433=CARTESIAN_POINT('Origin',(10.999999999386,-4.55634918802,15.));
#434=CARTESIAN_POINT('',(10.999999999386,-4.55634918802,21.5));
#435=CARTESIAN_POINT($,(10.999999999386,-4.55634918802,15.));
#436=CARTESIAN_POINT($,(10.999999999386,-4.55634918802,21.5));
#437=CARTESIAN_POINT('Origin',(-10.99999999979,4.556349187032,15.));
#438=CARTESIAN_POINT('',(-11.00000000061,-4.556349185056,21.5));
#439=CARTESIAN_POINT($,(-11.00000000061,-4.556349185056,15.));
#440=CARTESIAN_POINT($,(-10.99999999979,4.556349187032,21.5));
#441=CARTESIAN_POINT('Origin',(4.556349184563,-11.00000000081,15.));
#442=CARTESIAN_POINT('',(4.556349184563,-11.00000000081,21.5));
#443=CARTESIAN_POINT($,(4.556349184563,-11.00000000081,15.));
#444=CARTESIAN_POINT($,(4.556349184563,-11.00000000081,21.5));
#445=CARTESIAN_POINT('Origin',(-11.00000000061,-4.556349185056,15.));
#446=CARTESIAN_POINT('',(-4.556349187526,-10.99999999959,21.5));
#447=CARTESIAN_POINT($,(-4.556349187526,-10.99999999959,15.));
#448=CARTESIAN_POINT($,(-11.00000000061,-4.556349185056,21.5));
#449=CARTESIAN_POINT('Origin',(-4.556349187526,-10.99999999959,15.));
#450=CARTESIAN_POINT($,(-4.556349187526,-10.99999999959,21.5));
#451=CARTESIAN_POINT('Origin',(4.556349186538,11.,21.5));
#452=CARTESIAN_POINT('Origin',(0.,0.,37.5));
#453=CARTESIAN_POINT('Origin',(0.,0.,23.5));
#454=UNCERTAINTY_MEASURE_WITH_UNIT(LENGTH_MEASURE(0.01),#456,
'DISTANCE_ACCURACY_VALUE',
'Maximum model space distance between geometric entities at asserted c
onnectivities');
#455=(
GEOMETRIC_REPRESENTATION_CONTEXT(3)
GLOBAL_UNCERTAINTY_ASSIGNED_CONTEXT((#454))
GLOBAL_UNIT_ASSIGNED_CONTEXT((#456,#459,#457))
REPRESENTATION_CONTEXT('','3D')
);
#456=(
LENGTH_UNIT()
NAMED_UNIT(*)
SI_UNIT(.MILLI.,.METRE.)
);
#457=(
NAMED_UNIT(*)
SI_UNIT($,.STERADIAN.)
SOLID_ANGLE_UNIT()
);
#458=DIMENSIONAL_EXPONENTS(0.,0.,0.,0.,0.,0.,0.);
#459=(
CONVERSION_BASED_UNIT('degree',#461)
NAMED_UNIT(#458)
PLANE_ANGLE_UNIT()
);
#460=(
NAMED_UNIT(*)
PLANE_ANGLE_UNIT()
SI_UNIT($,.RADIAN.)
);
#461=PLANE_ANGLE_MEASURE_WITH_UNIT(PLANE_ANGLE_MEASURE(0.01745329252),#460);
#462=SHAPE_DEFINITION_REPRESENTATION(#463,#464);
#463=PRODUCT_DEFINITION_SHAPE('',$,#466);
#464=SHAPE_REPRESENTATION('',(#278),#455);
#465=PRODUCT_DEFINITION_CONTEXT('3D Mechanical Parts',#469,'design');
#466=PRODUCT_DEFINITION('KIFV020016012','KIFV020016012',#467,#465);
#467=PRODUCT_DEFINITION_FORMATION('',$,#471);
#468=APPLICATION_PROTOCOL_DEFINITION('international standard',
'automotive_design',2009,#469);
#469=APPLICATION_CONTEXT(
'Core Data for Automotive Mechanical Design Process');
#470=PRODUCT_CONTEXT('3D Mechanical Parts',#469,'mechanical');
#471=PRODUCT('KIFV020016012','KIFV020016012',$,(#470));
#472=PRESENTATION_STYLE_ASSIGNMENT((#474));
#473=PRESENTATION_STYLE_ASSIGNMENT((#475));
#474=SURFACE_STYLE_USAGE(.BOTH.,#476);
#475=SURFACE_STYLE_USAGE(.BOTH.,#477);
#476=SURFACE_SIDE_STYLE($,(#478));
#477=SURFACE_SIDE_STYLE($,(#479));
#478=SURFACE_STYLE_FILL_AREA(#480);
#479=SURFACE_STYLE_FILL_AREA(#481);
#480=FILL_AREA_STYLE($,(#482));
#481=FILL_AREA_STYLE($,(#483));
#482=FILL_AREA_STYLE_COLOUR($,#484);
#483=FILL_AREA_STYLE_COLOUR($,#485);
#484=COLOUR_RGB('',0.509803921568627,0.509803921568627,0.588235294117647);
#485=COLOUR_RGB('',1.,0.,0.);
ENDSEC;
END-ISO-10303-21;
