ISO-10303-21;
HEADER;
/* Generated by software containing ST-Developer
 * from STEP Tools, Inc. (www.steptools.com) 
 */

FILE_DESCRIPTION(
/* description */ (''),
/* implementation_level */ '2;1');

FILE_NAME(
/* name */ 
'Q:\\Ric010\\FF7\\FIPlastiCAD\\FIP\\Lavoro\\PVC Fittings\\PVC Fittings
 STEP\\NRIV\\NRIV025100.ipt.stp',
/* time_stamp */ '2013-10-01T14:48:27+02:00',
/* author */ ('bfaro'),
/* organization */ (''),
/* preprocessor_version */ 'ST-DEVELOPER v15.2',
/* originating_system */ 'Autodesk Inventor 2014',
/* authorisation */ '');

FILE_SCHEMA (('AUTOMOTIVE_DESIGN { 1 0 10303 214 3 1 1 }'));
ENDSEC;

DATA;
#10=GEOMETRICALLY_BOUNDED_SURFACE_SHAPE_REPRESENTATION('',(#11),#539);
#11=GEOMETRIC_SET('GEOSET',(#12));
#12=TRIMMED_CURVE($,#34,(#536,PARAMETER_VALUE(0.)),(#537,
PARAMETER_VALUE(1.)),.T.,.PARAMETER.);
#13=SHAPE_REPRESENTATION_RELATIONSHIP('SRR','None',#548,#15);
#14=SHAPE_REPRESENTATION_RELATIONSHIP('SRR','None',#548,#10);
#15=ADVANCED_BREP_SHAPE_REPRESENTATION($,(#318),#539);
#16=LINE($,#500,#35);
#17=LINE($,#502,#36);
#18=LINE($,#504,#37);
#19=LINE($,#506,#38);
#20=LINE($,#508,#39);
#21=LINE($,#509,#40);
#22=LINE($,#513,#41);
#23=LINE($,#514,#42);
#24=LINE($,#515,#43);
#25=LINE($,#518,#44);
#26=LINE($,#519,#45);
#27=LINE($,#522,#46);
#28=LINE($,#523,#47);
#29=LINE($,#526,#48);
#30=LINE($,#527,#49);
#31=LINE($,#530,#50);
#32=LINE($,#531,#51);
#33=LINE($,#533,#52);
#34=LINE($,#535,#53);
#35=VECTOR($,#419,26.5581123827228);
#36=VECTOR($,#420,26.5581123827228);
#37=VECTOR($,#421,26.5581123827228);
#38=VECTOR($,#422,26.5581123827228);
#39=VECTOR($,#423,26.5581123827228);
#40=VECTOR($,#424,26.5581123827228);
#41=VECTOR($,#427,26.5581123827228);
#42=VECTOR($,#428,10.);
#43=VECTOR($,#429,10.);
#44=VECTOR($,#432,26.5581123827228);
#45=VECTOR($,#433,10.);
#46=VECTOR($,#436,26.5581123827228);
#47=VECTOR($,#437,10.);
#48=VECTOR($,#440,26.5581123827228);
#49=VECTOR($,#441,10.);
#50=VECTOR($,#444,26.5581123827228);
#51=VECTOR($,#445,10.);
#52=VECTOR($,#448,26.5581123827228);
#53=VECTOR($,#451,60.);
#54=PLANE($,#345);
#55=PLANE($,#346);
#56=PLANE($,#347);
#57=PLANE($,#348);
#58=PLANE($,#349);
#59=PLANE($,#350);
#60=PLANE($,#351);
#61=PLANE($,#352);
#62=PLANE($,#353);
#63=PLANE($,#354);
#64=PLANE($,#355);
#65=PLANE($,#356);
#66=STYLED_ITEM($,(#557),#304);
#67=STYLED_ITEM($,(#556),#318);
#68=TOROIDAL_SURFACE($,#335,16.5000000000001,1.00000000000018);
#69=TOROIDAL_SURFACE($,#340,13.5000000000001,1.0000000000001);
#70=CONICAL_SURFACE($,#323,10.225,14.9999999999997);
#71=CONICAL_SURFACE($,#330,12.0450372071672,20.0000000000001);
#72=FACE_BOUND($,#111,.T.);
#73=FACE_BOUND($,#113,.T.);
#74=FACE_BOUND($,#115,.T.);
#75=FACE_BOUND($,#117,.T.);
#76=FACE_BOUND($,#119,.T.);
#77=FACE_BOUND($,#121,.T.);
#78=FACE_BOUND($,#123,.T.);
#79=FACE_BOUND($,#125,.T.);
#80=FACE_BOUND($,#127,.T.);
#81=FACE_BOUND($,#129,.T.);
#82=FACE_BOUND($,#131,.T.);
#83=FACE_BOUND($,#133,.T.);
#84=FACE_BOUND($,#135,.T.);
#85=FACE_BOUND($,#137,.T.);
#86=FACE_BOUND($,#139,.T.);
#87=FACE_BOUND($,#147,.T.);
#88=FACE_OUTER_BOUND($,#110,.T.);
#89=FACE_OUTER_BOUND($,#112,.T.);
#90=FACE_OUTER_BOUND($,#114,.T.);
#91=FACE_OUTER_BOUND($,#116,.T.);
#92=FACE_OUTER_BOUND($,#118,.T.);
#93=FACE_OUTER_BOUND($,#120,.T.);
#94=FACE_OUTER_BOUND($,#122,.T.);
#95=FACE_OUTER_BOUND($,#124,.T.);
#96=FACE_OUTER_BOUND($,#126,.T.);
#97=FACE_OUTER_BOUND($,#128,.T.);
#98=FACE_OUTER_BOUND($,#130,.T.);
#99=FACE_OUTER_BOUND($,#132,.T.);
#100=FACE_OUTER_BOUND($,#134,.T.);
#101=FACE_OUTER_BOUND($,#136,.T.);
#102=FACE_OUTER_BOUND($,#138,.T.);
#103=FACE_OUTER_BOUND($,#140,.T.);
#104=FACE_OUTER_BOUND($,#141,.T.);
#105=FACE_OUTER_BOUND($,#142,.T.);
#106=FACE_OUTER_BOUND($,#143,.T.);
#107=FACE_OUTER_BOUND($,#144,.T.);
#108=FACE_OUTER_BOUND($,#145,.T.);
#109=FACE_OUTER_BOUND($,#146,.T.);
#110=EDGE_LOOP($,(#223));
#111=EDGE_LOOP($,(#224));
#112=EDGE_LOOP($,(#225));
#113=EDGE_LOOP($,(#226));
#114=EDGE_LOOP($,(#227));
#115=EDGE_LOOP($,(#228));
#116=EDGE_LOOP($,(#229));
#117=EDGE_LOOP($,(#230));
#118=EDGE_LOOP($,(#231));
#119=EDGE_LOOP($,(#232));
#120=EDGE_LOOP($,(#233));
#121=EDGE_LOOP($,(#234));
#122=EDGE_LOOP($,(#235));
#123=EDGE_LOOP($,(#236));
#124=EDGE_LOOP($,(#237));
#125=EDGE_LOOP($,(#238));
#126=EDGE_LOOP($,(#239));
#127=EDGE_LOOP($,(#240));
#128=EDGE_LOOP($,(#241));
#129=EDGE_LOOP($,(#242));
#130=EDGE_LOOP($,(#243));
#131=EDGE_LOOP($,(#244));
#132=EDGE_LOOP($,(#245));
#133=EDGE_LOOP($,(#246));
#134=EDGE_LOOP($,(#247));
#135=EDGE_LOOP($,(#248));
#136=EDGE_LOOP($,(#249));
#137=EDGE_LOOP($,(#250));
#138=EDGE_LOOP($,(#251,#252,#253,#254,#255,#256));
#139=EDGE_LOOP($,(#257));
#140=EDGE_LOOP($,(#258,#259,#260,#261));
#141=EDGE_LOOP($,(#262,#263,#264,#265));
#142=EDGE_LOOP($,(#266,#267,#268,#269));
#143=EDGE_LOOP($,(#270,#271,#272,#273));
#144=EDGE_LOOP($,(#274,#275,#276,#277));
#145=EDGE_LOOP($,(#278,#279,#280,#281));
#146=EDGE_LOOP($,(#282,#283,#284,#285,#286,#287));
#147=EDGE_LOOP($,(#288));
#148=CIRCLE($,#321,10.95);
#149=CIRCLE($,#322,10.95);
#150=CIRCLE($,#324,9.5);
#151=CIRCLE($,#326,9.5);
#152=CIRCLE($,#328,12.5);
#153=CIRCLE($,#329,12.5);
#154=CIRCLE($,#331,11.5900744143345);
#155=CIRCLE($,#333,15.1);
#156=CIRCLE($,#334,15.1);
#157=CIRCLE($,#336,16.5);
#158=CIRCLE($,#337,15.5);
#159=CIRCLE($,#339,15.5);
#160=CIRCLE($,#341,13.5);
#161=CIRCLE($,#343,16.6);
#162=CIRCLE($,#344,16.6);
#163=VERTEX_POINT($,#454);
#164=VERTEX_POINT($,#456);
#165=VERTEX_POINT($,#459);
#166=VERTEX_POINT($,#462);
#167=VERTEX_POINT($,#465);
#168=VERTEX_POINT($,#467);
#169=VERTEX_POINT($,#470);
#170=VERTEX_POINT($,#473);
#171=VERTEX_POINT($,#475);
#172=VERTEX_POINT($,#478);
#173=VERTEX_POINT($,#480);
#174=VERTEX_POINT($,#483);
#175=VERTEX_POINT($,#486);
#176=VERTEX_POINT($,#489);
#177=VERTEX_POINT($,#491);
#178=VERTEX_POINT($,#498);
#179=VERTEX_POINT($,#499);
#180=VERTEX_POINT($,#501);
#181=VERTEX_POINT($,#503);
#182=VERTEX_POINT($,#505);
#183=VERTEX_POINT($,#507);
#184=VERTEX_POINT($,#511);
#185=VERTEX_POINT($,#512);
#186=VERTEX_POINT($,#517);
#187=VERTEX_POINT($,#521);
#188=VERTEX_POINT($,#525);
#189=VERTEX_POINT($,#529);
#190=EDGE_CURVE($,#163,#163,#148,.T.);
#191=EDGE_CURVE($,#164,#164,#149,.T.);
#192=EDGE_CURVE($,#165,#165,#150,.T.);
#193=EDGE_CURVE($,#166,#166,#151,.T.);
#194=EDGE_CURVE($,#167,#167,#152,.T.);
#195=EDGE_CURVE($,#168,#168,#153,.T.);
#196=EDGE_CURVE($,#169,#169,#154,.T.);
#197=EDGE_CURVE($,#170,#170,#155,.T.);
#198=EDGE_CURVE($,#171,#171,#156,.T.);
#199=EDGE_CURVE($,#172,#172,#157,.T.);
#200=EDGE_CURVE($,#173,#173,#158,.T.);
#201=EDGE_CURVE($,#174,#174,#159,.T.);
#202=EDGE_CURVE($,#175,#175,#160,.T.);
#203=EDGE_CURVE($,#176,#176,#161,.T.);
#204=EDGE_CURVE($,#177,#177,#162,.T.);
#205=EDGE_CURVE($,#178,#179,#16,.T.);
#206=EDGE_CURVE($,#180,#178,#17,.T.);
#207=EDGE_CURVE($,#181,#180,#18,.T.);
#208=EDGE_CURVE($,#182,#181,#19,.T.);
#209=EDGE_CURVE($,#183,#182,#20,.T.);
#210=EDGE_CURVE($,#179,#183,#21,.T.);
#211=EDGE_CURVE($,#184,#185,#22,.T.);
#212=EDGE_CURVE($,#180,#185,#23,.T.);
#213=EDGE_CURVE($,#178,#184,#24,.T.);
#214=EDGE_CURVE($,#185,#186,#25,.T.);
#215=EDGE_CURVE($,#181,#186,#26,.T.);
#216=EDGE_CURVE($,#186,#187,#27,.T.);
#217=EDGE_CURVE($,#182,#187,#28,.T.);
#218=EDGE_CURVE($,#187,#188,#29,.T.);
#219=EDGE_CURVE($,#183,#188,#30,.T.);
#220=EDGE_CURVE($,#188,#189,#31,.T.);
#221=EDGE_CURVE($,#179,#189,#32,.T.);
#222=EDGE_CURVE($,#189,#184,#33,.T.);
#223=ORIENTED_EDGE($,*,*,#190,.T.);
#224=ORIENTED_EDGE($,*,*,#191,.F.);
#225=ORIENTED_EDGE($,*,*,#191,.T.);
#226=ORIENTED_EDGE($,*,*,#192,.F.);
#227=ORIENTED_EDGE($,*,*,#192,.T.);
#228=ORIENTED_EDGE($,*,*,#193,.F.);
#229=ORIENTED_EDGE($,*,*,#194,.T.);
#230=ORIENTED_EDGE($,*,*,#195,.F.);
#231=ORIENTED_EDGE($,*,*,#196,.T.);
#232=ORIENTED_EDGE($,*,*,#194,.F.);
#233=ORIENTED_EDGE($,*,*,#197,.T.);
#234=ORIENTED_EDGE($,*,*,#198,.F.);
#235=ORIENTED_EDGE($,*,*,#199,.T.);
#236=ORIENTED_EDGE($,*,*,#200,.T.);
#237=ORIENTED_EDGE($,*,*,#201,.T.);
#238=ORIENTED_EDGE($,*,*,#200,.F.);
#239=ORIENTED_EDGE($,*,*,#202,.F.);
#240=ORIENTED_EDGE($,*,*,#195,.T.);
#241=ORIENTED_EDGE($,*,*,#203,.F.);
#242=ORIENTED_EDGE($,*,*,#204,.F.);
#243=ORIENTED_EDGE($,*,*,#201,.F.);
#244=ORIENTED_EDGE($,*,*,#202,.T.);
#245=ORIENTED_EDGE($,*,*,#204,.T.);
#246=ORIENTED_EDGE($,*,*,#197,.F.);
#247=ORIENTED_EDGE($,*,*,#198,.T.);
#248=ORIENTED_EDGE($,*,*,#190,.F.);
#249=ORIENTED_EDGE($,*,*,#196,.F.);
#250=ORIENTED_EDGE($,*,*,#193,.T.);
#251=ORIENTED_EDGE($,*,*,#205,.F.);
#252=ORIENTED_EDGE($,*,*,#206,.F.);
#253=ORIENTED_EDGE($,*,*,#207,.F.);
#254=ORIENTED_EDGE($,*,*,#208,.F.);
#255=ORIENTED_EDGE($,*,*,#209,.F.);
#256=ORIENTED_EDGE($,*,*,#210,.F.);
#257=ORIENTED_EDGE($,*,*,#199,.F.);
#258=ORIENTED_EDGE($,*,*,#211,.T.);
#259=ORIENTED_EDGE($,*,*,#212,.F.);
#260=ORIENTED_EDGE($,*,*,#206,.T.);
#261=ORIENTED_EDGE($,*,*,#213,.T.);
#262=ORIENTED_EDGE($,*,*,#214,.T.);
#263=ORIENTED_EDGE($,*,*,#215,.F.);
#264=ORIENTED_EDGE($,*,*,#207,.T.);
#265=ORIENTED_EDGE($,*,*,#212,.T.);
#266=ORIENTED_EDGE($,*,*,#216,.T.);
#267=ORIENTED_EDGE($,*,*,#217,.F.);
#268=ORIENTED_EDGE($,*,*,#208,.T.);
#269=ORIENTED_EDGE($,*,*,#215,.T.);
#270=ORIENTED_EDGE($,*,*,#218,.T.);
#271=ORIENTED_EDGE($,*,*,#219,.F.);
#272=ORIENTED_EDGE($,*,*,#209,.T.);
#273=ORIENTED_EDGE($,*,*,#217,.T.);
#274=ORIENTED_EDGE($,*,*,#220,.T.);
#275=ORIENTED_EDGE($,*,*,#221,.F.);
#276=ORIENTED_EDGE($,*,*,#210,.T.);
#277=ORIENTED_EDGE($,*,*,#219,.T.);
#278=ORIENTED_EDGE($,*,*,#222,.T.);
#279=ORIENTED_EDGE($,*,*,#213,.F.);
#280=ORIENTED_EDGE($,*,*,#205,.T.);
#281=ORIENTED_EDGE($,*,*,#221,.T.);
#282=ORIENTED_EDGE($,*,*,#211,.F.);
#283=ORIENTED_EDGE($,*,*,#222,.F.);
#284=ORIENTED_EDGE($,*,*,#220,.F.);
#285=ORIENTED_EDGE($,*,*,#218,.F.);
#286=ORIENTED_EDGE($,*,*,#216,.F.);
#287=ORIENTED_EDGE($,*,*,#214,.F.);
#288=ORIENTED_EDGE($,*,*,#203,.T.);
#289=CYLINDRICAL_SURFACE($,#320,10.95);
#290=CYLINDRICAL_SURFACE($,#325,9.5);
#291=CYLINDRICAL_SURFACE($,#327,12.5);
#292=CYLINDRICAL_SURFACE($,#332,15.1);
#293=CYLINDRICAL_SURFACE($,#338,15.5);
#294=CYLINDRICAL_SURFACE($,#342,16.6);
#295=ADVANCED_FACE($,(#88,#72),#289,.F.);
#296=ADVANCED_FACE($,(#89,#73),#70,.F.);
#297=ADVANCED_FACE($,(#90,#74),#290,.F.);
#298=ADVANCED_FACE($,(#91,#75),#291,.T.);
#299=ADVANCED_FACE($,(#92,#76),#71,.T.);
#300=ADVANCED_FACE($,(#93,#77),#292,.T.);
#301=ADVANCED_FACE($,(#94,#78),#68,.F.);
#302=ADVANCED_FACE($,(#95,#79),#293,.T.);
#303=ADVANCED_FACE($,(#96,#80),#69,.F.);
#304=ADVANCED_FACE($,(#97,#81),#294,.T.);
#305=ADVANCED_FACE($,(#98,#82),#54,.T.);
#306=ADVANCED_FACE($,(#99,#83),#55,.T.);
#307=ADVANCED_FACE($,(#100,#84),#56,.T.);
#308=ADVANCED_FACE($,(#101,#85),#57,.T.);
#309=ADVANCED_FACE($,(#102,#86),#58,.T.);
#310=ADVANCED_FACE($,(#103),#59,.T.);
#311=ADVANCED_FACE($,(#104),#60,.T.);
#312=ADVANCED_FACE($,(#105),#61,.T.);
#313=ADVANCED_FACE($,(#106),#62,.T.);
#314=ADVANCED_FACE($,(#107),#63,.T.);
#315=ADVANCED_FACE($,(#108),#64,.T.);
#316=ADVANCED_FACE($,(#109,#87),#65,.F.);
#317=CLOSED_SHELL($,(#295,#296,#297,#298,#299,#300,#301,#302,#303,#304,
#305,#306,#307,#308,#309,#310,#311,#312,#313,#314,#315,#316));
#318=MANIFOLD_SOLID_BREP('40C',#317);
#319=AXIS2_PLACEMENT_3D('placement',#452,#357,#358);
#320=AXIS2_PLACEMENT_3D($,#453,#359,#360);
#321=AXIS2_PLACEMENT_3D($,#455,#361,#362);
#322=AXIS2_PLACEMENT_3D($,#457,#363,#364);
#323=AXIS2_PLACEMENT_3D($,#458,#365,#366);
#324=AXIS2_PLACEMENT_3D($,#460,#367,#368);
#325=AXIS2_PLACEMENT_3D($,#461,#369,#370);
#326=AXIS2_PLACEMENT_3D($,#463,#371,#372);
#327=AXIS2_PLACEMENT_3D($,#464,#373,#374);
#328=AXIS2_PLACEMENT_3D($,#466,#375,#376);
#329=AXIS2_PLACEMENT_3D($,#468,#377,#378);
#330=AXIS2_PLACEMENT_3D($,#469,#379,#380);
#331=AXIS2_PLACEMENT_3D($,#471,#381,#382);
#332=AXIS2_PLACEMENT_3D($,#472,#383,#384);
#333=AXIS2_PLACEMENT_3D($,#474,#385,#386);
#334=AXIS2_PLACEMENT_3D($,#476,#387,#388);
#335=AXIS2_PLACEMENT_3D($,#477,#389,#390);
#336=AXIS2_PLACEMENT_3D($,#479,#391,#392);
#337=AXIS2_PLACEMENT_3D($,#481,#393,#394);
#338=AXIS2_PLACEMENT_3D($,#482,#395,#396);
#339=AXIS2_PLACEMENT_3D($,#484,#397,#398);
#340=AXIS2_PLACEMENT_3D($,#485,#399,#400);
#341=AXIS2_PLACEMENT_3D($,#487,#401,#402);
#342=AXIS2_PLACEMENT_3D($,#488,#403,#404);
#343=AXIS2_PLACEMENT_3D($,#490,#405,#406);
#344=AXIS2_PLACEMENT_3D($,#492,#407,#408);
#345=AXIS2_PLACEMENT_3D($,#493,#409,#410);
#346=AXIS2_PLACEMENT_3D($,#494,#411,#412);
#347=AXIS2_PLACEMENT_3D($,#495,#413,#414);
#348=AXIS2_PLACEMENT_3D($,#496,#415,#416);
#349=AXIS2_PLACEMENT_3D($,#497,#417,#418);
#350=AXIS2_PLACEMENT_3D($,#510,#425,#426);
#351=AXIS2_PLACEMENT_3D($,#516,#430,#431);
#352=AXIS2_PLACEMENT_3D($,#520,#434,#435);
#353=AXIS2_PLACEMENT_3D($,#524,#438,#439);
#354=AXIS2_PLACEMENT_3D($,#528,#442,#443);
#355=AXIS2_PLACEMENT_3D($,#532,#446,#447);
#356=AXIS2_PLACEMENT_3D($,#534,#449,#450);
#357=DIRECTION('axis',(0.,0.,1.));
#358=DIRECTION('refdir',(1.,0.,0.));
#359=DIRECTION('center_axis',(0.,-1.,0.));
#360=DIRECTION('ref_axis',(1.,0.,0.));
#361=DIRECTION('center_axis',(0.,-1.,0.));
#362=DIRECTION('ref_axis',(1.,0.,0.));
#363=DIRECTION('center_axis',(0.,-1.,0.));
#364=DIRECTION('ref_axis',(1.,0.,0.));
#365=DIRECTION('center_axis',(0.,-1.,0.));
#366=DIRECTION('ref_axis',(1.,0.,0.));
#367=DIRECTION('center_axis',(0.,-1.,0.));
#368=DIRECTION('ref_axis',(1.,0.,0.));
#369=DIRECTION('center_axis',(0.,-1.,0.));
#370=DIRECTION('ref_axis',(1.,0.,0.));
#371=DIRECTION('center_axis',(0.,-1.,0.));
#372=DIRECTION('ref_axis',(1.,0.,0.));
#373=DIRECTION('center_axis',(0.,-1.,0.));
#374=DIRECTION('ref_axis',(1.,0.,0.));
#375=DIRECTION('center_axis',(0.,-1.,0.));
#376=DIRECTION('ref_axis',(1.,0.,0.));
#377=DIRECTION('center_axis',(0.,-1.,0.));
#378=DIRECTION('ref_axis',(1.,0.,0.));
#379=DIRECTION('center_axis',(0.,-1.,0.));
#380=DIRECTION('ref_axis',(1.,0.,0.));
#381=DIRECTION('center_axis',(0.,-1.,0.));
#382=DIRECTION('ref_axis',(1.,0.,0.));
#383=DIRECTION('center_axis',(0.,-1.,0.));
#384=DIRECTION('ref_axis',(1.,0.,0.));
#385=DIRECTION('center_axis',(0.,-1.,0.));
#386=DIRECTION('ref_axis',(1.,0.,0.));
#387=DIRECTION('center_axis',(0.,-1.,0.));
#388=DIRECTION('ref_axis',(1.,0.,0.));
#389=DIRECTION('center_axis',(-2.76916216038591E-016,-1.,-9.11674112945558E-015));
#390=DIRECTION('ref_axis',(0.,9.13554945977257E-015,-1.));
#391=DIRECTION('center_axis',(0.,1.,0.));
#392=DIRECTION('ref_axis',(0.,0.,-1.));
#393=DIRECTION('center_axis',(0.,-1.,0.));
#394=DIRECTION('ref_axis',(1.,0.,0.));
#395=DIRECTION('center_axis',(0.,-1.,0.));
#396=DIRECTION('ref_axis',(1.,0.,0.));
#397=DIRECTION('center_axis',(0.,-1.,0.));
#398=DIRECTION('ref_axis',(1.,0.,0.));
#399=DIRECTION('center_axis',(-3.07440291890504E-016,-1.,-6.73691348070495E-015));
#400=DIRECTION('ref_axis',(0.,6.86041262113192E-015,-1.));
#401=DIRECTION('center_axis',(0.,-1.,0.));
#402=DIRECTION('ref_axis',(1.,0.,0.));
#403=DIRECTION('center_axis',(0.,-1.,0.));
#404=DIRECTION('ref_axis',(1.,0.,0.));
#405=DIRECTION('center_axis',(0.,1.,0.));
#406=DIRECTION('ref_axis',(1.,0.,0.));
#407=DIRECTION('center_axis',(0.,-1.,0.));
#408=DIRECTION('ref_axis',(1.,0.,0.));
#409=DIRECTION('center_axis',(0.,1.,0.));
#410=DIRECTION('ref_axis',(0.,0.,1.));
#411=DIRECTION('center_axis',(0.,-1.,0.));
#412=DIRECTION('ref_axis',(0.,0.,-1.));
#413=DIRECTION('center_axis',(0.,-1.,0.));
#414=DIRECTION('ref_axis',(0.,0.,-1.));
#415=DIRECTION('center_axis',(0.,1.,0.));
#416=DIRECTION('ref_axis',(0.,0.,1.));
#417=DIRECTION('center_axis',(0.,1.,0.));
#418=DIRECTION('ref_axis',(0.,0.,1.));
#419=DIRECTION($,(-0.5,-1.337713E-016,-0.866025403784439));
#420=DIRECTION($,(-1.,0.,0.));
#421=DIRECTION($,(-0.5,1.337713E-016,0.866025403784439));
#422=DIRECTION($,(0.500000000000002,1.337713E-016,0.866025403784437));
#423=DIRECTION($,(1.,0.,0.));
#424=DIRECTION($,(0.5,-1.337713E-016,-0.866025403784439));
#425=DIRECTION('center_axis',(0.,0.,1.));
#426=DIRECTION('ref_axis',(1.,0.,0.));
#427=DIRECTION($,(1.,0.,0.));
#428=DIRECTION($,(0.,-1.,0.));
#429=DIRECTION($,(0.,-1.,0.));
#430=DIRECTION('center_axis',(0.866025403784439,1.776357E-016,0.5));
#431=DIRECTION('ref_axis',(0.500000000000001,0.,-0.866025403784438));
#432=DIRECTION($,(0.5,-2.00657E-016,-0.866025403784439));
#433=DIRECTION($,(0.,-1.,0.));
#434=DIRECTION('center_axis',(0.866025403784437,-1.776357E-016,-0.500000000000002));
#435=DIRECTION('ref_axis',(-0.500000000000001,0.,-0.866025403784438));
#436=DIRECTION($,(-0.500000000000002,-2.00657E-016,-0.866025403784437));
#437=DIRECTION($,(0.,-1.,0.));
#438=DIRECTION('center_axis',(0.,0.,-1.));
#439=DIRECTION('ref_axis',(-1.,0.,0.));
#440=DIRECTION($,(-1.,0.,0.));
#441=DIRECTION($,(0.,-1.,0.));
#442=DIRECTION('center_axis',(-0.866025403784438,-1.776357E-016,-0.5));
#443=DIRECTION('ref_axis',(-0.500000000000001,0.,0.866025403784438));
#444=DIRECTION($,(-0.5,2.00657E-016,0.866025403784439));
#445=DIRECTION($,(0.,-1.,0.));
#446=DIRECTION('center_axis',(-0.866025403784438,1.776357E-016,0.5));
#447=DIRECTION('ref_axis',(0.5,0.,0.866025403784439));
#448=DIRECTION($,(0.5,2.00657E-016,0.866025403784439));
#449=DIRECTION('center_axis',(0.,1.,0.));
#450=DIRECTION('ref_axis',(0.,0.,1.));
#451=DIRECTION($,(0.,-1.,0.));
#452=CARTESIAN_POINT('',(0.,0.,0.));
#453=CARTESIAN_POINT('Origin',(57.1926564179203,-1.76545835561731,0.));
#454=CARTESIAN_POINT('',(46.2426564179203,-17.5597215201299,-1.340944E-015));
#455=CARTESIAN_POINT('Origin',(57.1926564179203,-17.5597215201299,0.));
#456=CARTESIAN_POINT('',(46.2426564179202,14.0288048088953,-1.340944E-015));
#457=CARTESIAN_POINT('Origin',(57.1926564179203,14.0288048088952,0.));
#458=CARTESIAN_POINT('Origin',(57.1926564179203,16.7345416443827,0.));
#459=CARTESIAN_POINT('',(47.6926564179203,19.4402784798702,-1.163376E-015));
#460=CARTESIAN_POINT('Origin',(57.1926564179203,19.4402784798702,0.));
#461=CARTESIAN_POINT('Origin',(57.1926564179203,30.9402784798702,0.));
#462=CARTESIAN_POINT('',(47.6926564179203,42.4402784798702,-1.163376E-015));
#463=CARTESIAN_POINT('Origin',(57.1926564179203,42.4402784798702,0.));
#464=CARTESIAN_POINT('Origin',(57.1926564179203,32.1902784798702,0.));
#465=CARTESIAN_POINT('',(44.6926564179203,39.9402784798702,-1.530758E-015));
#466=CARTESIAN_POINT('Origin',(57.1926564179203,39.9402784798702,0.));
#467=CARTESIAN_POINT('',(57.1926564179203,24.4402784798701,12.5));
#468=CARTESIAN_POINT('Origin',(57.1926564179203,24.4402784798701,0.));
#469=CARTESIAN_POINT('Origin',(57.1926564179203,41.1902784798702,0.));
#470=CARTESIAN_POINT('',(45.6025820035858,42.4402784798702,-1.419328E-015));
#471=CARTESIAN_POINT('Origin',(57.1926564179203,42.4402784798702,0.));
#472=CARTESIAN_POINT('Origin',(57.1926564179203,-17.0597215201298,0.));
#473=CARTESIAN_POINT('',(42.0926564179202,-16.5597215201298,-1.849156E-015));
#474=CARTESIAN_POINT('Origin',(57.1926564179203,-16.5597215201298,0.));
#475=CARTESIAN_POINT('',(42.0926564179202,-17.5597215201298,-1.849156E-015));
#476=CARTESIAN_POINT('Origin',(57.1926564179203,-17.5597215201298,0.));
#477=CARTESIAN_POINT('Origin',(57.1926564179201,21.4402784798703,-4.27435864480685E-013));
#478=CARTESIAN_POINT('',(73.6926564179203,20.4402784798702,0.));
#479=CARTESIAN_POINT('Origin',(57.1926564179203,20.4402784798701,0.));
#480=CARTESIAN_POINT('',(41.6926564179203,21.4402784798702,-1.89814E-015));
#481=CARTESIAN_POINT('Origin',(57.1926564179203,21.4402784798702,0.));
#482=CARTESIAN_POINT('Origin',(57.1926564179203,22.4402784798702,0.));
#483=CARTESIAN_POINT('',(41.6926564179203,23.4402784798702,-1.89814E-015));
#484=CARTESIAN_POINT('Origin',(57.1926564179203,23.4402784798702,0.));
#485=CARTESIAN_POINT('Origin',(57.1926564179202,24.4402784798702,-2.38697950294409E-013));
#486=CARTESIAN_POINT('',(70.6926564179203,23.4402784798701,0.));
#487=CARTESIAN_POINT('Origin',(57.1926564179203,23.4402784798701,0.));
#488=CARTESIAN_POINT('Origin',(57.1926564179203,1.94027847987016,0.));
#489=CARTESIAN_POINT('',(40.5926564179203,10.4402784798702,2.032847E-015));
#490=CARTESIAN_POINT('Origin',(57.1926564179203,10.4402784798702,0.));
#491=CARTESIAN_POINT('',(40.5926564179203,-16.5597215201298,-2.032847E-015));
#492=CARTESIAN_POINT('Origin',(57.1926564179203,-16.5597215201298,0.));
#493=CARTESIAN_POINT('Origin',(71.6926564179203,23.4402784798702,0.));
#494=CARTESIAN_POINT('Origin',(73.0426564179203,-16.5597215201298,0.));
#495=CARTESIAN_POINT('Origin',(70.2176564179202,-17.5597215201298,0.));
#496=CARTESIAN_POINT('Origin',(67.7376936250875,42.4402784798702,0.));
#497=CARTESIAN_POINT('Origin',(57.1926564179203,20.4402784798701,2.220446E-016));
#498=CARTESIAN_POINT('',(43.9136002265589,20.4402784798702,23.));
#499=CARTESIAN_POINT('',(30.6345440351975,20.4402784798702,3.252323E-015));
#500=CARTESIAN_POINT($,(43.9136002265589,20.4402784798702,23.));
#501=CARTESIAN_POINT('',(70.4717126092817,20.4402784798702,23.));
#502=CARTESIAN_POINT($,(70.4717126092817,20.4402784798702,23.));
#503=CARTESIAN_POINT('',(83.7507688006431,20.4402784798702,-3.009299E-014));
#504=CARTESIAN_POINT($,(83.7507688006431,20.4402784798702,-3.009299E-014));
#505=CARTESIAN_POINT('',(70.4717126092816,20.4402784798702,-23.));
#506=CARTESIAN_POINT($,(70.4717126092816,20.4402784798702,-23.));
#507=CARTESIAN_POINT('',(43.9136002265589,20.4402784798702,-23.));
#508=CARTESIAN_POINT($,(43.9136002265589,20.4402784798702,-23.));
#509=CARTESIAN_POINT($,(30.6345440351975,20.4402784798702,3.252323E-015));
#510=CARTESIAN_POINT('Origin',(43.9136002265589,20.4402784798702,23.));
#511=CARTESIAN_POINT('',(43.9136002265589,10.4402784798702,23.));
#512=CARTESIAN_POINT('',(70.4717126092817,10.4402784798702,23.));
#513=CARTESIAN_POINT($,(43.9136002265589,10.4402784798702,23.));
#514=CARTESIAN_POINT($,(70.4717126092817,20.4402784798702,23.));
#515=CARTESIAN_POINT($,(43.9136002265589,20.4402784798702,23.));
#516=CARTESIAN_POINT('Origin',(70.4717126092817,20.4402784798702,23.));
#517=CARTESIAN_POINT('',(83.7507688006431,10.4402784798702,-2.654028E-014));
#518=CARTESIAN_POINT($,(70.4717126092817,10.4402784798702,23.));
#519=CARTESIAN_POINT($,(83.7507688006431,20.4402784798702,-3.009299E-014));
#520=CARTESIAN_POINT('Origin',(83.7507688006431,20.4402784798702,-3.009299E-014));
#521=CARTESIAN_POINT('',(70.4717126092816,10.4402784798702,-23.));
#522=CARTESIAN_POINT($,(83.7507688006431,10.4402784798702,-2.131628E-014));
#523=CARTESIAN_POINT($,(70.4717126092816,20.4402784798702,-23.));
#524=CARTESIAN_POINT('Origin',(70.4717126092816,20.4402784798702,-23.));
#525=CARTESIAN_POINT('',(43.9136002265589,10.4402784798702,-23.));
#526=CARTESIAN_POINT($,(70.4717126092816,10.4402784798702,-23.));
#527=CARTESIAN_POINT($,(43.9136002265589,20.4402784798702,-23.));
#528=CARTESIAN_POINT('Origin',(43.9136002265589,20.4402784798702,-23.));
#529=CARTESIAN_POINT('',(30.6345440351975,10.4402784798702,6.805037E-015));
#530=CARTESIAN_POINT($,(43.9136002265589,10.4402784798702,-23.));
#531=CARTESIAN_POINT($,(30.6345440351975,20.4402784798702,3.252323E-015));
#532=CARTESIAN_POINT('Origin',(30.6345440351975,20.4402784798702,3.252323E-015));
#533=CARTESIAN_POINT($,(30.6345440351975,10.4402784798702,7.105427E-015));
#534=CARTESIAN_POINT('Origin',(57.1926564179203,10.4402784798702,3.996803E-015));
#535=CARTESIAN_POINT($,(57.1926564179203,42.4402784798702,0.));
#536=CARTESIAN_POINT('',(57.1926564179203,42.4402784798702,0.));
#537=CARTESIAN_POINT('',(57.1926564179203,-17.5597215201298,0.));
#538=UNCERTAINTY_MEASURE_WITH_UNIT(LENGTH_MEASURE(0.01),#540,
'DISTANCE_ACCURACY_VALUE',
'Maximum model space distance between geometric entities at asserted c
onnectivities');
#539=(
GEOMETRIC_REPRESENTATION_CONTEXT(3)
GLOBAL_UNCERTAINTY_ASSIGNED_CONTEXT((#538))
GLOBAL_UNIT_ASSIGNED_CONTEXT((#540,#543,#541))
REPRESENTATION_CONTEXT('','3D')
);
#540=(
LENGTH_UNIT()
NAMED_UNIT(*)
SI_UNIT(.MILLI.,.METRE.)
);
#541=(
NAMED_UNIT(*)
SI_UNIT($,.STERADIAN.)
SOLID_ANGLE_UNIT()
);
#542=DIMENSIONAL_EXPONENTS(0.,0.,0.,0.,0.,0.,0.);
#543=(
CONVERSION_BASED_UNIT('degree',#545)
NAMED_UNIT(#542)
PLANE_ANGLE_UNIT()
);
#544=(
NAMED_UNIT(*)
PLANE_ANGLE_UNIT()
SI_UNIT($,.RADIAN.)
);
#545=PLANE_ANGLE_MEASURE_WITH_UNIT(PLANE_ANGLE_MEASURE(0.01745329252),#544);
#546=SHAPE_DEFINITION_REPRESENTATION(#547,#548);
#547=PRODUCT_DEFINITION_SHAPE('',$,#550);
#548=SHAPE_REPRESENTATION('',(#319),#539);
#549=PRODUCT_DEFINITION_CONTEXT('3D Mechanical Parts',#553,'design');
#550=PRODUCT_DEFINITION('NRIV025100','NRIV025100',#551,#549);
#551=PRODUCT_DEFINITION_FORMATION('',$,#555);
#552=APPLICATION_PROTOCOL_DEFINITION('international standard',
'automotive_design',2009,#553);
#553=APPLICATION_CONTEXT(
'Core Data for Automotive Mechanical Design Process');
#554=PRODUCT_CONTEXT('3D Mechanical Parts',#553,'mechanical');
#555=PRODUCT('NRIV025100','NRIV025100',$,(#554));
#556=PRESENTATION_STYLE_ASSIGNMENT((#558));
#557=PRESENTATION_STYLE_ASSIGNMENT((#559));
#558=SURFACE_STYLE_USAGE(.BOTH.,#560);
#559=SURFACE_STYLE_USAGE(.BOTH.,#561);
#560=SURFACE_SIDE_STYLE($,(#562));
#561=SURFACE_SIDE_STYLE($,(#563));
#562=SURFACE_STYLE_FILL_AREA(#564);
#563=SURFACE_STYLE_FILL_AREA(#565);
#564=FILL_AREA_STYLE($,(#566));
#565=FILL_AREA_STYLE($,(#567));
#566=FILL_AREA_STYLE_COLOUR($,#568);
#567=FILL_AREA_STYLE_COLOUR($,#569);
#568=COLOUR_RGB('',0.509803921568627,0.509803921568627,0.588235294117647);
#569=COLOUR_RGB('',1.,0.,0.);
ENDSEC;
END-ISO-10303-21;
