ISO-10303-21;
HEADER;
/* Generated by software containing ST-Developer
 * from STEP Tools, Inc. (www.steptools.com) 
 */

FILE_DESCRIPTION(
/* description */ (''),
/* implementation_level */ '2;1');

FILE_NAME(
/* name */ 'C:\\Users\\Gabriele\\Desktop\\catalogo\\RP20\\RP20075D.stp',

/* time_stamp */ '2016-10-18T15:06:36+02:00',
/* author */ ('Gabriele'),
/* organization */ (''),
/* preprocessor_version */ 'ST-DEVELOPER v16.5',
/* originating_system */ 'Autodesk Inventor 2017',
/* authorisation */ '');

FILE_SCHEMA (('AUTOMOTIVE_DESIGN { 1 0 10303 214 3 1 1 }'));
ENDSEC;

DATA;
#10=MECHANICAL_DESIGN_GEOMETRIC_PRESENTATION_REPRESENTATION('',(#13),#383);
#11=SHAPE_REPRESENTATION_RELATIONSHIP('SRR','None',#392,#12);
#12=ADVANCED_BREP_SHAPE_REPRESENTATION('',(#14),#382);
#13=STYLED_ITEM('',(#401),#14);
#14=MANIFOLD_SOLID_BREP('Solido1',#213);
#15=CONICAL_SURFACE('',#228,29.,38.9136486544172);
#16=CONICAL_SURFACE('',#246,22.75,38.9136486544172);
#17=CYLINDRICAL_SURFACE('',#220,16.);
#18=CYLINDRICAL_SURFACE('',#224,20.5);
#19=CYLINDRICAL_SURFACE('',#232,37.5);
#20=CYLINDRICAL_SURFACE('',#240,31.5);
#21=CYLINDRICAL_SURFACE('',#244,15.);
#22=CYLINDRICAL_SURFACE('',#248,30.5);
#23=PLANE('',#218);
#24=PLANE('',#236);
#25=PLANE('',#242);
#26=PLANE('',#250);
#27=FACE_BOUND('',#64,.T.);
#28=FACE_BOUND('',#66,.T.);
#29=FACE_BOUND('',#68,.T.);
#30=FACE_BOUND('',#70,.T.);
#31=FACE_BOUND('',#72,.T.);
#32=FACE_BOUND('',#74,.T.);
#33=FACE_BOUND('',#76,.T.);
#34=FACE_BOUND('',#78,.T.);
#35=FACE_BOUND('',#80,.T.);
#36=FACE_BOUND('',#82,.T.);
#37=FACE_BOUND('',#84,.T.);
#38=FACE_BOUND('',#86,.T.);
#39=FACE_BOUND('',#88,.T.);
#40=FACE_BOUND('',#90,.T.);
#41=FACE_BOUND('',#92,.T.);
#42=FACE_BOUND('',#94,.T.);
#43=FACE_BOUND('',#96,.T.);
#44=FACE_BOUND('',#98,.T.);
#45=FACE_OUTER_BOUND('',#63,.T.);
#46=FACE_OUTER_BOUND('',#65,.T.);
#47=FACE_OUTER_BOUND('',#67,.T.);
#48=FACE_OUTER_BOUND('',#69,.T.);
#49=FACE_OUTER_BOUND('',#71,.T.);
#50=FACE_OUTER_BOUND('',#73,.T.);
#51=FACE_OUTER_BOUND('',#75,.T.);
#52=FACE_OUTER_BOUND('',#77,.T.);
#53=FACE_OUTER_BOUND('',#79,.T.);
#54=FACE_OUTER_BOUND('',#81,.T.);
#55=FACE_OUTER_BOUND('',#83,.T.);
#56=FACE_OUTER_BOUND('',#85,.T.);
#57=FACE_OUTER_BOUND('',#87,.T.);
#58=FACE_OUTER_BOUND('',#89,.T.);
#59=FACE_OUTER_BOUND('',#91,.T.);
#60=FACE_OUTER_BOUND('',#93,.T.);
#61=FACE_OUTER_BOUND('',#95,.T.);
#62=FACE_OUTER_BOUND('',#97,.T.);
#63=EDGE_LOOP('',(#153));
#64=EDGE_LOOP('',(#154));
#65=EDGE_LOOP('',(#155));
#66=EDGE_LOOP('',(#156));
#67=EDGE_LOOP('',(#157));
#68=EDGE_LOOP('',(#158));
#69=EDGE_LOOP('',(#159));
#70=EDGE_LOOP('',(#160));
#71=EDGE_LOOP('',(#161));
#72=EDGE_LOOP('',(#162));
#73=EDGE_LOOP('',(#163));
#74=EDGE_LOOP('',(#164));
#75=EDGE_LOOP('',(#165));
#76=EDGE_LOOP('',(#166));
#77=EDGE_LOOP('',(#167));
#78=EDGE_LOOP('',(#168));
#79=EDGE_LOOP('',(#169));
#80=EDGE_LOOP('',(#170));
#81=EDGE_LOOP('',(#171));
#82=EDGE_LOOP('',(#172));
#83=EDGE_LOOP('',(#173));
#84=EDGE_LOOP('',(#174));
#85=EDGE_LOOP('',(#175));
#86=EDGE_LOOP('',(#176));
#87=EDGE_LOOP('',(#177));
#88=EDGE_LOOP('',(#178));
#89=EDGE_LOOP('',(#179));
#90=EDGE_LOOP('',(#180));
#91=EDGE_LOOP('',(#181));
#92=EDGE_LOOP('',(#182));
#93=EDGE_LOOP('',(#183));
#94=EDGE_LOOP('',(#184));
#95=EDGE_LOOP('',(#185));
#96=EDGE_LOOP('',(#186));
#97=EDGE_LOOP('',(#187));
#98=EDGE_LOOP('',(#188));
#99=CIRCLE('',#216,16.5);
#100=CIRCLE('',#217,16.);
#101=CIRCLE('',#219,20.);
#102=CIRCLE('',#221,16.);
#103=CIRCLE('',#223,20.5);
#104=CIRCLE('',#225,20.5);
#105=CIRCLE('',#227,20.6109532315595);
#106=CIRCLE('',#229,37.3890467684405);
#107=CIRCLE('',#231,37.5);
#108=CIRCLE('',#233,37.5);
#109=CIRCLE('',#235,37.);
#110=CIRCLE('',#237,32.);
#111=CIRCLE('',#239,31.5);
#112=CIRCLE('',#241,31.5);
#113=CIRCLE('',#243,15.);
#114=CIRCLE('',#245,15.);
#115=CIRCLE('',#247,30.5);
#116=CIRCLE('',#249,30.5);
#117=VERTEX_POINT('',#327);
#118=VERTEX_POINT('',#329);
#119=VERTEX_POINT('',#332);
#120=VERTEX_POINT('',#335);
#121=VERTEX_POINT('',#338);
#122=VERTEX_POINT('',#341);
#123=VERTEX_POINT('',#344);
#124=VERTEX_POINT('',#347);
#125=VERTEX_POINT('',#350);
#126=VERTEX_POINT('',#353);
#127=VERTEX_POINT('',#356);
#128=VERTEX_POINT('',#359);
#129=VERTEX_POINT('',#362);
#130=VERTEX_POINT('',#365);
#131=VERTEX_POINT('',#368);
#132=VERTEX_POINT('',#371);
#133=VERTEX_POINT('',#374);
#134=VERTEX_POINT('',#377);
#135=EDGE_CURVE('',#117,#117,#99,.T.);
#136=EDGE_CURVE('',#118,#118,#100,.T.);
#137=EDGE_CURVE('',#119,#119,#101,.T.);
#138=EDGE_CURVE('',#120,#120,#102,.T.);
#139=EDGE_CURVE('',#121,#121,#103,.T.);
#140=EDGE_CURVE('',#122,#122,#104,.T.);
#141=EDGE_CURVE('',#123,#123,#105,.T.);
#142=EDGE_CURVE('',#124,#124,#106,.T.);
#143=EDGE_CURVE('',#125,#125,#107,.T.);
#144=EDGE_CURVE('',#126,#126,#108,.T.);
#145=EDGE_CURVE('',#127,#127,#109,.T.);
#146=EDGE_CURVE('',#128,#128,#110,.T.);
#147=EDGE_CURVE('',#129,#129,#111,.T.);
#148=EDGE_CURVE('',#130,#130,#112,.T.);
#149=EDGE_CURVE('',#131,#131,#113,.T.);
#150=EDGE_CURVE('',#132,#132,#114,.T.);
#151=EDGE_CURVE('',#133,#133,#115,.T.);
#152=EDGE_CURVE('',#134,#134,#116,.T.);
#153=ORIENTED_EDGE('',*,*,#135,.T.);
#154=ORIENTED_EDGE('',*,*,#136,.T.);
#155=ORIENTED_EDGE('',*,*,#137,.F.);
#156=ORIENTED_EDGE('',*,*,#135,.F.);
#157=ORIENTED_EDGE('',*,*,#138,.F.);
#158=ORIENTED_EDGE('',*,*,#136,.F.);
#159=ORIENTED_EDGE('',*,*,#139,.T.);
#160=ORIENTED_EDGE('',*,*,#137,.T.);
#161=ORIENTED_EDGE('',*,*,#140,.F.);
#162=ORIENTED_EDGE('',*,*,#139,.F.);
#163=ORIENTED_EDGE('',*,*,#141,.T.);
#164=ORIENTED_EDGE('',*,*,#140,.T.);
#165=ORIENTED_EDGE('',*,*,#142,.F.);
#166=ORIENTED_EDGE('',*,*,#141,.F.);
#167=ORIENTED_EDGE('',*,*,#143,.T.);
#168=ORIENTED_EDGE('',*,*,#142,.T.);
#169=ORIENTED_EDGE('',*,*,#144,.F.);
#170=ORIENTED_EDGE('',*,*,#143,.F.);
#171=ORIENTED_EDGE('',*,*,#145,.T.);
#172=ORIENTED_EDGE('',*,*,#144,.T.);
#173=ORIENTED_EDGE('',*,*,#145,.F.);
#174=ORIENTED_EDGE('',*,*,#146,.F.);
#175=ORIENTED_EDGE('',*,*,#147,.T.);
#176=ORIENTED_EDGE('',*,*,#146,.T.);
#177=ORIENTED_EDGE('',*,*,#148,.T.);
#178=ORIENTED_EDGE('',*,*,#147,.F.);
#179=ORIENTED_EDGE('',*,*,#138,.T.);
#180=ORIENTED_EDGE('',*,*,#149,.F.);
#181=ORIENTED_EDGE('',*,*,#150,.F.);
#182=ORIENTED_EDGE('',*,*,#149,.T.);
#183=ORIENTED_EDGE('',*,*,#151,.F.);
#184=ORIENTED_EDGE('',*,*,#150,.T.);
#185=ORIENTED_EDGE('',*,*,#152,.F.);
#186=ORIENTED_EDGE('',*,*,#151,.T.);
#187=ORIENTED_EDGE('',*,*,#148,.F.);
#188=ORIENTED_EDGE('',*,*,#152,.T.);
#189=TOROIDAL_SURFACE('',#215,16.5,0.5);
#190=TOROIDAL_SURFACE('',#222,20.,0.5);
#191=TOROIDAL_SURFACE('',#226,21.,0.5);
#192=TOROIDAL_SURFACE('',#230,37.,0.5);
#193=TOROIDAL_SURFACE('',#234,37.,0.5);
#194=TOROIDAL_SURFACE('',#238,32.,0.5);
#195=ADVANCED_FACE('',(#45,#27),#189,.T.);
#196=ADVANCED_FACE('',(#46,#28),#23,.T.);
#197=ADVANCED_FACE('',(#47,#29),#17,.F.);
#198=ADVANCED_FACE('',(#48,#30),#190,.T.);
#199=ADVANCED_FACE('',(#49,#31),#18,.T.);
#200=ADVANCED_FACE('',(#50,#32),#191,.F.);
#201=ADVANCED_FACE('',(#51,#33),#15,.T.);
#202=ADVANCED_FACE('',(#52,#34),#192,.T.);
#203=ADVANCED_FACE('',(#53,#35),#19,.T.);
#204=ADVANCED_FACE('',(#54,#36),#193,.T.);
#205=ADVANCED_FACE('',(#55,#37),#24,.T.);
#206=ADVANCED_FACE('',(#56,#38),#194,.T.);
#207=ADVANCED_FACE('',(#57,#39),#20,.F.);
#208=ADVANCED_FACE('',(#58,#40),#25,.T.);
#209=ADVANCED_FACE('',(#59,#41),#21,.F.);
#210=ADVANCED_FACE('',(#60,#42),#16,.F.);
#211=ADVANCED_FACE('',(#61,#43),#22,.F.);
#212=ADVANCED_FACE('',(#62,#44),#26,.T.);
#213=CLOSED_SHELL('',(#195,#196,#197,#198,#199,#200,#201,#202,#203,#204,
#205,#206,#207,#208,#209,#210,#211,#212));
#214=AXIS2_PLACEMENT_3D('placement',#325,#251,#252);
#215=AXIS2_PLACEMENT_3D('',#326,#253,#254);
#216=AXIS2_PLACEMENT_3D('',#328,#255,#256);
#217=AXIS2_PLACEMENT_3D('',#330,#257,#258);
#218=AXIS2_PLACEMENT_3D('',#331,#259,#260);
#219=AXIS2_PLACEMENT_3D('',#333,#261,#262);
#220=AXIS2_PLACEMENT_3D('',#334,#263,#264);
#221=AXIS2_PLACEMENT_3D('',#336,#265,#266);
#222=AXIS2_PLACEMENT_3D('',#337,#267,#268);
#223=AXIS2_PLACEMENT_3D('',#339,#269,#270);
#224=AXIS2_PLACEMENT_3D('',#340,#271,#272);
#225=AXIS2_PLACEMENT_3D('',#342,#273,#274);
#226=AXIS2_PLACEMENT_3D('',#343,#275,#276);
#227=AXIS2_PLACEMENT_3D('',#345,#277,#278);
#228=AXIS2_PLACEMENT_3D('',#346,#279,#280);
#229=AXIS2_PLACEMENT_3D('',#348,#281,#282);
#230=AXIS2_PLACEMENT_3D('',#349,#283,#284);
#231=AXIS2_PLACEMENT_3D('',#351,#285,#286);
#232=AXIS2_PLACEMENT_3D('',#352,#287,#288);
#233=AXIS2_PLACEMENT_3D('',#354,#289,#290);
#234=AXIS2_PLACEMENT_3D('',#355,#291,#292);
#235=AXIS2_PLACEMENT_3D('',#357,#293,#294);
#236=AXIS2_PLACEMENT_3D('',#358,#295,#296);
#237=AXIS2_PLACEMENT_3D('',#360,#297,#298);
#238=AXIS2_PLACEMENT_3D('',#361,#299,#300);
#239=AXIS2_PLACEMENT_3D('',#363,#301,#302);
#240=AXIS2_PLACEMENT_3D('',#364,#303,#304);
#241=AXIS2_PLACEMENT_3D('',#366,#305,#306);
#242=AXIS2_PLACEMENT_3D('',#367,#307,#308);
#243=AXIS2_PLACEMENT_3D('',#369,#309,#310);
#244=AXIS2_PLACEMENT_3D('',#370,#311,#312);
#245=AXIS2_PLACEMENT_3D('',#372,#313,#314);
#246=AXIS2_PLACEMENT_3D('',#373,#315,#316);
#247=AXIS2_PLACEMENT_3D('',#375,#317,#318);
#248=AXIS2_PLACEMENT_3D('',#376,#319,#320);
#249=AXIS2_PLACEMENT_3D('',#378,#321,#322);
#250=AXIS2_PLACEMENT_3D('',#379,#323,#324);
#251=DIRECTION('axis',(0.,0.,1.));
#252=DIRECTION('refdir',(1.,0.,0.));
#253=DIRECTION('center_axis',(-1.,0.,0.));
#254=DIRECTION('ref_axis',(0.,0.,1.));
#255=DIRECTION('center_axis',(-1.,0.,0.));
#256=DIRECTION('ref_axis',(0.,1.,6.12323399573677E-17));
#257=DIRECTION('center_axis',(1.,0.,0.));
#258=DIRECTION('ref_axis',(0.,1.,6.12323399573677E-17));
#259=DIRECTION('center_axis',(-1.,0.,0.));
#260=DIRECTION('ref_axis',(0.,0.,1.));
#261=DIRECTION('center_axis',(1.,0.,0.));
#262=DIRECTION('ref_axis',(0.,1.,6.12323399573677E-17));
#263=DIRECTION('center_axis',(-1.,0.,0.));
#264=DIRECTION('ref_axis',(0.,-1.,0.));
#265=DIRECTION('center_axis',(-1.,0.,0.));
#266=DIRECTION('ref_axis',(0.,0.,1.));
#267=DIRECTION('center_axis',(-1.,0.,0.));
#268=DIRECTION('ref_axis',(0.,0.,1.));
#269=DIRECTION('center_axis',(-1.,0.,0.));
#270=DIRECTION('ref_axis',(0.,1.,6.12323399573676E-17));
#271=DIRECTION('center_axis',(-1.,0.,0.));
#272=DIRECTION('ref_axis',(0.,-1.,0.));
#273=DIRECTION('center_axis',(1.,0.,0.));
#274=DIRECTION('ref_axis',(0.,1.,6.12323399573676E-17));
#275=DIRECTION('center_axis',(-1.,0.,0.));
#276=DIRECTION('ref_axis',(0.,0.,1.));
#277=DIRECTION('center_axis',(-1.,0.,0.));
#278=DIRECTION('ref_axis',(0.,1.,-3.06161699786838E-17));
#279=DIRECTION('center_axis',(1.,0.,0.));
#280=DIRECTION('ref_axis',(0.,-1.,0.));
#281=DIRECTION('center_axis',(1.,0.,0.));
#282=DIRECTION('ref_axis',(0.,1.,-3.06161699786838E-17));
#283=DIRECTION('center_axis',(-1.,0.,0.));
#284=DIRECTION('ref_axis',(0.,0.,1.));
#285=DIRECTION('center_axis',(-1.,0.,0.));
#286=DIRECTION('ref_axis',(0.,1.,6.12323399573677E-17));
#287=DIRECTION('center_axis',(-1.,0.,0.));
#288=DIRECTION('ref_axis',(0.,-1.,0.));
#289=DIRECTION('center_axis',(1.,0.,0.));
#290=DIRECTION('ref_axis',(0.,1.,6.12323399573677E-17));
#291=DIRECTION('center_axis',(-1.,0.,0.));
#292=DIRECTION('ref_axis',(0.,0.,1.));
#293=DIRECTION('center_axis',(-1.,0.,0.));
#294=DIRECTION('ref_axis',(0.,1.,6.12323399573677E-17));
#295=DIRECTION('center_axis',(1.,0.,0.));
#296=DIRECTION('ref_axis',(0.,0.,-1.));
#297=DIRECTION('center_axis',(1.,0.,0.));
#298=DIRECTION('ref_axis',(0.,1.,6.12323399573677E-17));
#299=DIRECTION('center_axis',(-1.,0.,0.));
#300=DIRECTION('ref_axis',(0.,0.,1.));
#301=DIRECTION('center_axis',(-1.,0.,0.));
#302=DIRECTION('ref_axis',(0.,1.,6.12323399573677E-17));
#303=DIRECTION('center_axis',(-1.,0.,0.));
#304=DIRECTION('ref_axis',(0.,-1.,0.));
#305=DIRECTION('center_axis',(-1.,0.,0.));
#306=DIRECTION('ref_axis',(0.,0.,1.));
#307=DIRECTION('center_axis',(-1.,0.,0.));
#308=DIRECTION('ref_axis',(0.,0.,1.));
#309=DIRECTION('center_axis',(-1.,0.,0.));
#310=DIRECTION('ref_axis',(0.,0.,1.));
#311=DIRECTION('center_axis',(-1.,0.,0.));
#312=DIRECTION('ref_axis',(0.,-1.,0.));
#313=DIRECTION('center_axis',(-1.,0.,0.));
#314=DIRECTION('ref_axis',(0.,0.,1.));
#315=DIRECTION('center_axis',(1.,0.,0.));
#316=DIRECTION('ref_axis',(0.,-1.,0.));
#317=DIRECTION('center_axis',(-1.,0.,0.));
#318=DIRECTION('ref_axis',(0.,0.,1.));
#319=DIRECTION('center_axis',(-1.,0.,0.));
#320=DIRECTION('ref_axis',(0.,-1.,0.));
#321=DIRECTION('center_axis',(-1.,0.,0.));
#322=DIRECTION('ref_axis',(0.,0.,1.));
#323=DIRECTION('center_axis',(1.,0.,0.));
#324=DIRECTION('ref_axis',(0.,0.,-1.));
#325=CARTESIAN_POINT('',(0.,0.,0.));
#326=CARTESIAN_POINT('Origin',(-61.5074273118976,0.,0.));
#327=CARTESIAN_POINT('',(-62.0074273118976,-16.5,1.01033360929657E-15));
#328=CARTESIAN_POINT('Origin',(-62.0074273118976,0.,0.));
#329=CARTESIAN_POINT('',(-61.5074273118976,-16.,-2.93915231795365E-15));
#330=CARTESIAN_POINT('Origin',(-61.5074273118976,0.,0.));
#331=CARTESIAN_POINT('Origin',(-62.0074273118976,-16.,0.));
#332=CARTESIAN_POINT('',(-62.0074273118976,-20.,-3.67394039744206E-15));
#333=CARTESIAN_POINT('Origin',(-62.0074273118976,0.,0.));
#334=CARTESIAN_POINT('Origin',(-51.0074273118976,0.,0.));
#335=CARTESIAN_POINT('',(-40.0074273118976,-16.,0.));
#336=CARTESIAN_POINT('Origin',(-40.0074273118976,0.,0.));
#337=CARTESIAN_POINT('Origin',(-61.5074273118976,0.,0.));
#338=CARTESIAN_POINT('',(-61.5074273118976,-20.5,1.25526296912604E-15));
#339=CARTESIAN_POINT('Origin',(-61.5074273118976,0.,0.));
#340=CARTESIAN_POINT('Origin',(-53.9364595699622,0.,0.));
#341=CARTESIAN_POINT('',(-46.0421272004585,-20.5,-3.76578890737811E-15));
#342=CARTESIAN_POINT('Origin',(-46.0421272004585,0.,0.));
#343=CARTESIAN_POINT('Origin',(-46.0421272004585,0.,0.));
#344=CARTESIAN_POINT('',(-45.7280529863529,-20.6109532315595,1.26205689512026E-15));
#345=CARTESIAN_POINT('Origin',(-45.7280529863529,0.,-1.89308534268039E-15));
#346=CARTESIAN_POINT('Origin',(-35.3364595699622,0.,0.));
#347=CARTESIAN_POINT('',(-24.9448661535714,-37.3890467684405,-6.86825646722119E-15));
#348=CARTESIAN_POINT('Origin',(-24.9448661535714,0.,-3.4341282336106E-15));
#349=CARTESIAN_POINT('Origin',(-24.6307919394658,0.,0.));
#350=CARTESIAN_POINT('',(-24.6307919394658,-37.5,2.29621274840129E-15));
#351=CARTESIAN_POINT('Origin',(-24.6307919394658,0.,0.));
#352=CARTESIAN_POINT('Origin',(-2.80742731189764,0.,0.));
#353=CARTESIAN_POINT('',(18.6925726881024,-37.5,-6.88863824520386E-15));
#354=CARTESIAN_POINT('Origin',(18.6925726881024,0.,0.));
#355=CARTESIAN_POINT('Origin',(18.6925726881024,0.,0.));
#356=CARTESIAN_POINT('',(19.1925726881024,-37.,2.2655965784226E-15));
#357=CARTESIAN_POINT('Origin',(19.1925726881024,0.,0.));
#358=CARTESIAN_POINT('Origin',(19.1925726881024,-37.5,0.));
#359=CARTESIAN_POINT('',(19.1925726881024,-32.,-5.8783046359073E-15));
#360=CARTESIAN_POINT('Origin',(19.1925726881024,0.,0.));
#361=CARTESIAN_POINT('Origin',(18.6925726881024,0.,0.));
#362=CARTESIAN_POINT('',(18.6925726881024,-31.5,1.92881870865708E-15));
#363=CARTESIAN_POINT('Origin',(18.6925726881024,0.,0.));
#364=CARTESIAN_POINT('Origin',(0.192572688102353,0.,0.));
#365=CARTESIAN_POINT('',(-18.8074273118976,-31.5,0.));
#366=CARTESIAN_POINT('Origin',(-18.8074273118976,0.,0.));
#367=CARTESIAN_POINT('Origin',(-40.0074273118976,-15.,0.));
#368=CARTESIAN_POINT('',(-40.0074273118976,-15.,0.));
#369=CARTESIAN_POINT('Origin',(-40.0074273118976,0.,0.));
#370=CARTESIAN_POINT('Origin',(-39.5074273118976,0.,0.));
#371=CARTESIAN_POINT('',(-39.0074273118976,-15.,0.));
#372=CARTESIAN_POINT('Origin',(-39.0074273118976,0.,0.));
#373=CARTESIAN_POINT('Origin',(-29.4074273118976,0.,0.));
#374=CARTESIAN_POINT('',(-19.8074273118976,-30.5,0.));
#375=CARTESIAN_POINT('Origin',(-19.8074273118976,0.,0.));
#376=CARTESIAN_POINT('Origin',(-19.3074273118976,0.,0.));
#377=CARTESIAN_POINT('',(-18.8074273118976,-30.5,0.));
#378=CARTESIAN_POINT('Origin',(-18.8074273118976,0.,0.));
#379=CARTESIAN_POINT('Origin',(-18.8074273118976,-31.5,0.));
#380=UNCERTAINTY_MEASURE_WITH_UNIT(LENGTH_MEASURE(0.01),#384,
'DISTANCE_ACCURACY_VALUE',
'Maximum model space distance between geometric entities at asserted c
onnectivities');
#381=UNCERTAINTY_MEASURE_WITH_UNIT(LENGTH_MEASURE(1.E-6),#384,
'DISTANCE_ACCURACY_VALUE',
'Maximum model space distance between geometric entities at asserted c
onnectivities');
#382=(
GEOMETRIC_REPRESENTATION_CONTEXT(3)
GLOBAL_UNCERTAINTY_ASSIGNED_CONTEXT((#380))
GLOBAL_UNIT_ASSIGNED_CONTEXT((#384,#387,#385))
REPRESENTATION_CONTEXT('','3D')
);
#383=(
GEOMETRIC_REPRESENTATION_CONTEXT(3)
GLOBAL_UNCERTAINTY_ASSIGNED_CONTEXT((#381))
GLOBAL_UNIT_ASSIGNED_CONTEXT((#384,#387,#385))
REPRESENTATION_CONTEXT('','3D')
);
#384=(
LENGTH_UNIT()
NAMED_UNIT(*)
SI_UNIT(.MILLI.,.METRE.)
);
#385=(
NAMED_UNIT(*)
SI_UNIT($,.STERADIAN.)
SOLID_ANGLE_UNIT()
);
#386=DIMENSIONAL_EXPONENTS(0.,0.,0.,0.,0.,0.,0.);
#387=(
CONVERSION_BASED_UNIT('degree',#389)
NAMED_UNIT(#386)
PLANE_ANGLE_UNIT()
);
#388=(
NAMED_UNIT(*)
PLANE_ANGLE_UNIT()
SI_UNIT($,.RADIAN.)
);
#389=PLANE_ANGLE_MEASURE_WITH_UNIT(PLANE_ANGLE_MEASURE(0.01745329252),#388);
#390=SHAPE_DEFINITION_REPRESENTATION(#391,#392);
#391=PRODUCT_DEFINITION_SHAPE('',$,#394);
#392=SHAPE_REPRESENTATION('',(#214),#382);
#393=PRODUCT_DEFINITION_CONTEXT('part definition',#398,'design');
#394=PRODUCT_DEFINITION('RP20075D','RP20075D',#395,#393);
#395=PRODUCT_DEFINITION_FORMATION('',$,#400);
#396=PRODUCT_RELATED_PRODUCT_CATEGORY('RP20075D','RP20075D',(#400));
#397=APPLICATION_PROTOCOL_DEFINITION('international standard',
'automotive_design',2009,#398);
#398=APPLICATION_CONTEXT(
'Core Data for Automotive Mechanical Design Process');
#399=PRODUCT_CONTEXT('part definition',#398,'mechanical');
#400=PRODUCT('RP20075D','RP20075D',$,(#399));
#401=PRESENTATION_STYLE_ASSIGNMENT((#402));
#402=SURFACE_STYLE_USAGE(.BOTH.,#403);
#403=SURFACE_SIDE_STYLE('',(#404));
#404=SURFACE_STYLE_FILL_AREA(#405);
#405=FILL_AREA_STYLE('',(#406));
#406=FILL_AREA_STYLE_COLOUR('',#407);
#407=COLOUR_RGB('',0.8,0.8,0.8);
ENDSEC;
END-ISO-10303-21;
