ISO-10303-21;
HEADER;
/****************************************************************
 * Generated by software with PDElib inside                    *
 * PDElib Version v51a, created Wed 07/06/2011                  *
 * ITI Transcendata (http://www.transcendata.com/)              *
 ****************************************************************/
FILE_DESCRIPTION((''),'2;1');
FILE_NAME('V:\\Neue Zeichnungdateien ab Januar 2010\\Edelstahlprodukte\\Montagewinkel\\Step\\118773.stp','2011-10-18T10:11:14',('DMK009'),(''),'Autodesk Inventor 2012','Autodesk Inventor 2012','');
FILE_SCHEMA(('AUTOMOTIVE_DESIGN { 1 0 10303 214 1 1 1 1 }'));
ENDSEC;
DATA;
#5=APPLICATION_CONTEXT('automotive design');
#6=APPLICATION_PROTOCOL_DEFINITION('International Standard','automotive_design',2001,#5);
#7=PRODUCT_CONTEXT('',#5,'mechanical');
#8=PRODUCT('118773','118773',$,(#7));
#9=PRODUCT_RELATED_PRODUCT_CATEGORY('part',$,(#8));
#10=PRODUCT_DEFINITION_FORMATION('',$,#8);
#11=PRODUCT_DEFINITION_CONTEXT('part definition',#5,'design');
#12=PRODUCT_DEFINITION('',$,#10,#11);
#18=(NAMED_UNIT(*)PLANE_ANGLE_UNIT()SI_UNIT($,.RADIAN.));
#19=DIMENSIONAL_EXPONENTS(0.0,0.0,0.0,0.0,0.0,0.0,0.0);
#20=PLANE_ANGLE_MEASURE_WITH_UNIT(PLANE_ANGLE_MEASURE(0.0174532925),#18);
#24=(CONVERSION_BASED_UNIT('DEGREE',#20)NAMED_UNIT(#19)PLANE_ANGLE_UNIT());
#28=(NAMED_UNIT(*)SI_UNIT($,.STERADIAN.)SOLID_ANGLE_UNIT());
#32=(LENGTH_UNIT()NAMED_UNIT(*)SI_UNIT(.MILLI.,.METRE.));
#34=UNCERTAINTY_MEASURE_WITH_UNIT(LENGTH_MEASURE(0.01),#32,'DISTANCE_ACCURACY_VALUE','');
#36=(GEOMETRIC_REPRESENTATION_CONTEXT(3)GLOBAL_UNCERTAINTY_ASSIGNED_CONTEXT((#34))GLOBAL_UNIT_ASSIGNED_CONTEXT((#24,#28,#32))REPRESENTATION_CONTEXT('None','None'));
#37=AXIS2_PLACEMENT_3D('',#38,#39,#40);
#38=CARTESIAN_POINT('',(0.0,0.0,0.0));
#39=DIRECTION('',(0.0,0.0,1.0));
#40=DIRECTION('',(1.0,0.0,0.0));
#41=SHAPE_REPRESENTATION('',(#37),#36);
#42=PRODUCT_DEFINITION_SHAPE('','',#12);
#43=SHAPE_DEFINITION_REPRESENTATION(#42,#41);
#49=(NAMED_UNIT(*)PLANE_ANGLE_UNIT()SI_UNIT($,.RADIAN.));
#50=DIMENSIONAL_EXPONENTS(0.0,0.0,0.0,0.0,0.0,0.0,0.0);
#51=PLANE_ANGLE_MEASURE_WITH_UNIT(PLANE_ANGLE_MEASURE(0.0174532925),#49);
#55=(CONVERSION_BASED_UNIT('DEGREE',#51)NAMED_UNIT(#50)PLANE_ANGLE_UNIT());
#59=(NAMED_UNIT(*)SI_UNIT($,.STERADIAN.)SOLID_ANGLE_UNIT());
#63=(LENGTH_UNIT()NAMED_UNIT(*)SI_UNIT(.MILLI.,.METRE.));
#65=UNCERTAINTY_MEASURE_WITH_UNIT(LENGTH_MEASURE(0.000001),#63,'DISTANCE_ACCURACY_VALUE','');
#67=(GEOMETRIC_REPRESENTATION_CONTEXT(3)GLOBAL_UNCERTAINTY_ASSIGNED_CONTEXT((#65))GLOBAL_UNIT_ASSIGNED_CONTEXT((#55,#59,#63))REPRESENTATION_CONTEXT('','3D'));
#68=CARTESIAN_POINT('',(2.296837E-016,-75.0,0.0));
#69=DIRECTION('',(1.0,0.0,0.0));
#70=DIRECTION('',(0.0,-0.74535599249993,-0.666666666666667));
#71=AXIS2_PLACEMENT_3D('',#68,#69,#70);
#72=CYLINDRICAL_SURFACE('',#71,30.0);
#73=CARTESIAN_POINT('',(4.0,-97.360679774997891,20.0));
#74=VERTEX_POINT('',#73);
#75=CARTESIAN_POINT('',(4.0,-97.360679774997891,-20.0));
#76=VERTEX_POINT('',#75);
#77=CARTESIAN_POINT('',(4.000000000000001,-75.0,0.0));
#78=DIRECTION('',(1.0,0.0,0.0));
#79=DIRECTION('',(0.0,-0.74535599249993,-0.666666666666667));
#80=AXIS2_PLACEMENT_3D('',#77,#78,#79);
#81=CIRCLE('',#80,30.0);
#82=EDGE_CURVE('',#74,#76,#81,.T.);
#83=ORIENTED_EDGE('',*,*,#82,.F.);
#84=CARTESIAN_POINT('',(1.062401E-016,-97.360679774997891,20.0));
#85=VERTEX_POINT('',#84);
#86=CARTESIAN_POINT('',(1.062401E-016,-97.360679774997891,20.0));
#87=DIRECTION('',(1.0,0.0,0.0));
#88=VECTOR('',#87,4.0);
#89=LINE('',#86,#88);
#90=EDGE_CURVE('',#85,#74,#89,.T.);
#91=ORIENTED_EDGE('',*,*,#90,.F.);
#92=CARTESIAN_POINT('',(1.062401E-016,-97.360679774997891,-20.0));
#93=VERTEX_POINT('',#92);
#94=CARTESIAN_POINT('',(5.551115E-016,-75.0,0.0));
#95=DIRECTION('',(-1.0,0.0,0.0));
#96=DIRECTION('',(0.0,-0.74535599249993,-0.666666666666667));
#97=AXIS2_PLACEMENT_3D('',#94,#95,#96);
#98=CIRCLE('',#97,30.0);
#99=EDGE_CURVE('',#93,#85,#98,.T.);
#100=ORIENTED_EDGE('',*,*,#99,.F.);
#101=CARTESIAN_POINT('',(4.0,-97.360679774997891,-20.0));
#102=DIRECTION('',(-1.0,0.0,0.0));
#103=VECTOR('',#102,4.0);
#104=LINE('',#101,#103);
#105=EDGE_CURVE('',#76,#93,#104,.T.);
#106=ORIENTED_EDGE('',*,*,#105,.F.);
#107=EDGE_LOOP('',(#83,#91,#100,#106));
#108=FACE_OUTER_BOUND('',#107,.T.);
#109=ADVANCED_FACE('',(#108),#72,.T.);
#110=CARTESIAN_POINT('',(4.000000000000001,1.210184922184538,-20.0));
#111=DIRECTION('',(0.0,0.0,-1.0));
#112=DIRECTION('',(-1.0,0.0,0.0));
#113=AXIS2_PLACEMENT_3D('',#110,#111,#112);
#114=PLANE('',#113);
#115=ORIENTED_EDGE('',*,*,#105,.T.);
#116=CARTESIAN_POINT('',(5.551115E-016,-3.313708498984766,-20.0));
#117=VERTEX_POINT('',#116);
#118=CARTESIAN_POINT('',(5.551115E-016,-97.360679774997891,-20.0));
#119=DIRECTION('',(0.0,1.0,0.0));
#120=VECTOR('',#119,94.046971276013124);
#121=LINE('',#118,#120);
#122=EDGE_CURVE('',#93,#117,#121,.T.);
#123=ORIENTED_EDGE('',*,*,#122,.T.);
#124=CARTESIAN_POINT('',(4.0,-3.313708498984767,-20.0));
#125=VERTEX_POINT('',#124);
#126=CARTESIAN_POINT('',(4.0,-3.313708498984766,-20.0));
#127=DIRECTION('',(-1.0,0.0,0.0));
#128=VECTOR('',#127,4.0);
#129=LINE('',#126,#128);
#130=EDGE_CURVE('',#125,#117,#129,.T.);
#131=ORIENTED_EDGE('',*,*,#130,.F.);
#132=CARTESIAN_POINT('',(4.0,-97.360679774997891,-20.0));
#133=DIRECTION('',(0.0,1.0,0.0));
#134=VECTOR('',#133,94.046971276013124);
#135=LINE('',#132,#134);
#136=EDGE_CURVE('',#76,#125,#135,.T.);
#137=ORIENTED_EDGE('',*,*,#136,.F.);
#138=EDGE_LOOP('',(#115,#123,#131,#137));
#139=FACE_OUTER_BOUND('',#138,.T.);
#140=ADVANCED_FACE('',(#139),#114,.T.);
#141=CARTESIAN_POINT('',(5.551115E-016,-16.05176178840011,0.0));
#142=DIRECTION('',(1.0,0.0,0.0));
#143=DIRECTION('',(0.0,0.0,-1.0));
#144=AXIS2_PLACEMENT_3D('',#141,#142,#143);
#145=PLANE('',#144);
#146=ORIENTED_EDGE('',*,*,#99,.T.);
#147=CARTESIAN_POINT('',(0.0,-3.313708498984767,20.0));
#148=VERTEX_POINT('',#147);
#149=CARTESIAN_POINT('',(0.0,-3.313708498984767,20.0));
#150=DIRECTION('',(0.0,-1.0,0.0));
#151=VECTOR('',#150,94.046971276013124);
#152=LINE('',#149,#151);
#153=EDGE_CURVE('',#148,#85,#152,.T.);
#154=ORIENTED_EDGE('',*,*,#153,.F.);
#155=CARTESIAN_POINT('',(6.938894E-016,-3.313708498984767,-20.0));
#156=DIRECTION('',(0.0,0.0,1.0));
#157=VECTOR('',#156,40.0);
#158=LINE('',#155,#157);
#159=EDGE_CURVE('',#117,#148,#158,.T.);
#160=ORIENTED_EDGE('',*,*,#159,.F.);
#161=ORIENTED_EDGE('',*,*,#122,.F.);
#162=EDGE_LOOP('',(#146,#154,#160,#161));
#163=FACE_OUTER_BOUND('',#162,.T.);
#164=CARTESIAN_POINT('',(-3.036313E-017,-95.5,-6.735557E-016));
#165=VERTEX_POINT('',#164);
#166=CARTESIAN_POINT('',(0.0,-90.0,1.027627E-033));
#167=DIRECTION('',(1.0,0.0,0.0));
#168=DIRECTION('',(0.0,1.0,0.0));
#169=AXIS2_PLACEMENT_3D('',#166,#167,#168);
#170=CIRCLE('',#169,5.5);
#171=EDGE_CURVE('',#165,#165,#170,.T.);
#172=ORIENTED_EDGE('',*,*,#171,.T.);
#173=EDGE_LOOP('',(#172));
#174=FACE_BOUND('',#173,.T.);
#175=CARTESIAN_POINT('',(-3.036313E-017,-55.5,-6.735557E-016));
#176=VERTEX_POINT('',#175);
#177=CARTESIAN_POINT('',(0.0,-50.0,1.027627E-033));
#178=DIRECTION('',(1.0,0.0,0.0));
#179=DIRECTION('',(0.0,1.0,0.0));
#180=AXIS2_PLACEMENT_3D('',#177,#178,#179);
#181=CIRCLE('',#180,5.5);
#182=EDGE_CURVE('',#176,#176,#181,.T.);
#183=ORIENTED_EDGE('',*,*,#182,.T.);
#184=EDGE_LOOP('',(#183));
#185=FACE_BOUND('',#184,.T.);
#186=ADVANCED_FACE('',(#163,#174,#185),#145,.F.);
#187=CARTESIAN_POINT('',(31.819805153394661,31.819805153394647,0.0));
#188=DIRECTION('',(0.707106781186547,-0.707106781186548,0.0));
#189=DIRECTION('',(0.52704627669473,0.52704627669473,0.666666666666667));
#190=AXIS2_PLACEMENT_3D('',#187,#188,#189);
#191=CYLINDRICAL_SURFACE('',#190,30.000000000000004);
#192=CARTESIAN_POINT('',(50.459620578982758,44.802766329490346,-20.0));
#193=VERTEX_POINT('',#192);
#194=CARTESIAN_POINT('',(50.459620578982758,44.802766329490346,20.0));
#195=VERTEX_POINT('',#194);
#196=CARTESIAN_POINT('',(34.64823227814086,28.991378028648445,0.0));
#197=DIRECTION('',(0.707106781186547,-0.707106781186548,-5.551115E-017));
#198=DIRECTION('',(0.52704627669473,0.52704627669473,0.666666666666667));
#199=AXIS2_PLACEMENT_3D('',#196,#197,#198);
#200=CIRCLE('',#199,30.000000000000004);
#201=EDGE_CURVE('',#193,#195,#200,.T.);
#202=ORIENTED_EDGE('',*,*,#201,.F.);
#203=CARTESIAN_POINT('',(47.631193454236566,47.631193454236538,-20.0));
#204=VERTEX_POINT('',#203);
#205=CARTESIAN_POINT('',(47.631193454236573,47.631193454236545,-20.0));
#206=DIRECTION('',(0.707106781186548,-0.707106781186548,0.0));
#207=VECTOR('',#206,4.000000000000002);
#208=LINE('',#205,#207);
#209=EDGE_CURVE('',#204,#193,#208,.T.);
#210=ORIENTED_EDGE('',*,*,#209,.F.);
#211=CARTESIAN_POINT('',(47.631193454236566,47.631193454236538,20.0));
#212=VERTEX_POINT('',#211);
#213=CARTESIAN_POINT('',(31.819805153394665,31.819805153394643,0.0));
#214=DIRECTION('',(-0.707106781186547,0.707106781186548,5.551115E-017));
#215=DIRECTION('',(0.52704627669473,0.52704627669473,0.666666666666667));
#216=AXIS2_PLACEMENT_3D('',#213,#214,#215);
#217=CIRCLE('',#216,30.000000000000004);
#218=EDGE_CURVE('',#212,#204,#217,.T.);
#219=ORIENTED_EDGE('',*,*,#218,.F.);
#220=CARTESIAN_POINT('',(50.459620578982765,44.802766329490353,20.0));
#221=DIRECTION('',(-0.707106781186548,0.707106781186548,0.0));
#222=VECTOR('',#221,4.000000000000002);
#223=LINE('',#220,#222);
#224=EDGE_CURVE('',#195,#212,#223,.T.);
#225=ORIENTED_EDGE('',*,*,#224,.F.);
#226=EDGE_LOOP('',(#202,#210,#219,#225));
#227=FACE_OUTER_BOUND('',#226,.T.);
#228=ADVANCED_FACE('',(#227),#191,.T.);
#229=CARTESIAN_POINT('',(-9.862893825027605,-9.862893825027603,0.0));
#230=DIRECTION('',(0.707106781186547,-0.707106781186548,-3.670097E-035));
#231=DIRECTION('',(0.0,0.0,-1.0));
#232=AXIS2_PLACEMENT_3D('',#229,#230,#231);
#233=PLANE('',#232);
#234=ORIENTED_EDGE('',*,*,#218,.T.);
#235=CARTESIAN_POINT('',(2.343145750507622,2.343145750507616,-20.0));
#236=VERTEX_POINT('',#235);
#237=CARTESIAN_POINT('',(2.343145750507622,2.343145750507616,-20.0));
#238=DIRECTION('',(0.707106781186548,0.707106781186547,0.0));
#239=VECTOR('',#238,64.046971276013167);
#240=LINE('',#237,#239);
#241=EDGE_CURVE('',#236,#204,#240,.T.);
#242=ORIENTED_EDGE('',*,*,#241,.F.);
#243=CARTESIAN_POINT('',(2.343145750507621,2.343145750507616,20.0));
#244=VERTEX_POINT('',#243);
#245=CARTESIAN_POINT('',(2.343145750507622,2.343145750507616,-20.0));
#246=DIRECTION('',(0.0,0.0,1.0));
#247=VECTOR('',#246,40.0);
#248=LINE('',#245,#247);
#249=EDGE_CURVE('',#236,#244,#248,.T.);
#250=ORIENTED_EDGE('',*,*,#249,.T.);
#251=CARTESIAN_POINT('',(47.63119345423658,47.631193454236552,20.0));
#252=DIRECTION('',(-0.707106781186548,-0.707106781186547,0.0));
#253=VECTOR('',#252,64.046971276013167);
#254=LINE('',#251,#253);
#255=EDGE_CURVE('',#212,#244,#254,.T.);
#256=ORIENTED_EDGE('',*,*,#255,.F.);
#257=EDGE_LOOP('',(#234,#242,#250,#256));
#258=FACE_OUTER_BOUND('',#257,.T.);
#259=CARTESIAN_POINT('',(38.537319574666896,38.53731957466681,-6.735557E-016));
#260=VERTEX_POINT('',#259);
#261=CARTESIAN_POINT('',(42.42640687119291,42.426406871192825,1.027627E-033));
#262=DIRECTION('',(0.707106781186547,-0.707106781186548,-3.670097E-035));
#263=DIRECTION('',(0.707106781186548,0.707106781186547,0.0));
#264=AXIS2_PLACEMENT_3D('',#261,#262,#263);
#265=CIRCLE('',#264,5.500000000000001);
#266=EDGE_CURVE('',#260,#260,#265,.T.);
#267=ORIENTED_EDGE('',*,*,#266,.T.);
#268=EDGE_LOOP('',(#267));
#269=FACE_BOUND('',#268,.T.);
#270=CARTESIAN_POINT('',(10.253048327204981,10.253048327204947,-6.735557E-016));
#271=VERTEX_POINT('',#270);
#272=CARTESIAN_POINT('',(14.142135623730994,14.142135623730958,1.027627E-033));
#273=DIRECTION('',(0.707106781186547,-0.707106781186548,-3.670097E-035));
#274=DIRECTION('',(0.707106781186548,0.707106781186547,0.0));
#275=AXIS2_PLACEMENT_3D('',#272,#273,#274);
#276=CIRCLE('',#275,5.500000000000001);
#277=EDGE_CURVE('',#271,#271,#276,.T.);
#278=ORIENTED_EDGE('',*,*,#277,.T.);
#279=EDGE_LOOP('',(#278));
#280=FACE_BOUND('',#279,.T.);
#281=ADVANCED_FACE('',(#258,#269,#280),#233,.F.);
#282=CARTESIAN_POINT('',(5.171572875253812,-0.485281374238575,-20.0));
#283=DIRECTION('',(0.0,0.0,-1.0));
#284=DIRECTION('',(-0.707106781186547,0.707106781186548,0.0));
#285=AXIS2_PLACEMENT_3D('',#282,#283,#284);
#286=PLANE('',#285);
#287=ORIENTED_EDGE('',*,*,#209,.T.);
#288=CARTESIAN_POINT('',(5.171572875253812,-0.485281374238575,-20.0));
#289=VERTEX_POINT('',#288);
#290=CARTESIAN_POINT('',(5.17157287525383,-0.485281374238554,-20.0));
#291=DIRECTION('',(0.707106781186548,0.707106781186547,0.0));
#292=VECTOR('',#291,64.046971276013167);
#293=LINE('',#290,#292);
#294=EDGE_CURVE('',#289,#193,#293,.T.);
#295=ORIENTED_EDGE('',*,*,#294,.F.);
#296=CARTESIAN_POINT('',(5.171572875253811,-0.485281374238575,-20.0));
#297=DIRECTION('',(-0.707106781186547,0.707106781186548,0.0));
#298=VECTOR('',#297,4.000000000000001);
#299=LINE('',#296,#298);
#300=EDGE_CURVE('',#289,#236,#299,.T.);
#301=ORIENTED_EDGE('',*,*,#300,.T.);
#302=ORIENTED_EDGE('',*,*,#241,.T.);
#303=EDGE_LOOP('',(#287,#295,#301,#302));
#304=FACE_OUTER_BOUND('',#303,.T.);
#305=ADVANCED_FACE('',(#304),#286,.T.);
#306=CARTESIAN_POINT('',(-104.87961534677248,133.1638865942345,4.427074E-032));
#307=DIRECTION('',(0.707106781186547,-0.707106781186548,-2.569068E-034));
#308=DIRECTION('',(0.707106781186548,0.707106781186547,0.0));
#309=AXIS2_PLACEMENT_3D('',#306,#307,#308);
#310=CYLINDRICAL_SURFACE('',#309,5.500000000000001);
#311=ORIENTED_EDGE('',*,*,#277,.F.);
#312=EDGE_LOOP('',(#311));
#313=FACE_OUTER_BOUND('',#312,.T.);
#314=CARTESIAN_POINT('',(20.859650045003185,15.202795795510786,0.0));
#315=VERTEX_POINT('',#314);
#316=CARTESIAN_POINT('',(16.970562748477196,11.313708498984756,-1.368456E-047));
#317=DIRECTION('',(-0.707106781186547,0.707106781186548,2.569068E-034));
#318=DIRECTION('',(0.707106781186548,0.707106781186547,0.0));
#319=AXIS2_PLACEMENT_3D('',#316,#317,#318);
#320=CIRCLE('',#319,5.500000000000001);
#321=EDGE_CURVE('',#315,#315,#320,.T.);
#322=ORIENTED_EDGE('',*,*,#321,.F.);
#323=EDGE_LOOP('',(#322));
#324=FACE_BOUND('',#323,.T.);
#325=ADVANCED_FACE('',(#313,#324),#310,.F.);
#326=CARTESIAN_POINT('',(-76.59534409931058,161.4481578416964,4.427074E-032));
#327=DIRECTION('',(0.707106781186547,-0.707106781186548,-2.569068E-034));
#328=DIRECTION('',(0.707106781186548,0.707106781186547,0.0));
#329=AXIS2_PLACEMENT_3D('',#326,#327,#328);
#330=CYLINDRICAL_SURFACE('',#329,5.500000000000001);
#331=ORIENTED_EDGE('',*,*,#266,.F.);
#332=EDGE_LOOP('',(#331));
#333=FACE_OUTER_BOUND('',#332,.T.);
#334=CARTESIAN_POINT('',(49.143921292465087,43.487067042972683,0.0));
#335=VERTEX_POINT('',#334);
#336=CARTESIAN_POINT('',(45.254833995939094,39.597979746446654,-1.368456E-047));
#337=DIRECTION('',(-0.707106781186547,0.707106781186548,2.569068E-034));
#338=DIRECTION('',(0.707106781186548,0.707106781186547,0.0));
#339=AXIS2_PLACEMENT_3D('',#336,#337,#338);
#340=CIRCLE('',#339,5.500000000000001);
#341=EDGE_CURVE('',#335,#335,#340,.T.);
#342=ORIENTED_EDGE('',*,*,#341,.F.);
#343=EDGE_LOOP('',(#342));
#344=FACE_BOUND('',#343,.T.);
#345=ADVANCED_FACE('',(#333,#344),#330,.F.);
#346=CARTESIAN_POINT('',(-168.32217443987915,-50.0,4.427074E-032));
#347=DIRECTION('',(1.0,-5.520568E-018,-2.569068E-034));
#348=DIRECTION('',(0.0,1.0,0.0));
#349=AXIS2_PLACEMENT_3D('',#346,#347,#348);
#350=CYLINDRICAL_SURFACE('',#349,5.5);
#351=ORIENTED_EDGE('',*,*,#182,.F.);
#352=EDGE_LOOP('',(#351));
#353=FACE_OUTER_BOUND('',#352,.T.);
#354=CARTESIAN_POINT('',(4.000000000000001,-44.5,0.0));
#355=VERTEX_POINT('',#354);
#356=CARTESIAN_POINT('',(3.999999999999986,-50.0,0.0));
#357=DIRECTION('',(-1.0,0.0,0.0));
#358=DIRECTION('',(0.0,1.0,0.0));
#359=AXIS2_PLACEMENT_3D('',#356,#357,#358);
#360=CIRCLE('',#359,5.5);
#361=EDGE_CURVE('',#355,#355,#360,.T.);
#362=ORIENTED_EDGE('',*,*,#361,.F.);
#363=EDGE_LOOP('',(#362));
#364=FACE_BOUND('',#363,.T.);
#365=ADVANCED_FACE('',(#353,#364),#350,.F.);
#366=CARTESIAN_POINT('',(-168.32217443987915,-90.0,4.427074E-032));
#367=DIRECTION('',(1.0,-5.520568E-018,-2.569068E-034));
#368=DIRECTION('',(0.0,1.0,0.0));
#369=AXIS2_PLACEMENT_3D('',#366,#367,#368);
#370=CYLINDRICAL_SURFACE('',#369,5.5);
#371=ORIENTED_EDGE('',*,*,#171,.F.);
#372=EDGE_LOOP('',(#371));
#373=FACE_OUTER_BOUND('',#372,.T.);
#374=CARTESIAN_POINT('',(4.0,-84.5,0.0));
#375=VERTEX_POINT('',#374);
#376=CARTESIAN_POINT('',(3.999999999999986,-90.0,0.0));
#377=DIRECTION('',(-1.0,0.0,0.0));
#378=DIRECTION('',(0.0,1.0,0.0));
#379=AXIS2_PLACEMENT_3D('',#376,#377,#378);
#380=CIRCLE('',#379,5.5);
#381=EDGE_CURVE('',#375,#375,#380,.T.);
#382=ORIENTED_EDGE('',*,*,#381,.F.);
#383=EDGE_LOOP('',(#382));
#384=FACE_BOUND('',#383,.T.);
#385=ADVANCED_FACE('',(#373,#384),#370,.F.);
#386=CARTESIAN_POINT('',(8.0,-3.313708498984766,20.0));
#387=DIRECTION('',(0.0,0.0,-1.0));
#388=DIRECTION('',(-0.707106781186547,0.707106781186548,0.0));
#389=AXIS2_PLACEMENT_3D('',#386,#387,#388);
#390=CYLINDRICAL_SURFACE('',#389,4.0);
#391=CARTESIAN_POINT('',(5.171572875253812,-0.485281374238575,20.0));
#392=VERTEX_POINT('',#391);
#393=CARTESIAN_POINT('',(5.171572875253812,-0.485281374238575,20.0));
#394=DIRECTION('',(0.0,0.0,-1.0));
#395=VECTOR('',#394,40.0);
#396=LINE('',#393,#395);
#397=EDGE_CURVE('',#392,#289,#396,.T.);
#398=ORIENTED_EDGE('',*,*,#397,.F.);
#399=CARTESIAN_POINT('',(4.0,-3.313708498984767,20.0));
#400=VERTEX_POINT('',#399);
#401=CARTESIAN_POINT('',(8.0,-3.313708498984766,20.0));
#402=DIRECTION('',(0.0,0.0,-1.0));
#403=DIRECTION('',(-1.0,0.0,0.0));
#404=AXIS2_PLACEMENT_3D('',#401,#402,#403);
#405=CIRCLE('',#404,4.0);
#406=EDGE_CURVE('',#400,#392,#405,.T.);
#407=ORIENTED_EDGE('',*,*,#406,.F.);
#408=CARTESIAN_POINT('',(4.000000000000001,-3.313708498984767,20.0));
#409=DIRECTION('',(0.0,0.0,-1.0));
#410=VECTOR('',#409,40.0);
#411=LINE('',#408,#410);
#412=EDGE_CURVE('',#400,#125,#411,.T.);
#413=ORIENTED_EDGE('',*,*,#412,.T.);
#414=CARTESIAN_POINT('',(8.0,-3.313708498984766,-20.0));
#415=DIRECTION('',(0.0,0.0,-1.0));
#416=DIRECTION('',(-1.0,0.0,0.0));
#417=AXIS2_PLACEMENT_3D('',#414,#415,#416);
#418=CIRCLE('',#417,4.0);
#419=EDGE_CURVE('',#125,#289,#418,.T.);
#420=ORIENTED_EDGE('',*,*,#419,.T.);
#421=EDGE_LOOP('',(#398,#407,#413,#420));
#422=FACE_OUTER_BOUND('',#421,.T.);
#423=ADVANCED_FACE('',(#422),#390,.F.);
#424=CARTESIAN_POINT('',(2.343145750507621,2.343145750507615,20.0));
#425=DIRECTION('',(0.0,0.0,1.0));
#426=DIRECTION('',(1.0,0.0,0.0));
#427=AXIS2_PLACEMENT_3D('',#424,#425,#426);
#428=PLANE('',#427);
#429=CARTESIAN_POINT('',(2.343145750507621,2.343145750507617,20.0));
#430=DIRECTION('',(0.707106781186547,-0.707106781186548,0.0));
#431=VECTOR('',#430,4.000000000000001);
#432=LINE('',#429,#431);
#433=EDGE_CURVE('',#244,#392,#432,.T.);
#434=ORIENTED_EDGE('',*,*,#433,.F.);
#435=CARTESIAN_POINT('',(8.0,-3.313708498984766,20.0));
#436=DIRECTION('',(0.0,0.0,1.0));
#437=DIRECTION('',(-0.707106781186547,0.707106781186548,0.0));
#438=AXIS2_PLACEMENT_3D('',#435,#436,#437);
#439=CIRCLE('',#438,8.0);
#440=EDGE_CURVE('',#244,#148,#439,.T.);
#441=ORIENTED_EDGE('',*,*,#440,.T.);
#442=CARTESIAN_POINT('',(0.0,-3.313708498984767,20.0));
#443=DIRECTION('',(1.0,0.0,0.0));
#444=VECTOR('',#443,4.0);
#445=LINE('',#442,#444);
#446=EDGE_CURVE('',#148,#400,#445,.T.);
#447=ORIENTED_EDGE('',*,*,#446,.T.);
#448=ORIENTED_EDGE('',*,*,#406,.T.);
#449=EDGE_LOOP('',(#434,#441,#447,#448));
#450=FACE_OUTER_BOUND('',#449,.T.);
#451=ADVANCED_FACE('',(#450),#428,.T.);
#452=CARTESIAN_POINT('',(1.972697159779784,-3.6841570897126,20.0));
#453=DIRECTION('',(0.0,0.0,1.0));
#454=DIRECTION('',(0.707106781186547,-0.707106781186548,0.0));
#455=AXIS2_PLACEMENT_3D('',#452,#453,#454);
#456=PLANE('',#455);
#457=ORIENTED_EDGE('',*,*,#224,.T.);
#458=ORIENTED_EDGE('',*,*,#255,.T.);
#459=ORIENTED_EDGE('',*,*,#433,.T.);
#460=CARTESIAN_POINT('',(5.17157287525383,-0.485281374238554,20.0));
#461=DIRECTION('',(0.707106781186548,0.707106781186547,0.0));
#462=VECTOR('',#461,64.046971276013167);
#463=LINE('',#460,#462);
#464=EDGE_CURVE('',#392,#195,#463,.T.);
#465=ORIENTED_EDGE('',*,*,#464,.T.);
#466=EDGE_LOOP('',(#457,#458,#459,#465));
#467=FACE_OUTER_BOUND('',#466,.T.);
#468=ADVANCED_FACE('',(#467),#456,.T.);
#469=CARTESIAN_POINT('',(-7.034466700281415,-12.691320949773795,0.0));
#470=DIRECTION('',(0.707106781186547,-0.707106781186548,-2.569068E-034));
#471=DIRECTION('',(0.0,0.0,-1.0));
#472=AXIS2_PLACEMENT_3D('',#469,#470,#471);
#473=PLANE('',#472);
#474=ORIENTED_EDGE('',*,*,#201,.T.);
#475=ORIENTED_EDGE('',*,*,#464,.F.);
#476=ORIENTED_EDGE('',*,*,#397,.T.);
#477=ORIENTED_EDGE('',*,*,#294,.T.);
#478=EDGE_LOOP('',(#474,#475,#476,#477));
#479=FACE_OUTER_BOUND('',#478,.T.);
#480=ORIENTED_EDGE('',*,*,#321,.T.);
#481=EDGE_LOOP('',(#480));
#482=FACE_BOUND('',#481,.T.);
#483=ORIENTED_EDGE('',*,*,#341,.T.);
#484=EDGE_LOOP('',(#483));
#485=FACE_BOUND('',#484,.T.);
#486=ADVANCED_FACE('',(#479,#482,#485),#473,.T.);
#487=CARTESIAN_POINT('',(4.0,-3.313708498984767,20.0));
#488=DIRECTION('',(0.0,0.0,1.0));
#489=DIRECTION('',(1.0,0.0,0.0));
#490=AXIS2_PLACEMENT_3D('',#487,#488,#489);
#491=PLANE('',#490);
#492=ORIENTED_EDGE('',*,*,#90,.T.);
#493=CARTESIAN_POINT('',(4.0,-97.360679774997891,20.0));
#494=DIRECTION('',(0.0,1.0,0.0));
#495=VECTOR('',#494,94.046971276013124);
#496=LINE('',#493,#495);
#497=EDGE_CURVE('',#74,#400,#496,.T.);
#498=ORIENTED_EDGE('',*,*,#497,.T.);
#499=ORIENTED_EDGE('',*,*,#446,.F.);
#500=ORIENTED_EDGE('',*,*,#153,.T.);
#501=EDGE_LOOP('',(#492,#498,#499,#500));
#502=FACE_OUTER_BOUND('',#501,.T.);
#503=ADVANCED_FACE('',(#502),#491,.T.);
#504=CARTESIAN_POINT('',(5.171572875253812,-0.485281374238575,-20.0));
#505=DIRECTION('',(0.0,0.0,-1.0));
#506=DIRECTION('',(-1.0,0.0,0.0));
#507=AXIS2_PLACEMENT_3D('',#504,#505,#506);
#508=PLANE('',#507);
#509=ORIENTED_EDGE('',*,*,#300,.F.);
#510=ORIENTED_EDGE('',*,*,#419,.F.);
#511=ORIENTED_EDGE('',*,*,#130,.T.);
#512=CARTESIAN_POINT('',(8.0,-3.313708498984766,-20.0));
#513=DIRECTION('',(0.0,0.0,-1.0));
#514=DIRECTION('',(-1.0,0.0,0.0));
#515=AXIS2_PLACEMENT_3D('',#512,#513,#514);
#516=CIRCLE('',#515,8.0);
#517=EDGE_CURVE('',#117,#236,#516,.T.);
#518=ORIENTED_EDGE('',*,*,#517,.T.);
#519=EDGE_LOOP('',(#509,#510,#511,#518));
#520=FACE_OUTER_BOUND('',#519,.T.);
#521=ADVANCED_FACE('',(#520),#508,.T.);
#522=CARTESIAN_POINT('',(8.0,-3.313708498984766,-20.0));
#523=DIRECTION('',(0.0,0.0,-1.0));
#524=DIRECTION('',(-0.707106781186547,0.707106781186548,0.0));
#525=AXIS2_PLACEMENT_3D('',#522,#523,#524);
#526=CYLINDRICAL_SURFACE('',#525,7.999999999999999);
#527=ORIENTED_EDGE('',*,*,#249,.F.);
#528=ORIENTED_EDGE('',*,*,#517,.F.);
#529=ORIENTED_EDGE('',*,*,#159,.T.);
#530=ORIENTED_EDGE('',*,*,#440,.F.);
#531=EDGE_LOOP('',(#527,#528,#529,#530));
#532=FACE_OUTER_BOUND('',#531,.T.);
#533=ADVANCED_FACE('',(#532),#526,.T.);
#534=CARTESIAN_POINT('',(4.000000000000001,-16.05176178840011,0.0));
#535=DIRECTION('',(1.0,0.0,0.0));
#536=DIRECTION('',(0.0,0.0,-1.0));
#537=AXIS2_PLACEMENT_3D('',#534,#535,#536);
#538=PLANE('',#537);
#539=ORIENTED_EDGE('',*,*,#82,.T.);
#540=ORIENTED_EDGE('',*,*,#136,.T.);
#541=ORIENTED_EDGE('',*,*,#412,.F.);
#542=ORIENTED_EDGE('',*,*,#497,.F.);
#543=EDGE_LOOP('',(#539,#540,#541,#542));
#544=FACE_OUTER_BOUND('',#543,.T.);
#545=ORIENTED_EDGE('',*,*,#361,.T.);
#546=EDGE_LOOP('',(#545));
#547=FACE_BOUND('',#546,.T.);
#548=ORIENTED_EDGE('',*,*,#381,.T.);
#549=EDGE_LOOP('',(#548));
#550=FACE_BOUND('',#549,.T.);
#551=ADVANCED_FACE('',(#544,#547,#550),#538,.T.);
#552=CLOSED_SHELL('',(#109,#140,#186,#228,#281,#305,#325,#345,#365,#385,#423,#451,#468,#486,#503,#521,#533,#551));
#553=MANIFOLD_SOLID_BREP('Volumenk\S\vrper1',#552);
#554=COLOUR_RGB('Standard',0.752941012382507,0.752941012382507,0.752941012382507);
#555=FILL_AREA_STYLE_COLOUR('Standard',#554);
#556=FILL_AREA_STYLE('Standard',(#555));
#557=SURFACE_STYLE_FILL_AREA(#556);
#558=SURFACE_SIDE_STYLE('Standard',(#557));
#559=SURFACE_STYLE_USAGE(.BOTH.,#558);
#560=PRESENTATION_STYLE_ASSIGNMENT((#559));
#561=STYLED_ITEM('',(#560),#553);
#562=MECHANICAL_DESIGN_GEOMETRIC_PRESENTATION_REPRESENTATION('',(#561),#36);
#563=ADVANCED_BREP_SHAPE_REPRESENTATION('ABSR',(#553),#36);
#564=SHAPE_REPRESENTATION_RELATIONSHIP('SRR','None',#563,#41);
ENDSEC;
END-ISO-10303-21;
