ISO-10303-21;
HEADER;
/* Generated by software containing ST-Developer
 * from STEP Tools, Inc. (www.steptools.com) 
 */

FILE_DESCRIPTION(
/* description */ (''),
/* implementation_level */ '2;1');

FILE_NAME(
/* name */ 
'Q:\\Ric010\\FF7\\FIPlastiCAD\\FIP\\Lavoro\\PVC Fittings\\PVC Fittings
 STEP\\PFV\\PFV300.ipt.stp',
/* time_stamp */ '2013-10-01T14:50:44+02:00',
/* author */ ('bfaro'),
/* organization */ (''),
/* preprocessor_version */ 'ST-DEVELOPER v15.2',
/* originating_system */ 'Autodesk Inventor 2014',
/* authorisation */ '');

FILE_SCHEMA (('AUTOMOTIVE_DESIGN { 1 0 10303 214 3 1 1 }'));
ENDSEC;

DATA;
#10=SHAPE_REPRESENTATION_RELATIONSHIP('SRR','None',#462,#11);
#11=ADVANCED_BREP_SHAPE_REPRESENTATION($,(#255),#453);
#12=LINE($,#414,#30);
#13=LINE($,#416,#31);
#14=LINE($,#418,#32);
#15=LINE($,#419,#33);
#16=LINE($,#422,#34);
#17=LINE($,#424,#35);
#18=LINE($,#425,#36);
#19=LINE($,#428,#37);
#20=LINE($,#430,#38);
#21=LINE($,#431,#39);
#22=LINE($,#434,#40);
#23=LINE($,#436,#41);
#24=LINE($,#437,#42);
#25=LINE($,#440,#43);
#26=LINE($,#442,#44);
#27=LINE($,#443,#45);
#28=LINE($,#445,#46);
#29=LINE($,#446,#47);
#30=VECTOR($,#317,53.6935750346352);
#31=VECTOR($,#318,15.);
#32=VECTOR($,#319,53.6935750346352);
#33=VECTOR($,#320,15.);
#34=VECTOR($,#323,53.6935750346352);
#35=VECTOR($,#324,15.);
#36=VECTOR($,#325,53.6935750346352);
#37=VECTOR($,#328,53.6935750346352);
#38=VECTOR($,#329,15.);
#39=VECTOR($,#330,53.6935750346352);
#40=VECTOR($,#333,53.6935750346352);
#41=VECTOR($,#334,15.);
#42=VECTOR($,#335,53.6935750346352);
#43=VECTOR($,#338,53.6935750346352);
#44=VECTOR($,#339,15.);
#45=VECTOR($,#340,53.6935750346352);
#46=VECTOR($,#343,53.6935750346352);
#47=VECTOR($,#344,53.6935750346352);
#48=PLANE($,#271);
#49=PLANE($,#272);
#50=PLANE($,#273);
#51=PLANE($,#274);
#52=PLANE($,#275);
#53=PLANE($,#276);
#54=PLANE($,#277);
#55=PLANE($,#278);
#56=PLANE($,#279);
#57=PLANE($,#280);
#58=PLANE($,#281);
#59=PLANE($,#282);
#60=SPHERICAL_SURFACE($,#269,157.946428571445);
#61=(
BOUNDED_CURVE()
B_SPLINE_CURVE(2,(#401,#402,#403),.UNSPECIFIED.,.F.,.F.)
B_SPLINE_CURVE_WITH_KNOTS((3,3),(1.49981745738254,1.50118503387011),
 .UNSPECIFIED.)
CURVE()
GEOMETRIC_REPRESENTATION_ITEM()
RATIONAL_B_SPLINE_CURVE((1.,0.999999766216828,1.))
REPRESENTATION_ITEM($)
);
#62=(
BOUNDED_SURFACE()
B_SPLINE_SURFACE(2,2,((#371,#372,#373,#374,#375,#376,#377,#378,#379),(#380,
#381,#382,#383,#384,#385,#386,#387,#388),(#389,#390,#391,#392,#393,#394,
#395,#396,#397)),.UNSPECIFIED.,.F.,.T.,.F.)
B_SPLINE_SURFACE_WITH_KNOTS((3,3),(3,2,2,2,3),(-1.50118503387011,-1.49981745738254),
(-3.14159265358979,-1.5707963267949,0.,1.5707963267949,3.14159265358979),
 .UNSPECIFIED.)
GEOMETRIC_REPRESENTATION_ITEM()
RATIONAL_B_SPLINE_SURFACE(((1.,0.707106781186548,1.,0.707106781186548,1.,
0.707106781186548,1.,0.707106781186548,1.),(0.999999766216828,0.707106615876881,
0.999999766216828,0.707106615876881,0.999999766216828,0.707106615876881,
0.999999766216828,0.707106615876881,0.999999766216828),(1.,0.707106781186548,
1.,0.707106781186548,1.,0.707106781186548,1.,0.707106781186548,1.)))
REPRESENTATION_ITEM($)
SURFACE()
);
#63=STYLED_ITEM($,(#471),#238);
#64=STYLED_ITEM($,(#470),#255);
#65=FACE_BOUND($,#91,.T.);
#66=FACE_BOUND($,#93,.T.);
#67=FACE_BOUND($,#95,.T.);
#68=FACE_BOUND($,#106,.T.);
#69=FACE_BOUND($,#108,.T.);
#70=FACE_BOUND($,#110,.T.);
#71=FACE_BOUND($,#112,.T.);
#72=FACE_BOUND($,#114,.T.);
#73=FACE_OUTER_BOUND($,#90,.T.);
#74=FACE_OUTER_BOUND($,#92,.T.);
#75=FACE_OUTER_BOUND($,#94,.T.);
#76=FACE_OUTER_BOUND($,#96,.T.);
#77=FACE_OUTER_BOUND($,#97,.T.);
#78=FACE_OUTER_BOUND($,#98,.T.);
#79=FACE_OUTER_BOUND($,#99,.T.);
#80=FACE_OUTER_BOUND($,#100,.T.);
#81=FACE_OUTER_BOUND($,#101,.T.);
#82=FACE_OUTER_BOUND($,#102,.T.);
#83=FACE_OUTER_BOUND($,#103,.T.);
#84=FACE_OUTER_BOUND($,#104,.T.);
#85=FACE_OUTER_BOUND($,#105,.T.);
#86=FACE_OUTER_BOUND($,#107,.T.);
#87=FACE_OUTER_BOUND($,#109,.T.);
#88=FACE_OUTER_BOUND($,#111,.T.);
#89=FACE_OUTER_BOUND($,#113,.T.);
#90=EDGE_LOOP($,(#176));
#91=EDGE_LOOP($,(#177));
#92=EDGE_LOOP($,(#178));
#93=EDGE_LOOP($,(#179));
#94=EDGE_LOOP($,(#180));
#95=EDGE_LOOP($,(#181));
#96=EDGE_LOOP($,(#182,#183,#184,#185,#186));
#97=EDGE_LOOP($,(#187));
#98=EDGE_LOOP($,(#188));
#99=EDGE_LOOP($,(#189,#190,#191,#192));
#100=EDGE_LOOP($,(#193,#194,#195,#196));
#101=EDGE_LOOP($,(#197,#198,#199,#200));
#102=EDGE_LOOP($,(#201,#202,#203,#204));
#103=EDGE_LOOP($,(#205,#206,#207,#208));
#104=EDGE_LOOP($,(#209,#210,#211,#212));
#105=EDGE_LOOP($,(#213,#214,#215,#216,#217,#218));
#106=EDGE_LOOP($,(#219));
#107=EDGE_LOOP($,(#220,#221,#222,#223,#224,#225));
#108=EDGE_LOOP($,(#226));
#109=EDGE_LOOP($,(#227));
#110=EDGE_LOOP($,(#228));
#111=EDGE_LOOP($,(#229));
#112=EDGE_LOOP($,(#230,#231));
#113=EDGE_LOOP($,(#232));
#114=EDGE_LOOP($,(#233));
#115=CIRCLE($,#258,46.500000000003);
#116=CIRCLE($,#259,46.500000000003);
#117=CIRCLE($,#261,44.55);
#118=CIRCLE($,#262,44.55);
#119=CIRCLE($,#264,37.75);
#120=CIRCLE($,#265,37.7500000000001);
#121=CIRCLE($,#266,44.5829603457439);
#122=CIRCLE($,#267,44.5000000000008);
#123=CIRCLE($,#268,44.5000000000008);
#124=CIRCLE($,#270,46.);
#125=VERTEX_POINT($,#357);
#126=VERTEX_POINT($,#359);
#127=VERTEX_POINT($,#362);
#128=VERTEX_POINT($,#364);
#129=VERTEX_POINT($,#367);
#130=VERTEX_POINT($,#369);
#131=VERTEX_POINT($,#398);
#132=VERTEX_POINT($,#400);
#133=VERTEX_POINT($,#404);
#134=VERTEX_POINT($,#408);
#135=VERTEX_POINT($,#412);
#136=VERTEX_POINT($,#413);
#137=VERTEX_POINT($,#415);
#138=VERTEX_POINT($,#417);
#139=VERTEX_POINT($,#421);
#140=VERTEX_POINT($,#423);
#141=VERTEX_POINT($,#427);
#142=VERTEX_POINT($,#429);
#143=VERTEX_POINT($,#433);
#144=VERTEX_POINT($,#435);
#145=VERTEX_POINT($,#439);
#146=VERTEX_POINT($,#441);
#147=EDGE_CURVE($,#125,#125,#115,.T.);
#148=EDGE_CURVE($,#126,#126,#116,.T.);
#149=EDGE_CURVE($,#127,#127,#117,.T.);
#150=EDGE_CURVE($,#128,#128,#118,.T.);
#151=EDGE_CURVE($,#129,#129,#119,.T.);
#152=EDGE_CURVE($,#130,#130,#120,.T.);
#153=EDGE_CURVE($,#131,#131,#121,.T.);
#154=EDGE_CURVE($,#131,#132,#61,.T.);
#155=EDGE_CURVE($,#133,#132,#122,.T.);
#156=EDGE_CURVE($,#132,#133,#123,.T.);
#157=EDGE_CURVE($,#134,#134,#124,.T.);
#158=EDGE_CURVE($,#135,#136,#12,.T.);
#159=EDGE_CURVE($,#137,#136,#13,.T.);
#160=EDGE_CURVE($,#137,#138,#14,.T.);
#161=EDGE_CURVE($,#138,#135,#15,.T.);
#162=EDGE_CURVE($,#136,#139,#16,.T.);
#163=EDGE_CURVE($,#140,#139,#17,.T.);
#164=EDGE_CURVE($,#140,#137,#18,.T.);
#165=EDGE_CURVE($,#139,#141,#19,.T.);
#166=EDGE_CURVE($,#142,#141,#20,.T.);
#167=EDGE_CURVE($,#142,#140,#21,.T.);
#168=EDGE_CURVE($,#141,#143,#22,.T.);
#169=EDGE_CURVE($,#144,#143,#23,.T.);
#170=EDGE_CURVE($,#144,#142,#24,.T.);
#171=EDGE_CURVE($,#143,#145,#25,.T.);
#172=EDGE_CURVE($,#146,#145,#26,.T.);
#173=EDGE_CURVE($,#146,#144,#27,.T.);
#174=EDGE_CURVE($,#145,#135,#28,.T.);
#175=EDGE_CURVE($,#138,#146,#29,.T.);
#176=ORIENTED_EDGE($,*,*,#147,.T.);
#177=ORIENTED_EDGE($,*,*,#148,.F.);
#178=ORIENTED_EDGE($,*,*,#149,.F.);
#179=ORIENTED_EDGE($,*,*,#150,.F.);
#180=ORIENTED_EDGE($,*,*,#151,.F.);
#181=ORIENTED_EDGE($,*,*,#152,.T.);
#182=ORIENTED_EDGE($,*,*,#153,.F.);
#183=ORIENTED_EDGE($,*,*,#154,.T.);
#184=ORIENTED_EDGE($,*,*,#155,.F.);
#185=ORIENTED_EDGE($,*,*,#156,.F.);
#186=ORIENTED_EDGE($,*,*,#154,.F.);
#187=ORIENTED_EDGE($,*,*,#157,.F.);
#188=ORIENTED_EDGE($,*,*,#151,.T.);
#189=ORIENTED_EDGE($,*,*,#158,.T.);
#190=ORIENTED_EDGE($,*,*,#159,.F.);
#191=ORIENTED_EDGE($,*,*,#160,.T.);
#192=ORIENTED_EDGE($,*,*,#161,.T.);
#193=ORIENTED_EDGE($,*,*,#162,.T.);
#194=ORIENTED_EDGE($,*,*,#163,.F.);
#195=ORIENTED_EDGE($,*,*,#164,.T.);
#196=ORIENTED_EDGE($,*,*,#159,.T.);
#197=ORIENTED_EDGE($,*,*,#165,.T.);
#198=ORIENTED_EDGE($,*,*,#166,.F.);
#199=ORIENTED_EDGE($,*,*,#167,.T.);
#200=ORIENTED_EDGE($,*,*,#163,.T.);
#201=ORIENTED_EDGE($,*,*,#168,.T.);
#202=ORIENTED_EDGE($,*,*,#169,.F.);
#203=ORIENTED_EDGE($,*,*,#170,.T.);
#204=ORIENTED_EDGE($,*,*,#166,.T.);
#205=ORIENTED_EDGE($,*,*,#171,.T.);
#206=ORIENTED_EDGE($,*,*,#172,.F.);
#207=ORIENTED_EDGE($,*,*,#173,.T.);
#208=ORIENTED_EDGE($,*,*,#169,.T.);
#209=ORIENTED_EDGE($,*,*,#174,.T.);
#210=ORIENTED_EDGE($,*,*,#161,.F.);
#211=ORIENTED_EDGE($,*,*,#175,.T.);
#212=ORIENTED_EDGE($,*,*,#172,.T.);
#213=ORIENTED_EDGE($,*,*,#158,.F.);
#214=ORIENTED_EDGE($,*,*,#174,.F.);
#215=ORIENTED_EDGE($,*,*,#171,.F.);
#216=ORIENTED_EDGE($,*,*,#168,.F.);
#217=ORIENTED_EDGE($,*,*,#165,.F.);
#218=ORIENTED_EDGE($,*,*,#162,.F.);
#219=ORIENTED_EDGE($,*,*,#157,.T.);
#220=ORIENTED_EDGE($,*,*,#175,.F.);
#221=ORIENTED_EDGE($,*,*,#160,.F.);
#222=ORIENTED_EDGE($,*,*,#164,.F.);
#223=ORIENTED_EDGE($,*,*,#167,.F.);
#224=ORIENTED_EDGE($,*,*,#170,.F.);
#225=ORIENTED_EDGE($,*,*,#173,.F.);
#226=ORIENTED_EDGE($,*,*,#153,.T.);
#227=ORIENTED_EDGE($,*,*,#150,.T.);
#228=ORIENTED_EDGE($,*,*,#152,.F.);
#229=ORIENTED_EDGE($,*,*,#147,.F.);
#230=ORIENTED_EDGE($,*,*,#155,.T.);
#231=ORIENTED_EDGE($,*,*,#156,.T.);
#232=ORIENTED_EDGE($,*,*,#148,.T.);
#233=ORIENTED_EDGE($,*,*,#149,.T.);
#234=CYLINDRICAL_SURFACE($,#257,46.500000000003);
#235=CYLINDRICAL_SURFACE($,#260,44.55);
#236=CYLINDRICAL_SURFACE($,#263,37.75);
#237=ADVANCED_FACE($,(#73,#65),#234,.T.);
#238=ADVANCED_FACE($,(#74,#66),#235,.T.);
#239=ADVANCED_FACE($,(#75,#67),#236,.F.);
#240=ADVANCED_FACE($,(#76),#62,.F.);
#241=ADVANCED_FACE($,(#77),#60,.T.);
#242=ADVANCED_FACE($,(#78),#48,.F.);
#243=ADVANCED_FACE($,(#79),#49,.T.);
#244=ADVANCED_FACE($,(#80),#50,.T.);
#245=ADVANCED_FACE($,(#81),#51,.T.);
#246=ADVANCED_FACE($,(#82),#52,.T.);
#247=ADVANCED_FACE($,(#83),#53,.T.);
#248=ADVANCED_FACE($,(#84),#54,.T.);
#249=ADVANCED_FACE($,(#85,#68),#55,.T.);
#250=ADVANCED_FACE($,(#86,#69),#56,.F.);
#251=ADVANCED_FACE($,(#87,#70),#57,.T.);
#252=ADVANCED_FACE($,(#88,#71),#58,.T.);
#253=ADVANCED_FACE($,(#89,#72),#59,.T.);
#254=CLOSED_SHELL($,(#237,#238,#239,#240,#241,#242,#243,#244,#245,#246,
#247,#248,#249,#250,#251,#252,#253));
#255=MANIFOLD_SOLID_BREP('F95',#254);
#256=AXIS2_PLACEMENT_3D('placement',#355,#283,#284);
#257=AXIS2_PLACEMENT_3D($,#356,#285,#286);
#258=AXIS2_PLACEMENT_3D($,#358,#287,#288);
#259=AXIS2_PLACEMENT_3D($,#360,#289,#290);
#260=AXIS2_PLACEMENT_3D($,#361,#291,#292);
#261=AXIS2_PLACEMENT_3D($,#363,#293,#294);
#262=AXIS2_PLACEMENT_3D($,#365,#295,#296);
#263=AXIS2_PLACEMENT_3D($,#366,#297,#298);
#264=AXIS2_PLACEMENT_3D($,#368,#299,#300);
#265=AXIS2_PLACEMENT_3D($,#370,#301,#302);
#266=AXIS2_PLACEMENT_3D($,#399,#303,#304);
#267=AXIS2_PLACEMENT_3D($,#405,#305,#306);
#268=AXIS2_PLACEMENT_3D($,#406,#307,#308);
#269=AXIS2_PLACEMENT_3D($,#407,#309,#310);
#270=AXIS2_PLACEMENT_3D($,#409,#311,#312);
#271=AXIS2_PLACEMENT_3D($,#410,#313,#314);
#272=AXIS2_PLACEMENT_3D($,#411,#315,#316);
#273=AXIS2_PLACEMENT_3D($,#420,#321,#322);
#274=AXIS2_PLACEMENT_3D($,#426,#326,#327);
#275=AXIS2_PLACEMENT_3D($,#432,#331,#332);
#276=AXIS2_PLACEMENT_3D($,#438,#336,#337);
#277=AXIS2_PLACEMENT_3D($,#444,#341,#342);
#278=AXIS2_PLACEMENT_3D($,#447,#345,#346);
#279=AXIS2_PLACEMENT_3D($,#448,#347,#348);
#280=AXIS2_PLACEMENT_3D($,#449,#349,#350);
#281=AXIS2_PLACEMENT_3D($,#450,#351,#352);
#282=AXIS2_PLACEMENT_3D($,#451,#353,#354);
#283=DIRECTION('axis',(0.,0.,1.));
#284=DIRECTION('refdir',(1.,0.,0.));
#285=DIRECTION('center_axis',(-1.,1.224606E-016,0.));
#286=DIRECTION('ref_axis',(1.224606E-016,1.,0.));
#287=DIRECTION('center_axis',(-1.,0.,0.));
#288=DIRECTION('ref_axis',(0.,1.,0.));
#289=DIRECTION('center_axis',(-1.,0.,0.));
#290=DIRECTION('ref_axis',(0.,1.,0.));
#291=DIRECTION('center_axis',(-1.,1.224606E-016,0.));
#292=DIRECTION('ref_axis',(1.224606E-016,1.,0.));
#293=DIRECTION('center_axis',(1.,0.,0.));
#294=DIRECTION('ref_axis',(0.,1.,0.));
#295=DIRECTION('center_axis',(-1.,0.,0.));
#296=DIRECTION('ref_axis',(0.,1.,0.));
#297=DIRECTION('center_axis',(-1.,1.83691E-016,0.));
#298=DIRECTION('ref_axis',(-1.83691E-016,-1.,0.));
#299=DIRECTION('center_axis',(-1.,0.,0.));
#300=DIRECTION('ref_axis',(0.,-1.,0.));
#301=DIRECTION('center_axis',(-1.,0.,0.));
#302=DIRECTION('ref_axis',(0.,-1.,0.));
#303=DIRECTION('center_axis',(1.,0.,0.));
#304=DIRECTION('ref_axis',(0.,0.,1.));
#305=DIRECTION('center_axis',(-1.,0.,0.));
#306=DIRECTION('ref_axis',(0.,1.,0.));
#307=DIRECTION('center_axis',(-1.,0.,0.));
#308=DIRECTION('ref_axis',(0.,1.,0.));
#309=DIRECTION('center_axis',(0.,-6.12323399573746E-017,1.));
#310=DIRECTION('ref_axis',(0.,-1.,0.));
#311=DIRECTION('center_axis',(-1.,0.,0.));
#312=DIRECTION('ref_axis',(0.,1.,0.));
#313=DIRECTION('center_axis',(1.,0.,0.));
#314=DIRECTION('ref_axis',(0.,0.,-1.));
#315=DIRECTION('center_axis',(0.,0.,1.));
#316=DIRECTION('ref_axis',(1.,0.,0.));
#317=DIRECTION($,(0.,1.,0.));
#318=DIRECTION($,(1.,0.,0.));
#319=DIRECTION($,(0.,-1.,0.));
#320=DIRECTION($,(1.,0.,0.));
#321=DIRECTION('center_axis',(0.,0.866025403784439,0.499999999999999));
#322=DIRECTION('ref_axis',(0.,-0.499999999999999,0.866025403784439));
#323=DIRECTION($,(0.,0.499999999999999,-0.866025403784439));
#324=DIRECTION($,(1.,0.,0.));
#325=DIRECTION($,(0.,-0.499999999999999,0.866025403784439));
#326=DIRECTION('center_axis',(0.,0.866025403784438,-0.500000000000001));
#327=DIRECTION('ref_axis',(-1.,0.,0.));
#328=DIRECTION($,(0.,-0.500000000000001,-0.866025403784438));
#329=DIRECTION($,(1.,0.,0.));
#330=DIRECTION($,(0.,0.500000000000001,0.866025403784438));
#331=DIRECTION('center_axis',(0.,0.,-1.));
#332=DIRECTION('ref_axis',(-1.,0.,0.));
#333=DIRECTION($,(0.,-1.,0.));
#334=DIRECTION($,(1.,0.,0.));
#335=DIRECTION($,(0.,1.,0.));
#336=DIRECTION('center_axis',(0.,-0.866025403784439,-0.5));
#337=DIRECTION('ref_axis',(0.,0.499999999999999,-0.866025403784439));
#338=DIRECTION($,(0.,-0.5,0.866025403784439));
#339=DIRECTION($,(1.,0.,0.));
#340=DIRECTION($,(0.,0.5,-0.866025403784439));
#341=DIRECTION('center_axis',(0.,-0.866025403784439,0.5));
#342=DIRECTION('ref_axis',(1.,0.,0.));
#343=DIRECTION($,(0.,0.5,0.866025403784438));
#344=DIRECTION($,(0.,-0.5,-0.866025403784438));
#345=DIRECTION('center_axis',(1.,0.,0.));
#346=DIRECTION('ref_axis',(0.,0.,-1.));
#347=DIRECTION('center_axis',(1.,0.,0.));
#348=DIRECTION('ref_axis',(0.,0.,-1.));
#349=DIRECTION('center_axis',(-1.,0.,0.));
#350=DIRECTION('ref_axis',(0.,0.,1.));
#351=DIRECTION('center_axis',(1.,0.,0.));
#352=DIRECTION('ref_axis',(0.,0.,-1.));
#353=DIRECTION('center_axis',(-1.,0.,0.));
#354=DIRECTION('ref_axis',(0.,0.,1.));
#355=CARTESIAN_POINT('',(0.,0.,0.));
#356=CARTESIAN_POINT('Origin',(41.2236405268141,-5.048273E-015,0.));
#357=CARTESIAN_POINT('',(49.1472810536282,-46.500000000003,5.69442E-015));
#358=CARTESIAN_POINT('Origin',(49.1472810536282,-6.018607E-015,0.));
#359=CARTESIAN_POINT('',(33.3,-46.500000000003,5.69442E-015));
#360=CARTESIAN_POINT('Origin',(33.3,-4.077939E-015,0.));
#361=CARTESIAN_POINT('Origin',(16.65,-2.03897E-015,0.));
#362=CARTESIAN_POINT('',(33.3,-44.55,5.455621E-015));
#363=CARTESIAN_POINT('Origin',(33.3,-4.077939E-015,0.));
#364=CARTESIAN_POINT('',(-3.552714E-015,-44.55,5.455621E-015));
#365=CARTESIAN_POINT('Origin',(2.718626E-015,-3.329247E-031,0.));
#366=CARTESIAN_POINT('Origin',(25.2318315972403,0.,0.));
#367=CARTESIAN_POINT('',(49.1531223824815,37.75,-4.622889E-015));
#368=CARTESIAN_POINT('Origin',(49.1531223824815,-4.394125E-015,0.));
#369=CARTESIAN_POINT('',(7.105427E-015,37.75,-4.622889E-015));
#370=CARTESIAN_POINT('Origin',(0.,0.,0.));
#371=CARTESIAN_POINT('Ctrl Pts',(49.1472810536283,2.46522686267308E-013,
44.5000000000017));
#372=CARTESIAN_POINT('Ctrl Pts',(49.1472810536283,-44.5000000000003,44.5000000000017));
#373=CARTESIAN_POINT('Ctrl Pts',(49.1472810536282,-44.5000000000003,1.17558781106822E-012));
#374=CARTESIAN_POINT('Ctrl Pts',(49.1472810536282,-44.5000000000003,-44.4999999999994));
#375=CARTESIAN_POINT('Ctrl Pts',(49.1472810536282,2.46522686267308E-013,
-44.4999999999994));
#376=CARTESIAN_POINT('Ctrl Pts',(49.1472810536282,44.5000000000008,-44.4999999999994));
#377=CARTESIAN_POINT('Ctrl Pts',(49.1472810536282,44.5000000000008,1.17558781106822E-012));
#378=CARTESIAN_POINT('Ctrl Pts',(49.1472810536283,44.5000000000008,44.5000000000017));
#379=CARTESIAN_POINT('Ctrl Pts',(49.1472810536283,2.46522686267308E-013,
44.5000000000017));
#380=CARTESIAN_POINT('Ctrl Pts',(49.1501733543959,2.46522577869194E-013,
44.5414821699891));
#381=CARTESIAN_POINT('Ctrl Pts',(49.1501733543959,-44.5414821699877,44.5414821699891));
#382=CARTESIAN_POINT('Ctrl Pts',(49.1501733543959,-44.5414821699877,1.17558543574938E-012));
#383=CARTESIAN_POINT('Ctrl Pts',(49.1501733543958,-44.5414821699877,-44.5414821699867));
#384=CARTESIAN_POINT('Ctrl Pts',(49.1501733543958,2.46522577869194E-013,
-44.5414821699868));
#385=CARTESIAN_POINT('Ctrl Pts',(49.1501733543958,44.5414821699882,-44.5414821699867));
#386=CARTESIAN_POINT('Ctrl Pts',(49.1501733543959,44.5414821699882,1.17558543574938E-012));
#387=CARTESIAN_POINT('Ctrl Pts',(49.1501733543959,44.5414821699882,44.5414821699891));
#388=CARTESIAN_POINT('Ctrl Pts',(49.1501733543959,2.46522577869194E-013,
44.5414821699891));
#389=CARTESIAN_POINT('Ctrl Pts',(49.1531223824815,2.46522467345044E-013,
44.5829603457438));
#390=CARTESIAN_POINT('Ctrl Pts',(49.1531223824815,-44.5829603457424,44.5829603457438));
#391=CARTESIAN_POINT('Ctrl Pts',(49.1531223824814,-44.5829603457424,1.1755830138429E-012));
#392=CARTESIAN_POINT('Ctrl Pts',(49.1531223824814,-44.5829603457424,-44.5829603457415));
#393=CARTESIAN_POINT('Ctrl Pts',(49.1531223824814,2.46522467345045E-013,
-44.5829603457415));
#394=CARTESIAN_POINT('Ctrl Pts',(49.1531223824814,44.5829603457429,-44.5829603457415));
#395=CARTESIAN_POINT('Ctrl Pts',(49.1531223824814,44.5829603457429,1.1755830138429E-012));
#396=CARTESIAN_POINT('Ctrl Pts',(49.1531223824815,44.5829603457429,44.5829603457438));
#397=CARTESIAN_POINT('Ctrl Pts',(49.1531223824815,2.46522467345044E-013,
44.5829603457438));
#398=CARTESIAN_POINT('',(49.1531223824815,-1.181947E-014,44.5829603457439));
#399=CARTESIAN_POINT('Origin',(49.1531223824815,-2.842171E-014,0.));
#400=CARTESIAN_POINT('',(49.1472810536283,2.46522686267308E-013,44.5000000000017));
#401=CARTESIAN_POINT('Ctrl Pts',(49.1531223824815,2.46522467345044E-013,
44.5829603457438));
#402=CARTESIAN_POINT('Ctrl Pts',(49.1501733543959,2.46522577869194E-013,
44.5414821699891));
#403=CARTESIAN_POINT('Ctrl Pts',(49.1472810536283,2.46522686267308E-013,
44.5000000000017));
#404=CARTESIAN_POINT('',(49.1472810536282,44.5000000000008,0.));
#405=CARTESIAN_POINT('Origin',(49.1472810536282,-6.018607E-015,0.));
#406=CARTESIAN_POINT('Origin',(49.1472810536282,-6.018607E-015,0.));
#407=CARTESIAN_POINT('Origin',(-86.9464285714274,-1.730882E-011,0.));
#408=CARTESIAN_POINT('',(64.1531223824815,-46.,-5.633189E-015));
#409=CARTESIAN_POINT('Origin',(64.1531223824815,-4.947139E-015,0.));
#410=CARTESIAN_POINT('Origin',(49.1531223824815,0.,9.048318E-015));
#411=CARTESIAN_POINT('Origin',(49.1531223824815,-26.8467875173176,46.5));
#412=CARTESIAN_POINT('',(64.1531223824815,-26.8467875173176,46.5));
#413=CARTESIAN_POINT('',(64.1531223824815,26.8467875173177,46.5));
#414=CARTESIAN_POINT($,(64.1531223824815,-26.8467875173176,46.5));
#415=CARTESIAN_POINT('',(49.1531223824815,26.8467875173177,46.5));
#416=CARTESIAN_POINT($,(49.1531223824815,26.8467875173177,46.5));
#417=CARTESIAN_POINT('',(49.1531223824815,-26.8467875173176,46.5));
#418=CARTESIAN_POINT($,(49.1531223824815,26.8467875173177,46.5));
#419=CARTESIAN_POINT($,(49.1531223824815,-26.8467875173176,46.5));
#420=CARTESIAN_POINT('Origin',(49.1531223824815,26.8467875173177,46.5));
#421=CARTESIAN_POINT('',(64.1531223824815,53.6935750346352,-4.735101E-014));
#422=CARTESIAN_POINT($,(64.1531223824815,26.8467875173177,46.5));
#423=CARTESIAN_POINT('',(49.1531223824815,53.6935750346352,-4.735101E-014));
#424=CARTESIAN_POINT($,(49.1531223824815,53.6935750346352,-4.735101E-014));
#425=CARTESIAN_POINT($,(49.1531223824815,53.6935750346352,-4.735101E-014));
#426=CARTESIAN_POINT('Origin',(49.1531223824815,53.6935750346352,-4.735101E-014));
#427=CARTESIAN_POINT('',(64.1531223824815,26.8467875173176,-46.5));
#428=CARTESIAN_POINT($,(64.1531223824815,53.6935750346352,-4.735101E-014));
#429=CARTESIAN_POINT('',(49.1531223824815,26.8467875173176,-46.5));
#430=CARTESIAN_POINT($,(49.1531223824815,26.8467875173176,-46.5));
#431=CARTESIAN_POINT($,(49.1531223824815,26.8467875173176,-46.5));
#432=CARTESIAN_POINT('Origin',(49.1531223824815,26.8467875173176,-46.5));
#433=CARTESIAN_POINT('',(64.1531223824815,-26.8467875173176,-46.5));
#434=CARTESIAN_POINT($,(64.1531223824815,26.8467875173176,-46.5));
#435=CARTESIAN_POINT('',(49.1531223824815,-26.8467875173176,-46.5));
#436=CARTESIAN_POINT($,(49.1531223824815,-26.8467875173176,-46.5));
#437=CARTESIAN_POINT($,(49.1531223824815,-26.8467875173176,-46.5));
#438=CARTESIAN_POINT('Origin',(49.1531223824815,-26.8467875173176,-46.5));
#439=CARTESIAN_POINT('',(64.1531223824815,-53.6935750346352,2.003953E-014));
#440=CARTESIAN_POINT($,(64.1531223824815,-26.8467875173176,-46.5));
#441=CARTESIAN_POINT('',(49.1531223824815,-53.6935750346352,2.003953E-014));
#442=CARTESIAN_POINT($,(49.1531223824815,-53.6935750346352,2.003953E-014));
#443=CARTESIAN_POINT($,(49.1531223824815,-53.6935750346352,2.003953E-014));
#444=CARTESIAN_POINT('Origin',(49.1531223824815,-53.6935750346352,2.003953E-014));
#445=CARTESIAN_POINT($,(64.1531223824815,-53.6935750346352,2.003953E-014));
#446=CARTESIAN_POINT($,(49.1531223824815,-26.8467875173176,46.5));
#447=CARTESIAN_POINT('Origin',(64.1531223824815,0.,9.048318E-015));
#448=CARTESIAN_POINT('Origin',(49.1531223824815,0.,9.048318E-015));
#449=CARTESIAN_POINT('Origin',(8.174247E-015,44.5250000000015,0.));
#450=CARTESIAN_POINT('Origin',(49.1472810536282,45.5000000000019,0.));
#451=CARTESIAN_POINT('Origin',(33.3,45.5000000000019,0.));
#452=UNCERTAINTY_MEASURE_WITH_UNIT(LENGTH_MEASURE(0.01),#454,
'DISTANCE_ACCURACY_VALUE',
'Maximum model space distance between geometric entities at asserted c
onnectivities');
#453=(
GEOMETRIC_REPRESENTATION_CONTEXT(3)
GLOBAL_UNCERTAINTY_ASSIGNED_CONTEXT((#452))
GLOBAL_UNIT_ASSIGNED_CONTEXT((#454,#457,#455))
REPRESENTATION_CONTEXT('','3D')
);
#454=(
LENGTH_UNIT()
NAMED_UNIT(*)
SI_UNIT(.MILLI.,.METRE.)
);
#455=(
NAMED_UNIT(*)
SI_UNIT($,.STERADIAN.)
SOLID_ANGLE_UNIT()
);
#456=DIMENSIONAL_EXPONENTS(0.,0.,0.,0.,0.,0.,0.);
#457=(
CONVERSION_BASED_UNIT('degree',#459)
NAMED_UNIT(#456)
PLANE_ANGLE_UNIT()
);
#458=(
NAMED_UNIT(*)
PLANE_ANGLE_UNIT()
SI_UNIT($,.RADIAN.)
);
#459=PLANE_ANGLE_MEASURE_WITH_UNIT(PLANE_ANGLE_MEASURE(0.01745329252),#458);
#460=SHAPE_DEFINITION_REPRESENTATION(#461,#462);
#461=PRODUCT_DEFINITION_SHAPE('',$,#464);
#462=SHAPE_REPRESENTATION('',(#256),#453);
#463=PRODUCT_DEFINITION_CONTEXT('3D Mechanical Parts',#467,'design');
#464=PRODUCT_DEFINITION('PFV300','PFV300',#465,#463);
#465=PRODUCT_DEFINITION_FORMATION('',$,#469);
#466=APPLICATION_PROTOCOL_DEFINITION('international standard',
'automotive_design',2009,#467);
#467=APPLICATION_CONTEXT(
'Core Data for Automotive Mechanical Design Process');
#468=PRODUCT_CONTEXT('3D Mechanical Parts',#467,'mechanical');
#469=PRODUCT('PFV300','PFV300',$,(#468));
#470=PRESENTATION_STYLE_ASSIGNMENT((#472));
#471=PRESENTATION_STYLE_ASSIGNMENT((#473));
#472=SURFACE_STYLE_USAGE(.BOTH.,#474);
#473=SURFACE_STYLE_USAGE(.BOTH.,#475);
#474=SURFACE_SIDE_STYLE($,(#476));
#475=SURFACE_SIDE_STYLE($,(#477));
#476=SURFACE_STYLE_FILL_AREA(#478);
#477=SURFACE_STYLE_FILL_AREA(#479);
#478=FILL_AREA_STYLE($,(#480));
#479=FILL_AREA_STYLE($,(#481));
#480=FILL_AREA_STYLE_COLOUR($,#482);
#481=FILL_AREA_STYLE_COLOUR($,#483);
#482=COLOUR_RGB('',0.509803921568627,0.509803921568627,0.588235294117647);
#483=COLOUR_RGB('',1.,0.,0.);
ENDSEC;
END-ISO-10303-21;
