ISO-10303-21;
HEADER;
FILE_DESCRIPTION( ( '' ), '1' );
FILE_NAME( '//se01002/users/anro/AGRU_70706011011_PE_100_RC_schwarz_Rohr_6m_110X10_0__SDR11__ISO_S-5_05.stp', '2017-12-12T07:56:16', ( '' ), ( '' ), ' ', ' ', ' ' );
FILE_SCHEMA( ( 'automotive_design' ) );
ENDSEC;
DATA;
#1 = MECHANICAL_DESIGN_GEOMETRIC_PRESENTATION_REPRESENTATION( ' ', ( #10, #11, #12, #13, #14, #15, #16, #17, #18, #19, #20, #21, #22, #23, #24, #25, #26, #27, #28, #29, #30, #31, #32, #33, #34, #35, #36 ), #6 );
#2 = PRODUCT_DEFINITION_CONTEXT( '', #37, 'design' );
#3 = APPLICATION_PROTOCOL_DEFINITION( 'INTERNATIONAL STANDARD', 'automotive_design', 1994, #37 );
#4 = PRODUCT_CATEGORY_RELATIONSHIP( 'NONE', 'NONE', #38, #39 );
#5 = SHAPE_DEFINITION_REPRESENTATION( #40, #41 );
#6 =  ( GEOMETRIC_REPRESENTATION_CONTEXT( 3 )GLOBAL_UNCERTAINTY_ASSIGNED_CONTEXT( ( #44 ) )GLOBAL_UNIT_ASSIGNED_CONTEXT( ( #46, #47, #48 ) )REPRESENTATION_CONTEXT( 'NONE', 'WORKSPACE' ) );
#10 = STYLED_ITEM( '', ( #50 ), #51 );
#11 = STYLED_ITEM( '', ( #52 ), #53 );
#12 = STYLED_ITEM( '', ( #54 ), #55 );
#13 = STYLED_ITEM( '', ( #56 ), #57 );
#14 = STYLED_ITEM( '', ( #58 ), #59 );
#15 = STYLED_ITEM( '', ( #60 ), #61 );
#16 = STYLED_ITEM( '', ( #62 ), #63 );
#17 = STYLED_ITEM( '', ( #64 ), #65 );
#18 = STYLED_ITEM( '', ( #66 ), #67 );
#19 = STYLED_ITEM( '', ( #68 ), #69 );
#20 = STYLED_ITEM( '', ( #70 ), #71 );
#21 = STYLED_ITEM( '', ( #72 ), #73 );
#22 = STYLED_ITEM( '', ( #74 ), #75 );
#23 = STYLED_ITEM( '', ( #76 ), #77 );
#24 = STYLED_ITEM( '', ( #78 ), #79 );
#25 = STYLED_ITEM( '', ( #80 ), #81 );
#26 = STYLED_ITEM( '', ( #82 ), #83 );
#27 = STYLED_ITEM( '', ( #84 ), #85 );
#28 = STYLED_ITEM( '', ( #86 ), #87 );
#29 = STYLED_ITEM( '', ( #88 ), #89 );
#30 = STYLED_ITEM( '', ( #90 ), #91 );
#31 = STYLED_ITEM( '', ( #92 ), #93 );
#32 = STYLED_ITEM( '', ( #94 ), #95 );
#33 = STYLED_ITEM( '', ( #96 ), #97 );
#34 = STYLED_ITEM( '', ( #98 ), #99 );
#35 = STYLED_ITEM( '', ( #100 ), #101 );
#36 = STYLED_ITEM( '', ( #102 ), #103 );
#37 = APPLICATION_CONTEXT( ' ' );
#38 = PRODUCT_CATEGORY( 'part', 'NONE' );
#39 = PRODUCT_RELATED_PRODUCT_CATEGORY( 'detail', ' ', ( #104 ) );
#40 = PRODUCT_DEFINITION_SHAPE( 'NONE', 'NONE', #105 );
#41 = ADVANCED_BREP_SHAPE_REPRESENTATION( '1', ( #69, #106 ), #6 );
#44 = UNCERTAINTY_MEASURE_WITH_UNIT( LENGTH_MEASURE( 1.00000000000000E-006 ), #46, '', '' );
#46 =  ( CONVERSION_BASED_UNIT( 'MILLIMETRE', #109 )LENGTH_UNIT(  )NAMED_UNIT( #112 ) );
#47 =  ( NAMED_UNIT( #114 )PLANE_ANGLE_UNIT(  )SI_UNIT( $, .RADIAN. ) );
#48 =  ( NAMED_UNIT( #114 )SOLID_ANGLE_UNIT(  )SI_UNIT( $, .STERADIAN. ) );
#50 = PRESENTATION_STYLE_ASSIGNMENT( ( #120 ) );
#51 = ADVANCED_FACE( '', ( #121 ), #122, .F. );
#52 = PRESENTATION_STYLE_ASSIGNMENT( ( #123 ) );
#53 = EDGE_CURVE( '', #93, #101, #124, .T. );
#54 = PRESENTATION_STYLE_ASSIGNMENT( ( #125 ) );
#55 = EDGE_CURVE( '', #85, #97, #126, .T. );
#56 = PRESENTATION_STYLE_ASSIGNMENT( ( #127 ) );
#57 = EDGE_CURVE( '', #93, #79, #128, .T. );
#58 = PRESENTATION_STYLE_ASSIGNMENT( ( #129 ) );
#59 = EDGE_CURVE( '', #91, #101, #130, .T. );
#60 = PRESENTATION_STYLE_ASSIGNMENT( ( #131 ) );
#61 = EDGE_CURVE( '', #79, #93, #132, .T. );
#62 = PRESENTATION_STYLE_ASSIGNMENT( ( #133 ) );
#63 = EDGE_CURVE( '', #97, #89, #134, .T. );
#64 = PRESENTATION_STYLE_ASSIGNMENT( ( #135 ) );
#65 = ADVANCED_FACE( '', ( #136 ), #137, .T. );
#66 = PRESENTATION_STYLE_ASSIGNMENT( ( #138 ) );
#67 = ADVANCED_FACE( '', ( #139 ), #140, .F. );
#68 = PRESENTATION_STYLE_ASSIGNMENT( ( #141 ) );
#69 = MANIFOLD_SOLID_BREP( '1', #142 );
#70 = PRESENTATION_STYLE_ASSIGNMENT( ( #143 ) );
#71 = ADVANCED_FACE( '', ( #144, #145 ), #146, .T. );
#72 = PRESENTATION_STYLE_ASSIGNMENT( ( #147 ) );
#73 = VERTEX_POINT( '', #148 );
#74 = PRESENTATION_STYLE_ASSIGNMENT( ( #149 ) );
#75 = ADVANCED_FACE( '', ( #150, #151 ), #152, .F. );
#76 = PRESENTATION_STYLE_ASSIGNMENT( ( #153 ) );
#77 = ADVANCED_FACE( '', ( #154 ), #155, .T. );
#78 = PRESENTATION_STYLE_ASSIGNMENT( ( #156 ) );
#79 = VERTEX_POINT( '', #157 );
#80 = PRESENTATION_STYLE_ASSIGNMENT( ( #158 ) );
#81 = EDGE_CURVE( '', #91, #79, #159, .T. );
#82 = PRESENTATION_STYLE_ASSIGNMENT( ( #160 ) );
#83 = EDGE_CURVE( '', #101, #91, #161, .T. );
#84 = PRESENTATION_STYLE_ASSIGNMENT( ( #162 ) );
#85 = VERTEX_POINT( '', #163 );
#86 = PRESENTATION_STYLE_ASSIGNMENT( ( #164 ) );
#87 = EDGE_CURVE( '', #89, #97, #165, .T. );
#88 = PRESENTATION_STYLE_ASSIGNMENT( ( #166 ) );
#89 = VERTEX_POINT( '', #167 );
#90 = PRESENTATION_STYLE_ASSIGNMENT( ( #168 ) );
#91 = VERTEX_POINT( '', #169 );
#92 = PRESENTATION_STYLE_ASSIGNMENT( ( #170 ) );
#93 = VERTEX_POINT( '', #171 );
#94 = PRESENTATION_STYLE_ASSIGNMENT( ( #172 ) );
#95 = EDGE_CURVE( '', #89, #73, #173, .T. );
#96 = PRESENTATION_STYLE_ASSIGNMENT( ( #174 ) );
#97 = VERTEX_POINT( '', #175 );
#98 = PRESENTATION_STYLE_ASSIGNMENT( ( #176 ) );
#99 = EDGE_CURVE( '', #85, #73, #177, .T. );
#100 = PRESENTATION_STYLE_ASSIGNMENT( ( #178 ) );
#101 = VERTEX_POINT( '', #179 );
#102 = PRESENTATION_STYLE_ASSIGNMENT( ( #180 ) );
#103 = EDGE_CURVE( '', #73, #85, #181, .T. );
#104 = PRODUCT( '1', '1', 'PART-1-DESC', ( #182 ) );
#105 = PRODUCT_DEFINITION( 'NONE', 'NONE', #183, #2 );
#106 = AXIS2_PLACEMENT_3D( '', #184, #185, #186 );
#109 = LENGTH_MEASURE_WITH_UNIT( LENGTH_MEASURE( 1.00000000000000 ), #187 );
#112 = DIMENSIONAL_EXPONENTS( 1.00000000000000, 0.000000000000000, 0.000000000000000, 0.000000000000000, 0.000000000000000, 0.000000000000000, 0.000000000000000 );
#114 = DIMENSIONAL_EXPONENTS( 0.000000000000000, 0.000000000000000, 0.000000000000000, 0.000000000000000, 0.000000000000000, 0.000000000000000, 0.000000000000000 );
#120 = SURFACE_STYLE_USAGE( .BOTH., #188 );
#121 = FACE_OUTER_BOUND( '', #189, .T. );
#122 = CYLINDRICAL_SURFACE( '', #190, 45.0000000000000 );
#123 = CURVE_STYLE( '', #191, POSITIVE_LENGTH_MEASURE( 1.00000000000000E-006 ), #192 );
#124 = LINE( '', #193, #194 );
#125 = CURVE_STYLE( '', #195, POSITIVE_LENGTH_MEASURE( 1.00000000000000E-006 ), #196 );
#126 = LINE( '', #197, #198 );
#127 = CURVE_STYLE( '', #199, POSITIVE_LENGTH_MEASURE( 1.00000000000000E-006 ), #200 );
#128 = CIRCLE( '', #201, 45.0000000000000 );
#129 = CURVE_STYLE( '', #202, POSITIVE_LENGTH_MEASURE( 1.00000000000000E-006 ), #203 );
#130 = CIRCLE( '', #204, 45.0000000000000 );
#131 = CURVE_STYLE( '', #205, POSITIVE_LENGTH_MEASURE( 1.00000000000000E-006 ), #206 );
#132 = CIRCLE( '', #207, 45.0000000000000 );
#133 = CURVE_STYLE( '', #208, POSITIVE_LENGTH_MEASURE( 1.00000000000000E-006 ), #209 );
#134 = CIRCLE( '', #210, 55.0000000000000 );
#135 = SURFACE_STYLE_USAGE( .BOTH., #211 );
#136 = FACE_OUTER_BOUND( '', #212, .T. );
#137 = CYLINDRICAL_SURFACE( '', #213, 55.0000000000000 );
#138 = SURFACE_STYLE_USAGE( .BOTH., #214 );
#139 = FACE_OUTER_BOUND( '', #215, .T. );
#140 = CYLINDRICAL_SURFACE( '', #216, 45.0000000000000 );
#141 = SURFACE_STYLE_USAGE( .BOTH., #217 );
#142 = CLOSED_SHELL( '', ( #65, #67, #51, #77, #71, #75 ) );
#143 = SURFACE_STYLE_USAGE( .BOTH., #218 );
#144 = FACE_OUTER_BOUND( '', #219, .T. );
#145 = FACE_BOUND( '', #220, .T. );
#146 = PLANE( '', #221 );
#147 = POINT_STYLE( ' ', #222, POSITIVE_LENGTH_MEASURE( 1.00000000000000E-006 ), #223 );
#148 = CARTESIAN_POINT( '', ( 5000.00000000000, 0.000000000000000, -55.0000000000000 ) );
#149 = SURFACE_STYLE_USAGE( .BOTH., #224 );
#150 = FACE_OUTER_BOUND( '', #225, .T. );
#151 = FACE_BOUND( '', #226, .T. );
#152 = PLANE( '', #227 );
#153 = SURFACE_STYLE_USAGE( .BOTH., #228 );
#154 = FACE_OUTER_BOUND( '', #229, .T. );
#155 = CYLINDRICAL_SURFACE( '', #230, 55.0000000000000 );
#156 = POINT_STYLE( ' ', #231, POSITIVE_LENGTH_MEASURE( 1.00000000000000E-006 ), #232 );
#157 = CARTESIAN_POINT( '', ( 0.000000000000000, 5.51072859220070E-015, 45.0000000000000 ) );
#158 = CURVE_STYLE( '', #233, POSITIVE_LENGTH_MEASURE( 1.00000000000000E-006 ), #234 );
#159 = LINE( '', #235, #236 );
#160 = CURVE_STYLE( '', #237, POSITIVE_LENGTH_MEASURE( 1.00000000000000E-006 ), #238 );
#161 = CIRCLE( '', #239, 45.0000000000000 );
#162 = POINT_STYLE( ' ', #240, POSITIVE_LENGTH_MEASURE( 1.00000000000000E-006 ), #241 );
#163 = CARTESIAN_POINT( '', ( 5000.00000000000, 6.73533494602307E-015, 55.0000000000000 ) );
#164 = CURVE_STYLE( '', #242, POSITIVE_LENGTH_MEASURE( 1.00000000000000E-006 ), #243 );
#165 = CIRCLE( '', #244, 55.0000000000000 );
#166 = POINT_STYLE( ' ', #245, POSITIVE_LENGTH_MEASURE( 1.00000000000000E-006 ), #246 );
#167 = CARTESIAN_POINT( '', ( 0.000000000000000, 0.000000000000000, -55.0000000000000 ) );
#168 = POINT_STYLE( ' ', #247, POSITIVE_LENGTH_MEASURE( 1.00000000000000E-006 ), #248 );
#169 = CARTESIAN_POINT( '', ( 5000.00000000000, 5.51072859220070E-015, 45.0000000000000 ) );
#170 = POINT_STYLE( ' ', #249, POSITIVE_LENGTH_MEASURE( 1.00000000000000E-006 ), #250 );
#171 = CARTESIAN_POINT( '', ( 0.000000000000000, 0.000000000000000, -45.0000000000000 ) );
#172 = CURVE_STYLE( '', #251, POSITIVE_LENGTH_MEASURE( 1.00000000000000E-006 ), #252 );
#173 = LINE( '', #253, #254 );
#174 = POINT_STYLE( ' ', #255, POSITIVE_LENGTH_MEASURE( 1.00000000000000E-006 ), #256 );
#175 = CARTESIAN_POINT( '', ( 0.000000000000000, 6.73533494602307E-015, 55.0000000000000 ) );
#176 = CURVE_STYLE( '', #257, POSITIVE_LENGTH_MEASURE( 1.00000000000000E-006 ), #258 );
#177 = CIRCLE( '', #259, 55.0000000000000 );
#178 = POINT_STYLE( ' ', #260, POSITIVE_LENGTH_MEASURE( 1.00000000000000E-006 ), #261 );
#179 = CARTESIAN_POINT( '', ( 5000.00000000000, 0.000000000000000, -45.0000000000000 ) );
#180 = CURVE_STYLE( '', #262, POSITIVE_LENGTH_MEASURE( 1.00000000000000E-006 ), #263 );
#181 = CIRCLE( '', #264, 55.0000000000000 );
#182 = PRODUCT_CONTEXT( '', #37, 'mechanical' );
#183 = PRODUCT_DEFINITION_FORMATION_WITH_SPECIFIED_SOURCE( ' ', 'NONE', #104, .NOT_KNOWN. );
#184 = CARTESIAN_POINT( '', ( 0.000000000000000, 0.000000000000000, 0.000000000000000 ) );
#185 = DIRECTION( '', ( 0.000000000000000, 0.000000000000000, 1.00000000000000 ) );
#186 = DIRECTION( '', ( 1.00000000000000, 0.000000000000000, 0.000000000000000 ) );
#187 =  ( NAMED_UNIT( #112 )LENGTH_UNIT(  )SI_UNIT( .MILLI., .METRE. ) );
#188 = SURFACE_SIDE_STYLE( '', ( #266 ) );
#189 = EDGE_LOOP( '', ( #267, #268, #269, #270 ) );
#190 = AXIS2_PLACEMENT_3D( '', #271, #272, #273 );
#191 = DRAUGHTING_PRE_DEFINED_CURVE_FONT( 'continuous' );
#192 = COLOUR_RGB( '', 0.689999997615810, 0.689999997615810, 0.689999997615810 );
#193 = CARTESIAN_POINT( '', ( 0.000000000000000, -5.51072859220070E-015, -45.0000000000000 ) );
#194 = VECTOR( '', #274, 1.00000000000000 );
#195 = DRAUGHTING_PRE_DEFINED_CURVE_FONT( 'continuous' );
#196 = COLOUR_RGB( '', 0.689999997615810, 0.689999997615810, 0.689999997615810 );
#197 = CARTESIAN_POINT( '', ( 0.000000000000000, 6.73533494602307E-015, 55.0000000000000 ) );
#198 = VECTOR( '', #275, 1.00000000000000 );
#199 = DRAUGHTING_PRE_DEFINED_CURVE_FONT( 'continuous' );
#200 = COLOUR_RGB( '', 0.689999997615810, 0.689999997615810, 0.689999997615810 );
#201 = AXIS2_PLACEMENT_3D( '', #276, #277, #278 );
#202 = DRAUGHTING_PRE_DEFINED_CURVE_FONT( 'continuous' );
#203 = COLOUR_RGB( '', 0.689999997615810, 0.689999997615810, 0.689999997615810 );
#204 = AXIS2_PLACEMENT_3D( '', #279, #280, #281 );
#205 = DRAUGHTING_PRE_DEFINED_CURVE_FONT( 'continuous' );
#206 = COLOUR_RGB( '', 0.689999997615810, 0.689999997615810, 0.689999997615810 );
#207 = AXIS2_PLACEMENT_3D( '', #282, #283, #284 );
#208 = DRAUGHTING_PRE_DEFINED_CURVE_FONT( 'continuous' );
#209 = COLOUR_RGB( '', 0.689999997615810, 0.689999997615810, 0.689999997615810 );
#210 = AXIS2_PLACEMENT_3D( '', #285, #286, #287 );
#211 = SURFACE_SIDE_STYLE( '', ( #288 ) );
#212 = EDGE_LOOP( '', ( #289, #290, #291, #292 ) );
#213 = AXIS2_PLACEMENT_3D( '', #293, #294, #295 );
#214 = SURFACE_SIDE_STYLE( '', ( #296 ) );
#215 = EDGE_LOOP( '', ( #297, #298, #299, #300 ) );
#216 = AXIS2_PLACEMENT_3D( '', #301, #302, #303 );
#217 = SURFACE_SIDE_STYLE( '', ( #304 ) );
#218 = SURFACE_SIDE_STYLE( '', ( #305 ) );
#219 = EDGE_LOOP( '', ( #306, #307 ) );
#220 = EDGE_LOOP( '', ( #308, #309 ) );
#221 = AXIS2_PLACEMENT_3D( '', #310, #311, #312 );
#222 = PRE_DEFINED_MARKER( '' );
#223 = COLOUR_RGB( '', 0.689999997615810, 0.689999997615810, 0.689999997615810 );
#224 = SURFACE_SIDE_STYLE( '', ( #313 ) );
#225 = EDGE_LOOP( '', ( #314, #315 ) );
#226 = EDGE_LOOP( '', ( #316, #317 ) );
#227 = AXIS2_PLACEMENT_3D( '', #318, #319, #320 );
#228 = SURFACE_SIDE_STYLE( '', ( #321 ) );
#229 = EDGE_LOOP( '', ( #322, #323, #324, #325 ) );
#230 = AXIS2_PLACEMENT_3D( '', #326, #327, #328 );
#231 = PRE_DEFINED_MARKER( '' );
#232 = COLOUR_RGB( '', 0.689999997615810, 0.689999997615810, 0.689999997615810 );
#233 = DRAUGHTING_PRE_DEFINED_CURVE_FONT( 'continuous' );
#234 = COLOUR_RGB( '', 0.689999997615810, 0.689999997615810, 0.689999997615810 );
#235 = CARTESIAN_POINT( '', ( 0.000000000000000, 5.51072859220070E-015, 45.0000000000000 ) );
#236 = VECTOR( '', #329, 1.00000000000000 );
#237 = DRAUGHTING_PRE_DEFINED_CURVE_FONT( 'continuous' );
#238 = COLOUR_RGB( '', 0.689999997615810, 0.689999997615810, 0.689999997615810 );
#239 = AXIS2_PLACEMENT_3D( '', #330, #331, #332 );
#240 = PRE_DEFINED_MARKER( '' );
#241 = COLOUR_RGB( '', 0.689999997615810, 0.689999997615810, 0.689999997615810 );
#242 = DRAUGHTING_PRE_DEFINED_CURVE_FONT( 'continuous' );
#243 = COLOUR_RGB( '', 0.689999997615810, 0.689999997615810, 0.689999997615810 );
#244 = AXIS2_PLACEMENT_3D( '', #333, #334, #335 );
#245 = PRE_DEFINED_MARKER( '' );
#246 = COLOUR_RGB( '', 0.689999997615810, 0.689999997615810, 0.689999997615810 );
#247 = PRE_DEFINED_MARKER( '' );
#248 = COLOUR_RGB( '', 0.689999997615810, 0.689999997615810, 0.689999997615810 );
#249 = PRE_DEFINED_MARKER( '' );
#250 = COLOUR_RGB( '', 0.689999997615810, 0.689999997615810, 0.689999997615810 );
#251 = DRAUGHTING_PRE_DEFINED_CURVE_FONT( 'continuous' );
#252 = COLOUR_RGB( '', 0.689999997615810, 0.689999997615810, 0.689999997615810 );
#253 = CARTESIAN_POINT( '', ( 0.000000000000000, -6.73533494602307E-015, -55.0000000000000 ) );
#254 = VECTOR( '', #336, 1.00000000000000 );
#255 = PRE_DEFINED_MARKER( '' );
#256 = COLOUR_RGB( '', 0.689999997615810, 0.689999997615810, 0.689999997615810 );
#257 = DRAUGHTING_PRE_DEFINED_CURVE_FONT( 'continuous' );
#258 = COLOUR_RGB( '', 0.689999997615810, 0.689999997615810, 0.689999997615810 );
#259 = AXIS2_PLACEMENT_3D( '', #337, #338, #339 );
#260 = PRE_DEFINED_MARKER( '' );
#261 = COLOUR_RGB( '', 0.689999997615810, 0.689999997615810, 0.689999997615810 );
#262 = DRAUGHTING_PRE_DEFINED_CURVE_FONT( 'continuous' );
#263 = COLOUR_RGB( '', 0.689999997615810, 0.689999997615810, 0.689999997615810 );
#264 = AXIS2_PLACEMENT_3D( '', #340, #341, #342 );
#266 = SURFACE_STYLE_FILL_AREA( #343 );
#267 = ORIENTED_EDGE( '', *, *, #53, .T. );
#268 = ORIENTED_EDGE( '', *, *, #83, .T. );
#269 = ORIENTED_EDGE( '', *, *, #81, .T. );
#270 = ORIENTED_EDGE( '', *, *, #57, .F. );
#271 = CARTESIAN_POINT( '', ( 0.000000000000000, 0.000000000000000, 0.000000000000000 ) );
#272 = DIRECTION( '', ( -1.00000000000000, -0.000000000000000, -0.000000000000000 ) );
#273 = DIRECTION( '', ( 0.000000000000000, 0.000000000000000, -1.00000000000000 ) );
#274 = DIRECTION( '', ( 1.00000000000000, 0.000000000000000, 0.000000000000000 ) );
#275 = DIRECTION( '', ( -1.00000000000000, -0.000000000000000, -0.000000000000000 ) );
#276 = CARTESIAN_POINT( '', ( 0.000000000000000, 0.000000000000000, 0.000000000000000 ) );
#277 = DIRECTION( '', ( 1.00000000000000, -0.000000000000000, 0.000000000000000 ) );
#278 = DIRECTION( '', ( 0.000000000000000, 0.000000000000000, -1.00000000000000 ) );
#279 = CARTESIAN_POINT( '', ( 5000.00000000000, 0.000000000000000, 0.000000000000000 ) );
#280 = DIRECTION( '', ( 1.00000000000000, 0.000000000000000, 0.000000000000000 ) );
#281 = DIRECTION( '', ( 0.000000000000000, 0.000000000000000, -1.00000000000000 ) );
#282 = CARTESIAN_POINT( '', ( 0.000000000000000, 0.000000000000000, 0.000000000000000 ) );
#283 = DIRECTION( '', ( 1.00000000000000, -0.000000000000000, 0.000000000000000 ) );
#284 = DIRECTION( '', ( 0.000000000000000, 0.000000000000000, -1.00000000000000 ) );
#285 = CARTESIAN_POINT( '', ( 0.000000000000000, 0.000000000000000, 0.000000000000000 ) );
#286 = DIRECTION( '', ( 1.00000000000000, -0.000000000000000, 0.000000000000000 ) );
#287 = DIRECTION( '', ( 0.000000000000000, 0.000000000000000, -1.00000000000000 ) );
#288 = SURFACE_STYLE_FILL_AREA( #344 );
#289 = ORIENTED_EDGE( '', *, *, #95, .F. );
#290 = ORIENTED_EDGE( '', *, *, #87, .T. );
#291 = ORIENTED_EDGE( '', *, *, #55, .F. );
#292 = ORIENTED_EDGE( '', *, *, #99, .T. );
#293 = CARTESIAN_POINT( '', ( 0.000000000000000, 0.000000000000000, 0.000000000000000 ) );
#294 = DIRECTION( '', ( -1.00000000000000, -0.000000000000000, -0.000000000000000 ) );
#295 = DIRECTION( '', ( 0.000000000000000, 0.000000000000000, -1.00000000000000 ) );
#296 = SURFACE_STYLE_FILL_AREA( #345 );
#297 = ORIENTED_EDGE( '', *, *, #53, .F. );
#298 = ORIENTED_EDGE( '', *, *, #61, .F. );
#299 = ORIENTED_EDGE( '', *, *, #81, .F. );
#300 = ORIENTED_EDGE( '', *, *, #59, .T. );
#301 = CARTESIAN_POINT( '', ( 0.000000000000000, 0.000000000000000, 0.000000000000000 ) );
#302 = DIRECTION( '', ( -1.00000000000000, -0.000000000000000, -0.000000000000000 ) );
#303 = DIRECTION( '', ( 0.000000000000000, 0.000000000000000, -1.00000000000000 ) );
#304 = SURFACE_STYLE_FILL_AREA( #346 );
#305 = SURFACE_STYLE_FILL_AREA( #347 );
#306 = ORIENTED_EDGE( '', *, *, #103, .F. );
#307 = ORIENTED_EDGE( '', *, *, #99, .F. );
#308 = ORIENTED_EDGE( '', *, *, #83, .F. );
#309 = ORIENTED_EDGE( '', *, *, #59, .F. );
#310 = CARTESIAN_POINT( '', ( 5000.00000000000, 0.000000000000000, 0.000000000000000 ) );
#311 = DIRECTION( '', ( 1.00000000000000, 0.000000000000000, 0.000000000000000 ) );
#312 = DIRECTION( '', ( 0.000000000000000, 0.000000000000000, -1.00000000000000 ) );
#313 = SURFACE_STYLE_FILL_AREA( #348 );
#314 = ORIENTED_EDGE( '', *, *, #87, .F. );
#315 = ORIENTED_EDGE( '', *, *, #63, .F. );
#316 = ORIENTED_EDGE( '', *, *, #57, .T. );
#317 = ORIENTED_EDGE( '', *, *, #61, .T. );
#318 = CARTESIAN_POINT( '', ( 0.000000000000000, 0.000000000000000, 0.000000000000000 ) );
#319 = DIRECTION( '', ( 1.00000000000000, 0.000000000000000, 0.000000000000000 ) );
#320 = DIRECTION( '', ( 0.000000000000000, 0.000000000000000, -1.00000000000000 ) );
#321 = SURFACE_STYLE_FILL_AREA( #349 );
#322 = ORIENTED_EDGE( '', *, *, #95, .T. );
#323 = ORIENTED_EDGE( '', *, *, #103, .T. );
#324 = ORIENTED_EDGE( '', *, *, #55, .T. );
#325 = ORIENTED_EDGE( '', *, *, #63, .T. );
#326 = CARTESIAN_POINT( '', ( 0.000000000000000, 0.000000000000000, 0.000000000000000 ) );
#327 = DIRECTION( '', ( -1.00000000000000, -0.000000000000000, -0.000000000000000 ) );
#328 = DIRECTION( '', ( 0.000000000000000, 0.000000000000000, -1.00000000000000 ) );
#329 = DIRECTION( '', ( -1.00000000000000, 0.000000000000000, 0.000000000000000 ) );
#330 = CARTESIAN_POINT( '', ( 5000.00000000000, 0.000000000000000, 0.000000000000000 ) );
#331 = DIRECTION( '', ( 1.00000000000000, 0.000000000000000, 0.000000000000000 ) );
#332 = DIRECTION( '', ( 0.000000000000000, 0.000000000000000, -1.00000000000000 ) );
#333 = CARTESIAN_POINT( '', ( 0.000000000000000, 0.000000000000000, 0.000000000000000 ) );
#334 = DIRECTION( '', ( 1.00000000000000, -0.000000000000000, 0.000000000000000 ) );
#335 = DIRECTION( '', ( 0.000000000000000, 0.000000000000000, -1.00000000000000 ) );
#336 = DIRECTION( '', ( 1.00000000000000, 0.000000000000000, 0.000000000000000 ) );
#337 = CARTESIAN_POINT( '', ( 5000.00000000000, 0.000000000000000, 0.000000000000000 ) );
#338 = DIRECTION( '', ( -1.00000000000000, 0.000000000000000, 0.000000000000000 ) );
#339 = DIRECTION( '', ( 0.000000000000000, 0.000000000000000, -1.00000000000000 ) );
#340 = CARTESIAN_POINT( '', ( 5000.00000000000, 0.000000000000000, 0.000000000000000 ) );
#341 = DIRECTION( '', ( -1.00000000000000, 0.000000000000000, 0.000000000000000 ) );
#342 = DIRECTION( '', ( 0.000000000000000, 0.000000000000000, -1.00000000000000 ) );
#343 = FILL_AREA_STYLE( '', ( #350 ) );
#344 = FILL_AREA_STYLE( '', ( #351 ) );
#345 = FILL_AREA_STYLE( '', ( #352 ) );
#346 = FILL_AREA_STYLE( '', ( #353 ) );
#347 = FILL_AREA_STYLE( '', ( #354 ) );
#348 = FILL_AREA_STYLE( '', ( #355 ) );
#349 = FILL_AREA_STYLE( '', ( #356 ) );
#350 = FILL_AREA_STYLE_COLOUR( '', #357 );
#351 = FILL_AREA_STYLE_COLOUR( '', #358 );
#352 = FILL_AREA_STYLE_COLOUR( '', #359 );
#353 = FILL_AREA_STYLE_COLOUR( '', #360 );
#354 = FILL_AREA_STYLE_COLOUR( '', #361 );
#355 = FILL_AREA_STYLE_COLOUR( '', #362 );
#356 = FILL_AREA_STYLE_COLOUR( '', #363 );
#357 = COLOUR_RGB( '', 0.689999997615810, 0.689999997615810, 0.689999997615810 );
#358 = COLOUR_RGB( '', 0.689999997615810, 0.689999997615810, 0.689999997615810 );
#359 = COLOUR_RGB( '', 0.689999997615810, 0.689999997615810, 0.689999997615810 );
#360 = COLOUR_RGB( '', 0.689999997615810, 0.689999997615810, 0.689999997615810 );
#361 = COLOUR_RGB( '', 0.689999997615810, 0.689999997615810, 0.689999997615810 );
#362 = COLOUR_RGB( '', 0.689999997615810, 0.689999997615810, 0.689999997615810 );
#363 = COLOUR_RGB( '', 0.689999997615810, 0.689999997615810, 0.689999997615810 );
ENDSEC;
END-ISO-10303-21;
