ISO-10303-21;
HEADER;
FILE_DESCRIPTION( ( 'STEP AP214' ), '1' );
FILE_NAME( 'p:/temp/worker_110/temp/exporttempdir_6092_23_TXNf0/format_0/3000691H.stp', '2021-12-06T12:06:57', ( 'License CC BY-ND 4.0' ), ( 'CADENAS' ), ' ', 'PARTsolutions', ' ' );
FILE_SCHEMA( ( 'AUTOMOTIVE_DESIGN { 1 0 10303 214 1 1 1 1 }' ) );
ENDSEC;
DATA;
#1 = MECHANICAL_DESIGN_GEOMETRIC_PRESENTATION_REPRESENTATION( ' ', ( #10, #11, #12, #13, #14, #15, #16, #17, #18, #19, #20, #21 ), #6 );
#2 = PRODUCT_DEFINITION_CONTEXT( '', #22, 'design' );
#3 = APPLICATION_PROTOCOL_DEFINITION( 'international standard', 'automotive_design', 2001, #22 );
#4 = PRODUCT_CATEGORY_RELATIONSHIP( 'NONE', 'NONE', #23, #24 );
#5 = SHAPE_DEFINITION_REPRESENTATION( #25, #26 );
#6 =  ( GEOMETRIC_REPRESENTATION_CONTEXT( 3 )GLOBAL_UNCERTAINTY_ASSIGNED_CONTEXT( ( #29 ) )GLOBAL_UNIT_ASSIGNED_CONTEXT( ( #31, #32, #33 ) )REPRESENTATION_CONTEXT( 'NONE', 'WORKSPACE' ) );
#10 = STYLED_ITEM( '', ( #35 ), #36 );
#11 = STYLED_ITEM( '', ( #37 ), #38 );
#12 = STYLED_ITEM( '', ( #39 ), #40 );
#13 = STYLED_ITEM( '', ( #41 ), #42 );
#14 = STYLED_ITEM( '', ( #43 ), #44 );
#15 = STYLED_ITEM( '', ( #45 ), #46 );
#16 = STYLED_ITEM( '', ( #47 ), #48 );
#17 = STYLED_ITEM( '', ( #49 ), #50 );
#18 = STYLED_ITEM( '', ( #51 ), #52 );
#19 = STYLED_ITEM( '', ( #53 ), #54 );
#20 = STYLED_ITEM( '', ( #55 ), #56 );
#21 = STYLED_ITEM( '', ( #57 ), #58 );
#22 = APPLICATION_CONTEXT( 'core data for automotive mechanical design processes' );
#23 = PRODUCT_CATEGORY( 'part', 'NONE' );
#24 = PRODUCT_RELATED_PRODUCT_CATEGORY( 'detail', ' ', ( #59 ) );
#25 = PRODUCT_DEFINITION_SHAPE( 'NONE', 'NONE', #60 );
#26 = ADVANCED_BREP_SHAPE_REPRESENTATION( '_3000691H', ( #61, #62 ), #6 );
#29 = UNCERTAINTY_MEASURE_WITH_UNIT( LENGTH_MEASURE( 0.00100000000000000 ), #31, '', '' );
#31 =  ( CONVERSION_BASED_UNIT( 'MILLIMETRE', #65 )LENGTH_UNIT(  )NAMED_UNIT( #68 ) );
#32 =  ( NAMED_UNIT( #70 )PLANE_ANGLE_UNIT(  )SI_UNIT( $, .RADIAN. ) );
#33 =  ( NAMED_UNIT( #70 )SI_UNIT( $, .STERADIAN. )SOLID_ANGLE_UNIT(  ) );
#35 = PRESENTATION_STYLE_ASSIGNMENT( ( #76 ) );
#36 = ADVANCED_FACE( '', ( #77, #78 ), #79, .F. );
#37 = PRESENTATION_STYLE_ASSIGNMENT( ( #80 ) );
#38 = ADVANCED_FACE( '', ( #81, #82, #83, #84, #85, #86, #87, #88, #89, #90 ), #91, .T. );
#39 = PRESENTATION_STYLE_ASSIGNMENT( ( #92 ) );
#40 = ADVANCED_FACE( '', ( #93, #94 ), #95, .F. );
#41 = PRESENTATION_STYLE_ASSIGNMENT( ( #96 ) );
#42 = ADVANCED_FACE( '', ( #97, #98 ), #99, .F. );
#43 = PRESENTATION_STYLE_ASSIGNMENT( ( #100 ) );
#44 = ADVANCED_FACE( '', ( #101, #102 ), #103, .F. );
#45 = PRESENTATION_STYLE_ASSIGNMENT( ( #104 ) );
#46 = ADVANCED_FACE( '', ( #105, #106 ), #107, .F. );
#47 = PRESENTATION_STYLE_ASSIGNMENT( ( #108 ) );
#48 = ADVANCED_FACE( '', ( #109, #110 ), #111, .T. );
#49 = PRESENTATION_STYLE_ASSIGNMENT( ( #112 ) );
#50 = ADVANCED_FACE( '', ( #113, #114, #115, #116, #117, #118, #119, #120, #121, #122 ), #123, .T. );
#51 = PRESENTATION_STYLE_ASSIGNMENT( ( #124 ) );
#52 = ADVANCED_FACE( '', ( #125, #126 ), #127, .F. );
#53 = PRESENTATION_STYLE_ASSIGNMENT( ( #128 ) );
#54 = ADVANCED_FACE( '', ( #129, #130 ), #131, .F. );
#55 = PRESENTATION_STYLE_ASSIGNMENT( ( #132 ) );
#56 = ADVANCED_FACE( '', ( #133, #134 ), #135, .F. );
#57 = PRESENTATION_STYLE_ASSIGNMENT( ( #136 ) );
#58 = ADVANCED_FACE( '', ( #137, #138 ), #139, .F. );
#59 = PRODUCT( '_3000691H', '_3000691H', 'PART-_3000691H-DESC', ( #140 ) );
#60 = PRODUCT_DEFINITION( 'NONE', 'NONE', #141, #2 );
#61 = MANIFOLD_SOLID_BREP( '_3000691H', #142 );
#62 = AXIS2_PLACEMENT_3D( '', #143, #144, #145 );
#65 = LENGTH_MEASURE_WITH_UNIT( LENGTH_MEASURE( 1.00000000000000 ), #146 );
#68 = DIMENSIONAL_EXPONENTS( 1.00000000000000, 0.000000000000000, 0.000000000000000, 0.000000000000000, 0.000000000000000, 0.000000000000000, 0.000000000000000 );
#70 = DIMENSIONAL_EXPONENTS( 0.000000000000000, 0.000000000000000, 0.000000000000000, 0.000000000000000, 0.000000000000000, 0.000000000000000, 0.000000000000000 );
#76 = SURFACE_STYLE_USAGE( .BOTH., #147 );
#77 = FACE_OUTER_BOUND( '', #148, .T. );
#78 = FACE_OUTER_BOUND( '', #149, .T. );
#79 = CYLINDRICAL_SURFACE( '', #150, 4.75000000000000 );
#80 = SURFACE_STYLE_USAGE( .BOTH., #151 );
#81 = FACE_BOUND( '', #152, .T. );
#82 = FACE_BOUND( '', #153, .T. );
#83 = FACE_BOUND( '', #154, .T. );
#84 = FACE_BOUND( '', #155, .T. );
#85 = FACE_BOUND( '', #156, .T. );
#86 = FACE_BOUND( '', #157, .T. );
#87 = FACE_BOUND( '', #158, .T. );
#88 = FACE_BOUND( '', #159, .T. );
#89 = FACE_BOUND( '', #160, .T. );
#90 = FACE_OUTER_BOUND( '', #161, .T. );
#91 = PLANE( '', #162 );
#92 = SURFACE_STYLE_USAGE( .BOTH., #163 );
#93 = FACE_OUTER_BOUND( '', #164, .T. );
#94 = FACE_OUTER_BOUND( '', #165, .T. );
#95 = CYLINDRICAL_SURFACE( '', #166, 4.75000000000000 );
#96 = SURFACE_STYLE_USAGE( .BOTH., #167 );
#97 = FACE_OUTER_BOUND( '', #168, .T. );
#98 = FACE_OUTER_BOUND( '', #169, .T. );
#99 = CYLINDRICAL_SURFACE( '', #170, 4.75000000000000 );
#100 = SURFACE_STYLE_USAGE( .BOTH., #171 );
#101 = FACE_OUTER_BOUND( '', #172, .T. );
#102 = FACE_OUTER_BOUND( '', #173, .T. );
#103 = CYLINDRICAL_SURFACE( '', #174, 62.5000000000000 );
#104 = SURFACE_STYLE_USAGE( .BOTH., #175 );
#105 = FACE_OUTER_BOUND( '', #176, .T. );
#106 = FACE_OUTER_BOUND( '', #177, .T. );
#107 = CYLINDRICAL_SURFACE( '', #178, 4.75000000000000 );
#108 = SURFACE_STYLE_USAGE( .BOTH., #179 );
#109 = FACE_OUTER_BOUND( '', #180, .T. );
#110 = FACE_OUTER_BOUND( '', #181, .T. );
#111 = CYLINDRICAL_SURFACE( '', #182, 92.5000000000000 );
#112 = SURFACE_STYLE_USAGE( .BOTH., #183 );
#113 = FACE_OUTER_BOUND( '', #184, .T. );
#114 = FACE_BOUND( '', #185, .T. );
#115 = FACE_BOUND( '', #186, .T. );
#116 = FACE_BOUND( '', #187, .T. );
#117 = FACE_BOUND( '', #188, .T. );
#118 = FACE_BOUND( '', #189, .T. );
#119 = FACE_BOUND( '', #190, .T. );
#120 = FACE_BOUND( '', #191, .T. );
#121 = FACE_BOUND( '', #192, .T. );
#122 = FACE_BOUND( '', #193, .T. );
#123 = PLANE( '', #194 );
#124 = SURFACE_STYLE_USAGE( .BOTH., #195 );
#125 = FACE_OUTER_BOUND( '', #196, .T. );
#126 = FACE_OUTER_BOUND( '', #197, .T. );
#127 = CYLINDRICAL_SURFACE( '', #198, 4.75000000000000 );
#128 = SURFACE_STYLE_USAGE( .BOTH., #199 );
#129 = FACE_OUTER_BOUND( '', #200, .T. );
#130 = FACE_OUTER_BOUND( '', #201, .T. );
#131 = CYLINDRICAL_SURFACE( '', #202, 4.75000000000000 );
#132 = SURFACE_STYLE_USAGE( .BOTH., #203 );
#133 = FACE_OUTER_BOUND( '', #204, .T. );
#134 = FACE_OUTER_BOUND( '', #205, .T. );
#135 = CYLINDRICAL_SURFACE( '', #206, 4.75000000000000 );
#136 = SURFACE_STYLE_USAGE( .BOTH., #207 );
#137 = FACE_OUTER_BOUND( '', #208, .T. );
#138 = FACE_OUTER_BOUND( '', #209, .T. );
#139 = CYLINDRICAL_SURFACE( '', #210, 4.75000000000000 );
#140 = PRODUCT_CONTEXT( '', #22, 'mechanical' );
#141 = PRODUCT_DEFINITION_FORMATION_WITH_SPECIFIED_SOURCE( ' ', 'NONE', #59, .NOT_KNOWN. );
#142 = CLOSED_SHELL( '', ( #50, #44, #38, #48, #52, #46, #54, #58, #56, #40, #36, #42 ) );
#143 = CARTESIAN_POINT( '', ( 0.000000000000000, 0.000000000000000, 0.000000000000000 ) );
#144 = DIRECTION( '', ( 0.000000000000000, 0.000000000000000, 1.00000000000000 ) );
#145 = DIRECTION( '', ( 1.00000000000000, 0.000000000000000, 0.000000000000000 ) );
#146 =  ( LENGTH_UNIT(  )NAMED_UNIT( #68 )SI_UNIT( .MILLI., .METRE. ) );
#147 = SURFACE_SIDE_STYLE( '', ( #212 ) );
#148 = EDGE_LOOP( '', ( #213 ) );
#149 = EDGE_LOOP( '', ( #214 ) );
#150 = AXIS2_PLACEMENT_3D( '', #215, #216, #217 );
#151 = SURFACE_SIDE_STYLE( '', ( #218 ) );
#152 = EDGE_LOOP( '', ( #219 ) );
#153 = EDGE_LOOP( '', ( #220 ) );
#154 = EDGE_LOOP( '', ( #221 ) );
#155 = EDGE_LOOP( '', ( #222 ) );
#156 = EDGE_LOOP( '', ( #223 ) );
#157 = EDGE_LOOP( '', ( #224 ) );
#158 = EDGE_LOOP( '', ( #225 ) );
#159 = EDGE_LOOP( '', ( #226 ) );
#160 = EDGE_LOOP( '', ( #227 ) );
#161 = EDGE_LOOP( '', ( #228 ) );
#162 = AXIS2_PLACEMENT_3D( '', #229, #230, #231 );
#163 = SURFACE_SIDE_STYLE( '', ( #232 ) );
#164 = EDGE_LOOP( '', ( #233 ) );
#165 = EDGE_LOOP( '', ( #234 ) );
#166 = AXIS2_PLACEMENT_3D( '', #235, #236, #237 );
#167 = SURFACE_SIDE_STYLE( '', ( #238 ) );
#168 = EDGE_LOOP( '', ( #239 ) );
#169 = EDGE_LOOP( '', ( #240 ) );
#170 = AXIS2_PLACEMENT_3D( '', #241, #242, #243 );
#171 = SURFACE_SIDE_STYLE( '', ( #244 ) );
#172 = EDGE_LOOP( '', ( #245 ) );
#173 = EDGE_LOOP( '', ( #246 ) );
#174 = AXIS2_PLACEMENT_3D( '', #247, #248, #249 );
#175 = SURFACE_SIDE_STYLE( '', ( #250 ) );
#176 = EDGE_LOOP( '', ( #251 ) );
#177 = EDGE_LOOP( '', ( #252 ) );
#178 = AXIS2_PLACEMENT_3D( '', #253, #254, #255 );
#179 = SURFACE_SIDE_STYLE( '', ( #256 ) );
#180 = EDGE_LOOP( '', ( #257 ) );
#181 = EDGE_LOOP( '', ( #258 ) );
#182 = AXIS2_PLACEMENT_3D( '', #259, #260, #261 );
#183 = SURFACE_SIDE_STYLE( '', ( #262 ) );
#184 = EDGE_LOOP( '', ( #263 ) );
#185 = EDGE_LOOP( '', ( #264 ) );
#186 = EDGE_LOOP( '', ( #265 ) );
#187 = EDGE_LOOP( '', ( #266 ) );
#188 = EDGE_LOOP( '', ( #267 ) );
#189 = EDGE_LOOP( '', ( #268 ) );
#190 = EDGE_LOOP( '', ( #269 ) );
#191 = EDGE_LOOP( '', ( #270 ) );
#192 = EDGE_LOOP( '', ( #271 ) );
#193 = EDGE_LOOP( '', ( #272 ) );
#194 = AXIS2_PLACEMENT_3D( '', #273, #274, #275 );
#195 = SURFACE_SIDE_STYLE( '', ( #276 ) );
#196 = EDGE_LOOP( '', ( #277 ) );
#197 = EDGE_LOOP( '', ( #278 ) );
#198 = AXIS2_PLACEMENT_3D( '', #279, #280, #281 );
#199 = SURFACE_SIDE_STYLE( '', ( #282 ) );
#200 = EDGE_LOOP( '', ( #283 ) );
#201 = EDGE_LOOP( '', ( #284 ) );
#202 = AXIS2_PLACEMENT_3D( '', #285, #286, #287 );
#203 = SURFACE_SIDE_STYLE( '', ( #288 ) );
#204 = EDGE_LOOP( '', ( #289 ) );
#205 = EDGE_LOOP( '', ( #290 ) );
#206 = AXIS2_PLACEMENT_3D( '', #291, #292, #293 );
#207 = SURFACE_SIDE_STYLE( '', ( #294 ) );
#208 = EDGE_LOOP( '', ( #295 ) );
#209 = EDGE_LOOP( '', ( #296 ) );
#210 = AXIS2_PLACEMENT_3D( '', #297, #298, #299 );
#212 = SURFACE_STYLE_FILL_AREA( #300 );
#213 = ORIENTED_EDGE( '', *, *, #301, .T. );
#214 = ORIENTED_EDGE( '', *, *, #302, .F. );
#215 = CARTESIAN_POINT( '', ( 3.00000000000000, 58.3363094478902, 58.3363094478902 ) );
#216 = DIRECTION( '', ( -1.00000000000000, -0.000000000000000, 0.000000000000000 ) );
#217 = DIRECTION( '', ( -0.000000000000000, 0.000000000000000, -1.00000000000000 ) );
#218 = SURFACE_STYLE_FILL_AREA( #303 );
#219 = ORIENTED_EDGE( '', *, *, #304, .T. );
#220 = ORIENTED_EDGE( '', *, *, #305, .T. );
#221 = ORIENTED_EDGE( '', *, *, #306, .T. );
#222 = ORIENTED_EDGE( '', *, *, #307, .T. );
#223 = ORIENTED_EDGE( '', *, *, #308, .T. );
#224 = ORIENTED_EDGE( '', *, *, #309, .T. );
#225 = ORIENTED_EDGE( '', *, *, #310, .T. );
#226 = ORIENTED_EDGE( '', *, *, #302, .T. );
#227 = ORIENTED_EDGE( '', *, *, #311, .T. );
#228 = ORIENTED_EDGE( '', *, *, #312, .F. );
#229 = CARTESIAN_POINT( '', ( 0.000000000000000, 92.5000000000000, 0.000000000000000 ) );
#230 = DIRECTION( '', ( -1.00000000000000, 0.000000000000000, 0.000000000000000 ) );
#231 = DIRECTION( '', ( 0.000000000000000, 0.000000000000000, 1.00000000000000 ) );
#232 = SURFACE_STYLE_FILL_AREA( #313 );
#233 = ORIENTED_EDGE( '', *, *, #314, .T. );
#234 = ORIENTED_EDGE( '', *, *, #306, .F. );
#235 = CARTESIAN_POINT( '', ( 3.00000000000000, 0.000000000000000, -82.5000000000000 ) );
#236 = DIRECTION( '', ( -1.00000000000000, -0.000000000000000, 0.000000000000000 ) );
#237 = DIRECTION( '', ( -0.000000000000000, 0.000000000000000, -1.00000000000000 ) );
#238 = SURFACE_STYLE_FILL_AREA( #315 );
#239 = ORIENTED_EDGE( '', *, *, #316, .T. );
#240 = ORIENTED_EDGE( '', *, *, #310, .F. );
#241 = CARTESIAN_POINT( '', ( 3.00000000000000, 0.000000000000000, 82.5000000000000 ) );
#242 = DIRECTION( '', ( -1.00000000000000, -0.000000000000000, 0.000000000000000 ) );
#243 = DIRECTION( '', ( -0.000000000000000, 0.000000000000000, -1.00000000000000 ) );
#244 = SURFACE_STYLE_FILL_AREA( #317 );
#245 = ORIENTED_EDGE( '', *, *, #318, .T. );
#246 = ORIENTED_EDGE( '', *, *, #304, .F. );
#247 = CARTESIAN_POINT( '', ( 3.00000000000000, 0.000000000000000, 0.000000000000000 ) );
#248 = DIRECTION( '', ( -1.00000000000000, -0.000000000000000, 0.000000000000000 ) );
#249 = DIRECTION( '', ( -0.000000000000000, 0.000000000000000, -1.00000000000000 ) );
#250 = SURFACE_STYLE_FILL_AREA( #319 );
#251 = ORIENTED_EDGE( '', *, *, #320, .T. );
#252 = ORIENTED_EDGE( '', *, *, #311, .F. );
#253 = CARTESIAN_POINT( '', ( 3.00000000000000, 58.3363094478902, -58.3363094478902 ) );
#254 = DIRECTION( '', ( -1.00000000000000, -0.000000000000000, 0.000000000000000 ) );
#255 = DIRECTION( '', ( -0.000000000000000, 0.000000000000000, -1.00000000000000 ) );
#256 = SURFACE_STYLE_FILL_AREA( #321 );
#257 = ORIENTED_EDGE( '', *, *, #312, .T. );
#258 = ORIENTED_EDGE( '', *, *, #322, .F. );
#259 = CARTESIAN_POINT( '', ( 3.00000000000000, 0.000000000000000, 0.000000000000000 ) );
#260 = DIRECTION( '', ( -1.00000000000000, -0.000000000000000, 0.000000000000000 ) );
#261 = DIRECTION( '', ( -0.000000000000000, 0.000000000000000, -1.00000000000000 ) );
#262 = SURFACE_STYLE_FILL_AREA( #323 );
#263 = ORIENTED_EDGE( '', *, *, #322, .T. );
#264 = ORIENTED_EDGE( '', *, *, #324, .T. );
#265 = ORIENTED_EDGE( '', *, *, #314, .F. );
#266 = ORIENTED_EDGE( '', *, *, #325, .F. );
#267 = ORIENTED_EDGE( '', *, *, #326, .F. );
#268 = ORIENTED_EDGE( '', *, *, #327, .F. );
#269 = ORIENTED_EDGE( '', *, *, #316, .F. );
#270 = ORIENTED_EDGE( '', *, *, #301, .F. );
#271 = ORIENTED_EDGE( '', *, *, #320, .F. );
#272 = ORIENTED_EDGE( '', *, *, #318, .F. );
#273 = CARTESIAN_POINT( '', ( 3.00000000000000, 62.5000000000000, 0.000000000000000 ) );
#274 = DIRECTION( '', ( 1.00000000000000, 0.000000000000000, -0.000000000000000 ) );
#275 = DIRECTION( '', ( -0.000000000000000, 0.000000000000000, -1.00000000000000 ) );
#276 = SURFACE_STYLE_FILL_AREA( #328 );
#277 = ORIENTED_EDGE( '', *, *, #324, .F. );
#278 = ORIENTED_EDGE( '', *, *, #305, .F. );
#279 = CARTESIAN_POINT( '', ( 3.00000000000000, 82.5000000000000, 0.000000000000000 ) );
#280 = DIRECTION( '', ( -1.00000000000000, -0.000000000000000, 0.000000000000000 ) );
#281 = DIRECTION( '', ( -0.000000000000000, 0.000000000000000, -1.00000000000000 ) );
#282 = SURFACE_STYLE_FILL_AREA( #329 );
#283 = ORIENTED_EDGE( '', *, *, #327, .T. );
#284 = ORIENTED_EDGE( '', *, *, #309, .F. );
#285 = CARTESIAN_POINT( '', ( 3.00000000000000, -58.3363094478902, 58.3363094478902 ) );
#286 = DIRECTION( '', ( -1.00000000000000, -0.000000000000000, 0.000000000000000 ) );
#287 = DIRECTION( '', ( -0.000000000000000, 0.000000000000000, -1.00000000000000 ) );
#288 = SURFACE_STYLE_FILL_AREA( #330 );
#289 = ORIENTED_EDGE( '', *, *, #325, .T. );
#290 = ORIENTED_EDGE( '', *, *, #307, .F. );
#291 = CARTESIAN_POINT( '', ( 3.00000000000000, -58.3363094478902, -58.3363094478902 ) );
#292 = DIRECTION( '', ( -1.00000000000000, -0.000000000000000, 0.000000000000000 ) );
#293 = DIRECTION( '', ( -0.000000000000000, 0.000000000000000, -1.00000000000000 ) );
#294 = SURFACE_STYLE_FILL_AREA( #331 );
#295 = ORIENTED_EDGE( '', *, *, #326, .T. );
#296 = ORIENTED_EDGE( '', *, *, #308, .F. );
#297 = CARTESIAN_POINT( '', ( 3.00000000000000, -82.5000000000000, 0.000000000000000 ) );
#298 = DIRECTION( '', ( -1.00000000000000, -0.000000000000000, 0.000000000000000 ) );
#299 = DIRECTION( '', ( -0.000000000000000, 0.000000000000000, -1.00000000000000 ) );
#300 = FILL_AREA_STYLE( '', ( #332 ) );
#301 = EDGE_CURVE( '', #333, #333, #334, .T. );
#302 = EDGE_CURVE( '', #335, #335, #336, .T. );
#303 = FILL_AREA_STYLE( '', ( #337 ) );
#304 = EDGE_CURVE( '', #338, #338, #339, .T. );
#305 = EDGE_CURVE( '', #340, #340, #341, .T. );
#306 = EDGE_CURVE( '', #342, #342, #343, .T. );
#307 = EDGE_CURVE( '', #344, #344, #345, .T. );
#308 = EDGE_CURVE( '', #346, #346, #347, .T. );
#309 = EDGE_CURVE( '', #348, #348, #349, .T. );
#310 = EDGE_CURVE( '', #350, #350, #351, .T. );
#311 = EDGE_CURVE( '', #352, #352, #353, .T. );
#312 = EDGE_CURVE( '', #354, #354, #355, .T. );
#313 = FILL_AREA_STYLE( '', ( #356 ) );
#314 = EDGE_CURVE( '', #357, #357, #358, .T. );
#315 = FILL_AREA_STYLE( '', ( #359 ) );
#316 = EDGE_CURVE( '', #360, #360, #361, .T. );
#317 = FILL_AREA_STYLE( '', ( #362 ) );
#318 = EDGE_CURVE( '', #363, #363, #364, .T. );
#319 = FILL_AREA_STYLE( '', ( #365 ) );
#320 = EDGE_CURVE( '', #366, #366, #367, .T. );
#321 = FILL_AREA_STYLE( '', ( #368 ) );
#322 = EDGE_CURVE( '', #369, #369, #370, .T. );
#323 = FILL_AREA_STYLE( '', ( #371 ) );
#324 = EDGE_CURVE( '', #372, #372, #373, .F. );
#325 = EDGE_CURVE( '', #374, #374, #375, .T. );
#326 = EDGE_CURVE( '', #376, #376, #377, .T. );
#327 = EDGE_CURVE( '', #378, #378, #379, .T. );
#328 = FILL_AREA_STYLE( '', ( #380 ) );
#329 = FILL_AREA_STYLE( '', ( #381 ) );
#330 = FILL_AREA_STYLE( '', ( #382 ) );
#331 = FILL_AREA_STYLE( '', ( #383 ) );
#332 = FILL_AREA_STYLE_COLOUR( '', #384 );
#333 = VERTEX_POINT( '', #385 );
#334 = CIRCLE( '', #386, 4.75000000000000 );
#335 = VERTEX_POINT( '', #387 );
#336 = CIRCLE( '', #388, 4.75000000000000 );
#337 = FILL_AREA_STYLE_COLOUR( '', #389 );
#338 = VERTEX_POINT( '', #390 );
#339 = CIRCLE( '', #391, 62.5000000000000 );
#340 = VERTEX_POINT( '', #392 );
#341 = CIRCLE( '', #393, 4.75000000000000 );
#342 = VERTEX_POINT( '', #394 );
#343 = CIRCLE( '', #395, 4.75000000000000 );
#344 = VERTEX_POINT( '', #396 );
#345 = CIRCLE( '', #397, 4.75000000000000 );
#346 = VERTEX_POINT( '', #398 );
#347 = CIRCLE( '', #399, 4.75000000000000 );
#348 = VERTEX_POINT( '', #400 );
#349 = CIRCLE( '', #401, 4.75000000000000 );
#350 = VERTEX_POINT( '', #402 );
#351 = CIRCLE( '', #403, 4.75000000000000 );
#352 = VERTEX_POINT( '', #404 );
#353 = CIRCLE( '', #405, 4.75000000000000 );
#354 = VERTEX_POINT( '', #406 );
#355 = CIRCLE( '', #407, 92.5000000000000 );
#356 = FILL_AREA_STYLE_COLOUR( '', #408 );
#357 = VERTEX_POINT( '', #409 );
#358 = CIRCLE( '', #410, 4.75000000000000 );
#359 = FILL_AREA_STYLE_COLOUR( '', #411 );
#360 = VERTEX_POINT( '', #412 );
#361 = CIRCLE( '', #413, 4.75000000000000 );
#362 = FILL_AREA_STYLE_COLOUR( '', #414 );
#363 = VERTEX_POINT( '', #415 );
#364 = CIRCLE( '', #416, 62.5000000000000 );
#365 = FILL_AREA_STYLE_COLOUR( '', #417 );
#366 = VERTEX_POINT( '', #418 );
#367 = CIRCLE( '', #419, 4.75000000000000 );
#368 = FILL_AREA_STYLE_COLOUR( '', #420 );
#369 = VERTEX_POINT( '', #421 );
#370 = CIRCLE( '', #422, 92.5000000000000 );
#371 = FILL_AREA_STYLE_COLOUR( '', #423 );
#372 = VERTEX_POINT( '', #424 );
#373 = CIRCLE( '', #425, 4.75000000000000 );
#374 = VERTEX_POINT( '', #426 );
#375 = CIRCLE( '', #427, 4.75000000000000 );
#376 = VERTEX_POINT( '', #428 );
#377 = CIRCLE( '', #429, 4.75000000000000 );
#378 = VERTEX_POINT( '', #430 );
#379 = CIRCLE( '', #431, 4.75000000000000 );
#380 = FILL_AREA_STYLE_COLOUR( '', #432 );
#381 = FILL_AREA_STYLE_COLOUR( '', #433 );
#382 = FILL_AREA_STYLE_COLOUR( '', #434 );
#383 = FILL_AREA_STYLE_COLOUR( '', #435 );
#384 = COLOUR_RGB( '', 0.689999997600000, 0.689999997600000, 0.689999997600000 );
#385 = CARTESIAN_POINT( '', ( 3.00000000000000, 58.3363094478902, 53.5863094478902 ) );
#386 = AXIS2_PLACEMENT_3D( '', #436, #437, #438 );
#387 = CARTESIAN_POINT( '', ( 0.000000000000000, 58.3363094478902, 53.5863094478902 ) );
#388 = AXIS2_PLACEMENT_3D( '', #439, #440, #441 );
#389 = COLOUR_RGB( '', 0.689999997600000, 0.689999997600000, 0.689999997600000 );
#390 = CARTESIAN_POINT( '', ( 0.000000000000000, 0.000000000000000, -62.5000000000000 ) );
#391 = AXIS2_PLACEMENT_3D( '', #442, #443, #444 );
#392 = CARTESIAN_POINT( '', ( 0.000000000000000, 82.5000000000000, -4.75000000000000 ) );
#393 = AXIS2_PLACEMENT_3D( '', #445, #446, #447 );
#394 = CARTESIAN_POINT( '', ( 0.000000000000000, 0.000000000000000, -87.2500000000000 ) );
#395 = AXIS2_PLACEMENT_3D( '', #448, #449, #450 );
#396 = CARTESIAN_POINT( '', ( 0.000000000000000, -58.3363094478902, -63.0863094478902 ) );
#397 = AXIS2_PLACEMENT_3D( '', #451, #452, #453 );
#398 = CARTESIAN_POINT( '', ( 0.000000000000000, -82.5000000000000, -4.75000000000000 ) );
#399 = AXIS2_PLACEMENT_3D( '', #454, #455, #456 );
#400 = CARTESIAN_POINT( '', ( 0.000000000000000, -58.3363094478902, 53.5863094478902 ) );
#401 = AXIS2_PLACEMENT_3D( '', #457, #458, #459 );
#402 = CARTESIAN_POINT( '', ( 0.000000000000000, 0.000000000000000, 77.7500000000000 ) );
#403 = AXIS2_PLACEMENT_3D( '', #460, #461, #462 );
#404 = CARTESIAN_POINT( '', ( 0.000000000000000, 58.3363094478902, -63.0863094478902 ) );
#405 = AXIS2_PLACEMENT_3D( '', #463, #464, #465 );
#406 = CARTESIAN_POINT( '', ( 0.000000000000000, 0.000000000000000, -92.5000000000000 ) );
#407 = AXIS2_PLACEMENT_3D( '', #466, #467, #468 );
#408 = COLOUR_RGB( '', 0.689999997600000, 0.689999997600000, 0.689999997600000 );
#409 = CARTESIAN_POINT( '', ( 3.00000000000000, 0.000000000000000, -87.2500000000000 ) );
#410 = AXIS2_PLACEMENT_3D( '', #469, #470, #471 );
#411 = COLOUR_RGB( '', 0.689999997600000, 0.689999997600000, 0.689999997600000 );
#412 = CARTESIAN_POINT( '', ( 3.00000000000000, 0.000000000000000, 77.7500000000000 ) );
#413 = AXIS2_PLACEMENT_3D( '', #472, #473, #474 );
#414 = COLOUR_RGB( '', 0.689999997600000, 0.689999997600000, 0.689999997600000 );
#415 = CARTESIAN_POINT( '', ( 3.00000000000000, 0.000000000000000, -62.5000000000000 ) );
#416 = AXIS2_PLACEMENT_3D( '', #475, #476, #477 );
#417 = COLOUR_RGB( '', 0.689999997600000, 0.689999997600000, 0.689999997600000 );
#418 = CARTESIAN_POINT( '', ( 3.00000000000000, 58.3363094478902, -63.0863094478902 ) );
#419 = AXIS2_PLACEMENT_3D( '', #478, #479, #480 );
#420 = COLOUR_RGB( '', 0.689999997600000, 0.689999997600000, 0.689999997600000 );
#421 = CARTESIAN_POINT( '', ( 3.00000000000000, 0.000000000000000, -92.5000000000000 ) );
#422 = AXIS2_PLACEMENT_3D( '', #481, #482, #483 );
#423 = COLOUR_RGB( '', 0.689999997600000, 0.689999997600000, 0.689999997600000 );
#424 = CARTESIAN_POINT( '', ( 3.00000000000000, 82.5000000000000, -4.75000000000000 ) );
#425 = AXIS2_PLACEMENT_3D( '', #484, #485, #486 );
#426 = CARTESIAN_POINT( '', ( 3.00000000000000, -58.3363094478902, -63.0863094478902 ) );
#427 = AXIS2_PLACEMENT_3D( '', #487, #488, #489 );
#428 = CARTESIAN_POINT( '', ( 3.00000000000000, -82.5000000000000, -4.75000000000000 ) );
#429 = AXIS2_PLACEMENT_3D( '', #490, #491, #492 );
#430 = CARTESIAN_POINT( '', ( 3.00000000000000, -58.3363094478902, 53.5863094478902 ) );
#431 = AXIS2_PLACEMENT_3D( '', #493, #494, #495 );
#432 = COLOUR_RGB( '', 0.689999997600000, 0.689999997600000, 0.689999997600000 );
#433 = COLOUR_RGB( '', 0.689999997600000, 0.689999997600000, 0.689999997600000 );
#434 = COLOUR_RGB( '', 0.689999997600000, 0.689999997600000, 0.689999997600000 );
#435 = COLOUR_RGB( '', 0.689999997600000, 0.689999997600000, 0.689999997600000 );
#436 = CARTESIAN_POINT( '', ( 3.00000000000000, 58.3363094478902, 58.3363094478902 ) );
#437 = DIRECTION( '', ( 1.00000000000000, 0.000000000000000, -0.000000000000000 ) );
#438 = DIRECTION( '', ( -0.000000000000000, 0.000000000000000, -1.00000000000000 ) );
#439 = CARTESIAN_POINT( '', ( 0.000000000000000, 58.3363094478902, 58.3363094478902 ) );
#440 = DIRECTION( '', ( 1.00000000000000, 0.000000000000000, -0.000000000000000 ) );
#441 = DIRECTION( '', ( -0.000000000000000, 0.000000000000000, -1.00000000000000 ) );
#442 = CARTESIAN_POINT( '', ( 0.000000000000000, 0.000000000000000, 0.000000000000000 ) );
#443 = DIRECTION( '', ( 1.00000000000000, 0.000000000000000, -0.000000000000000 ) );
#444 = DIRECTION( '', ( -0.000000000000000, 0.000000000000000, -1.00000000000000 ) );
#445 = CARTESIAN_POINT( '', ( 0.000000000000000, 82.5000000000000, 0.000000000000000 ) );
#446 = DIRECTION( '', ( 1.00000000000000, 0.000000000000000, -0.000000000000000 ) );
#447 = DIRECTION( '', ( -0.000000000000000, 0.000000000000000, -1.00000000000000 ) );
#448 = CARTESIAN_POINT( '', ( 0.000000000000000, 0.000000000000000, -82.5000000000000 ) );
#449 = DIRECTION( '', ( 1.00000000000000, 0.000000000000000, -0.000000000000000 ) );
#450 = DIRECTION( '', ( -0.000000000000000, 0.000000000000000, -1.00000000000000 ) );
#451 = CARTESIAN_POINT( '', ( 0.000000000000000, -58.3363094478902, -58.3363094478902 ) );
#452 = DIRECTION( '', ( 1.00000000000000, 0.000000000000000, -0.000000000000000 ) );
#453 = DIRECTION( '', ( -0.000000000000000, 0.000000000000000, -1.00000000000000 ) );
#454 = CARTESIAN_POINT( '', ( 0.000000000000000, -82.5000000000000, 0.000000000000000 ) );
#455 = DIRECTION( '', ( 1.00000000000000, 0.000000000000000, -0.000000000000000 ) );
#456 = DIRECTION( '', ( -0.000000000000000, 0.000000000000000, -1.00000000000000 ) );
#457 = CARTESIAN_POINT( '', ( 0.000000000000000, -58.3363094478902, 58.3363094478902 ) );
#458 = DIRECTION( '', ( 1.00000000000000, 0.000000000000000, -0.000000000000000 ) );
#459 = DIRECTION( '', ( -0.000000000000000, 0.000000000000000, -1.00000000000000 ) );
#460 = CARTESIAN_POINT( '', ( 0.000000000000000, 0.000000000000000, 82.5000000000000 ) );
#461 = DIRECTION( '', ( 1.00000000000000, 0.000000000000000, -0.000000000000000 ) );
#462 = DIRECTION( '', ( -0.000000000000000, 0.000000000000000, -1.00000000000000 ) );
#463 = CARTESIAN_POINT( '', ( 0.000000000000000, 58.3363094478902, -58.3363094478902 ) );
#464 = DIRECTION( '', ( 1.00000000000000, 0.000000000000000, -0.000000000000000 ) );
#465 = DIRECTION( '', ( -0.000000000000000, 0.000000000000000, -1.00000000000000 ) );
#466 = CARTESIAN_POINT( '', ( 0.000000000000000, 0.000000000000000, 0.000000000000000 ) );
#467 = DIRECTION( '', ( 1.00000000000000, 0.000000000000000, -0.000000000000000 ) );
#468 = DIRECTION( '', ( -0.000000000000000, 0.000000000000000, -1.00000000000000 ) );
#469 = CARTESIAN_POINT( '', ( 3.00000000000000, 0.000000000000000, -82.5000000000000 ) );
#470 = DIRECTION( '', ( 1.00000000000000, 0.000000000000000, -0.000000000000000 ) );
#471 = DIRECTION( '', ( -0.000000000000000, 0.000000000000000, -1.00000000000000 ) );
#472 = CARTESIAN_POINT( '', ( 3.00000000000000, 0.000000000000000, 82.5000000000000 ) );
#473 = DIRECTION( '', ( 1.00000000000000, 0.000000000000000, -0.000000000000000 ) );
#474 = DIRECTION( '', ( -0.000000000000000, 0.000000000000000, -1.00000000000000 ) );
#475 = CARTESIAN_POINT( '', ( 3.00000000000000, 0.000000000000000, 0.000000000000000 ) );
#476 = DIRECTION( '', ( 1.00000000000000, 0.000000000000000, -0.000000000000000 ) );
#477 = DIRECTION( '', ( -0.000000000000000, 0.000000000000000, -1.00000000000000 ) );
#478 = CARTESIAN_POINT( '', ( 3.00000000000000, 58.3363094478902, -58.3363094478902 ) );
#479 = DIRECTION( '', ( 1.00000000000000, 0.000000000000000, -0.000000000000000 ) );
#480 = DIRECTION( '', ( -0.000000000000000, 0.000000000000000, -1.00000000000000 ) );
#481 = CARTESIAN_POINT( '', ( 3.00000000000000, 0.000000000000000, 0.000000000000000 ) );
#482 = DIRECTION( '', ( 1.00000000000000, 0.000000000000000, -0.000000000000000 ) );
#483 = DIRECTION( '', ( -0.000000000000000, 0.000000000000000, -1.00000000000000 ) );
#484 = CARTESIAN_POINT( '', ( 3.00000000000000, 82.5000000000000, 0.000000000000000 ) );
#485 = DIRECTION( '', ( 1.00000000000000, 0.000000000000000, -0.000000000000000 ) );
#486 = DIRECTION( '', ( -0.000000000000000, 0.000000000000000, -1.00000000000000 ) );
#487 = CARTESIAN_POINT( '', ( 3.00000000000000, -58.3363094478902, -58.3363094478902 ) );
#488 = DIRECTION( '', ( 1.00000000000000, 0.000000000000000, -0.000000000000000 ) );
#489 = DIRECTION( '', ( -0.000000000000000, 0.000000000000000, -1.00000000000000 ) );
#490 = CARTESIAN_POINT( '', ( 3.00000000000000, -82.5000000000000, 0.000000000000000 ) );
#491 = DIRECTION( '', ( 1.00000000000000, 0.000000000000000, -0.000000000000000 ) );
#492 = DIRECTION( '', ( -0.000000000000000, 0.000000000000000, -1.00000000000000 ) );
#493 = CARTESIAN_POINT( '', ( 3.00000000000000, -58.3363094478902, 58.3363094478902 ) );
#494 = DIRECTION( '', ( 1.00000000000000, 0.000000000000000, -0.000000000000000 ) );
#495 = DIRECTION( '', ( -0.000000000000000, 0.000000000000000, -1.00000000000000 ) );
ENDSEC;
END-ISO-10303-21;
