ISO-10303-21;
HEADER;
/* Generated by software containing ST-Developer
 * from STEP Tools, Inc. (www.steptools.com) 
 */
/* OPTION: using custom renumber hook */

FILE_DESCRIPTION(
/* description */ ('STEP AP203'),
/* implementation_level */ '2;1');

FILE_NAME(
/* name */ '30065221121(architecture400)',
/* time_stamp */ '2022-06-20T12:57:37+02:00',
/* author */ ('License CC BY-ND 4.0'),
/* organization */ ('CADENAS'),
/* preprocessor_version */ 'ST-DEVELOPER v18.102',
/* originating_system */ 'PARTsolutions',
/* authorisation */ '  ');

FILE_SCHEMA (('CONFIG_CONTROL_DESIGN'));
ENDSEC;

DATA;
#10=PROPERTY_DEFINITION_REPRESENTATION(#14,#12);
#11=PROPERTY_DEFINITION_REPRESENTATION(#15,#13);
#12=REPRESENTATION('',(#16),#424);
#13=REPRESENTATION('',(#17),#424);
#14=PROPERTY_DEFINITION('pmi validation property','',#429);
#15=PROPERTY_DEFINITION('pmi validation property','',#429);
#16=VALUE_REPRESENTATION_ITEM('number of annotations',COUNT_MEASURE(0.));
#17=VALUE_REPRESENTATION_ITEM('number of views',COUNT_MEASURE(0.));
#18=SHAPE_REPRESENTATION_RELATIONSHIP('','',#183,#19);
#19=ADVANCED_BREP_SHAPE_REPRESENTATION('',(#181),#424);
#20=CONICAL_SURFACE('',#195,112.5,0.785398163397447);
#21=CONICAL_SURFACE('',#196,117.9,0.785398163397452);
#22=CONICAL_SURFACE('',#208,55.,0.785398163397472);
#23=PLANE('',#191);
#24=PLANE('',#200);
#25=PLANE('',#203);
#26=B_SPLINE_CURVE_WITH_KNOTS('',3,(#268,#269,#270,#271,#272,#273,#274,
#275,#276,#277,#278,#279,#280,#281,#282,#283,#284,#285,#286,#287,#288,#289,
#290,#291,#292,#293,#294,#295,#296,#297,#298,#299,#300,#301,#302,#303,#304,
#305,#306,#307,#308,#309,#310,#311,#312,#313,#314,#315,#316,#317,#318,#319,
#320,#321,#322,#323,#324,#325,#326),.UNSPECIFIED.,.T.,.F.,(1,1,1,1,1,1,
1,1,1,1,1,1,1,1,1,1,1,1,1,1,1,1,1,1,1,1,1,1,1,1,1,1,1,1,1,1,1,1,1,1,1,1,
1,1,1,1,1,1,1,1,1,1,1,1,1,1,1,1,1,1,1,1,1),(-0.0246615024415625,-0.01972920195325,
-0.00986460097662495,0.,0.00493230048831248,0.00986460097662496,0.0147969014649374,
0.0197292019532499,0.0295938029298749,0.0345261034181874,0.0394584039064999,
0.0443907043948123,0.0493230048831248,0.0542553053714373,0.0591876058597498,
0.0641199063480623,0.0690522068363748,0.0789168078129997,0.0838491083013122,
0.0887814087896247,0.0937137092779372,0.0986460097662497,0.108510610742875,
0.113442911231187,0.1183752117195,0.123307512207812,0.128239812696125,0.133172113184437,
0.13810441367275,0.143036714161062,0.147969014649374,0.152901315137687,
0.157833615625999,0.167698216602624,0.172630517090937,0.177562817579249,
0.182495118067562,0.187427418555874,0.192359719044187,0.197292019532499,
0.207156620509124,0.212088920997437,0.217021221485749,0.221953521974062,
0.226885822462374,0.231818122950687,0.236750423438999,0.241682723927312,
0.246615024415624,0.256479625392249,0.261411925880562,0.266344226368874,
0.271276526857187,0.276208827345499,0.281141127833812,0.286073428322124,
0.291005728810436,0.295938029298749,0.305802630275374,0.315667231251999,
0.320599531740311,0.325531832228624,0.330464132716936),.UNSPECIFIED.);
#27=B_SPLINE_CURVE_WITH_KNOTS('',3,(#331,#332,#333,#334,#335,#336,#337,
#338,#339,#340,#341,#342,#343,#344,#345,#346,#347,#348,#349,#350,#351,#352,
#353,#354,#355,#356,#357,#358,#359,#360,#361,#362,#363,#364,#365,#366,#367,
#368,#369,#370,#371,#372,#373,#374,#375,#376,#377,#378,#379,#380,#381,#382,
#383,#384,#385,#386,#387,#388,#389,#390,#391,#392),.UNSPECIFIED.,.T.,.F.,
(1,1,1,1,1,1,1,1,1,1,1,1,1,1,1,1,1,1,1,1,1,1,1,1,1,1,1,1,1,1,1,1,1,1,1,
1,1,1,1,1,1,1,1,1,1,1,1,1,1,1,1,1,1,1,1,1,1,1,1,1,1,1,1,1,1,1),(-0.0228855191717056,
-0.0114427595858528,-0.00572137979292636,0.,0.00572137979292639,0.0114427595858528,
0.0171641393787792,0.0228855191717056,0.028606898964632,0.0343282787575584,
0.0400496585504848,0.0457710383434112,0.0514924181363376,0.0572137979292639,
0.0629351777221903,0.0686565575151167,0.0743779373080431,0.0800993171009695,
0.0915420766868223,0.0972634564797487,0.102984836272675,0.108706216065601,
0.114427595858528,0.125870355444381,0.131591735237307,0.137313115030233,
0.14303449482316,0.148755874616086,0.154477254409013,0.160198634201939,
0.165920013994865,0.171641393787792,0.177362773580718,0.183084153373645,
0.188805533166571,0.194526912959497,0.200248292752424,0.20596967254535,
0.211691052338277,0.217412432131203,0.223133811924129,0.228855191717056,
0.240297951302909,0.246019331095835,0.251740710888761,0.257462090681688,
0.263183470474614,0.268904850267541,0.274626230060467,0.280347609853393,
0.28606898964632,0.297511749232172,0.303233129025099,0.308954508818025,
0.314675888610952,0.320397268403878,0.326118648196804,0.331840027989731,
0.337561407782657,0.343282787575584,0.354725547161436,0.360446926954363,
0.366168306747289,0.371889686540216,0.377611066333142,0.383332446126068),
 .UNSPECIFIED.);
#28=ORIENTED_EDGE('',*,*,#56,.T.);
#29=ORIENTED_EDGE('',*,*,#57,.T.);
#30=ORIENTED_EDGE('',*,*,#58,.T.);
#31=ORIENTED_EDGE('',*,*,#59,.F.);
#32=ORIENTED_EDGE('',*,*,#60,.F.);
#33=ORIENTED_EDGE('',*,*,#61,.T.);
#34=ORIENTED_EDGE('',*,*,#62,.F.);
#35=ORIENTED_EDGE('',*,*,#56,.F.);
#36=ORIENTED_EDGE('',*,*,#63,.F.);
#37=ORIENTED_EDGE('',*,*,#62,.T.);
#38=ORIENTED_EDGE('',*,*,#61,.F.);
#39=ORIENTED_EDGE('',*,*,#63,.T.);
#40=ORIENTED_EDGE('',*,*,#64,.F.);
#41=ORIENTED_EDGE('',*,*,#59,.T.);
#42=ORIENTED_EDGE('',*,*,#65,.F.);
#43=ORIENTED_EDGE('',*,*,#64,.T.);
#44=ORIENTED_EDGE('',*,*,#57,.F.);
#45=ORIENTED_EDGE('',*,*,#65,.T.);
#46=ORIENTED_EDGE('',*,*,#60,.T.);
#47=ORIENTED_EDGE('',*,*,#66,.T.);
#48=ORIENTED_EDGE('',*,*,#67,.F.);
#49=ORIENTED_EDGE('',*,*,#68,.F.);
#50=ORIENTED_EDGE('',*,*,#69,.F.);
#51=ORIENTED_EDGE('',*,*,#67,.T.);
#52=ORIENTED_EDGE('',*,*,#66,.F.);
#53=ORIENTED_EDGE('',*,*,#69,.T.);
#54=ORIENTED_EDGE('',*,*,#58,.F.);
#55=ORIENTED_EDGE('',*,*,#68,.T.);
#56=EDGE_CURVE('',#70,#70,#84,.F.);
#57=EDGE_CURVE('',#71,#71,#85,.F.);
#58=EDGE_CURVE('',#72,#72,#26,.T.);
#59=EDGE_CURVE('',#73,#73,#86,.T.);
#60=EDGE_CURVE('',#74,#74,#27,.T.);
#61=EDGE_CURVE('',#75,#75,#87,.T.);
#62=EDGE_CURVE('',#76,#76,#88,.T.);
#63=EDGE_CURVE('',#77,#77,#89,.T.);
#64=EDGE_CURVE('',#78,#78,#90,.T.);
#65=EDGE_CURVE('',#79,#79,#91,.T.);
#66=EDGE_CURVE('',#80,#80,#92,.T.);
#67=EDGE_CURVE('',#81,#81,#93,.T.);
#68=EDGE_CURVE('',#82,#82,#94,.F.);
#69=EDGE_CURVE('',#83,#83,#95,.T.);
#70=VERTEX_POINT('',#265);
#71=VERTEX_POINT('',#267);
#72=VERTEX_POINT('',#327);
#73=VERTEX_POINT('',#330);
#74=VERTEX_POINT('',#393);
#75=VERTEX_POINT('',#395);
#76=VERTEX_POINT('',#398);
#77=VERTEX_POINT('',#401);
#78=VERTEX_POINT('',#405);
#79=VERTEX_POINT('',#408);
#80=VERTEX_POINT('',#412);
#81=VERTEX_POINT('',#415);
#82=VERTEX_POINT('',#417);
#83=VERTEX_POINT('',#420);
#84=CIRCLE('',#186,101.7);
#85=CIRCLE('',#187,101.7);
#86=CIRCLE('',#189,117.9);
#87=CIRCLE('',#190,117.9);
#88=CIRCLE('',#192,112.5);
#89=CIRCLE('',#194,112.5);
#90=CIRCLE('',#197,112.5);
#91=CIRCLE('',#199,112.5);
#92=CIRCLE('',#202,57.65);
#93=CIRCLE('',#204,55.);
#94=CIRCLE('',#205,49.7);
#95=CIRCLE('',#207,55.);
#96=EDGE_LOOP('',(#28));
#97=EDGE_LOOP('',(#29));
#98=EDGE_LOOP('',(#30));
#99=EDGE_LOOP('',(#31));
#100=EDGE_LOOP('',(#32));
#101=EDGE_LOOP('',(#33));
#102=EDGE_LOOP('',(#34));
#103=EDGE_LOOP('',(#35));
#104=EDGE_LOOP('',(#36));
#105=EDGE_LOOP('',(#37));
#106=EDGE_LOOP('',(#38));
#107=EDGE_LOOP('',(#39));
#108=EDGE_LOOP('',(#40));
#109=EDGE_LOOP('',(#41));
#110=EDGE_LOOP('',(#42));
#111=EDGE_LOOP('',(#43));
#112=EDGE_LOOP('',(#44));
#113=EDGE_LOOP('',(#45));
#114=EDGE_LOOP('',(#46));
#115=EDGE_LOOP('',(#47));
#116=EDGE_LOOP('',(#48));
#117=EDGE_LOOP('',(#49));
#118=EDGE_LOOP('',(#50));
#119=EDGE_LOOP('',(#51));
#120=EDGE_LOOP('',(#52));
#121=EDGE_LOOP('',(#53));
#122=EDGE_LOOP('',(#54));
#123=EDGE_LOOP('',(#55));
#124=FACE_BOUND('',#96,.T.);
#125=FACE_BOUND('',#97,.T.);
#126=FACE_BOUND('',#98,.T.);
#127=FACE_BOUND('',#99,.T.);
#128=FACE_BOUND('',#100,.T.);
#129=FACE_BOUND('',#101,.T.);
#130=FACE_BOUND('',#102,.T.);
#131=FACE_BOUND('',#103,.T.);
#132=FACE_BOUND('',#104,.T.);
#133=FACE_BOUND('',#105,.T.);
#134=FACE_BOUND('',#106,.T.);
#135=FACE_BOUND('',#107,.T.);
#136=FACE_BOUND('',#108,.T.);
#137=FACE_BOUND('',#109,.T.);
#138=FACE_BOUND('',#110,.T.);
#139=FACE_BOUND('',#111,.T.);
#140=FACE_BOUND('',#112,.T.);
#141=FACE_BOUND('',#113,.T.);
#142=FACE_BOUND('',#114,.T.);
#143=FACE_BOUND('',#115,.T.);
#144=FACE_BOUND('',#116,.T.);
#145=FACE_BOUND('',#117,.T.);
#146=FACE_BOUND('',#118,.T.);
#147=FACE_BOUND('',#119,.T.);
#148=FACE_BOUND('',#120,.T.);
#149=FACE_BOUND('',#121,.T.);
#150=FACE_BOUND('',#122,.T.);
#151=FACE_BOUND('',#123,.T.);
#152=CYLINDRICAL_SURFACE('',#185,101.7);
#153=CYLINDRICAL_SURFACE('',#188,117.9);
#154=CYLINDRICAL_SURFACE('',#193,112.5);
#155=CYLINDRICAL_SURFACE('',#198,112.5);
#156=CYLINDRICAL_SURFACE('',#201,57.65);
#157=CYLINDRICAL_SURFACE('',#206,55.);
#158=CYLINDRICAL_SURFACE('',#209,49.7);
#159=ADVANCED_FACE('',(#124,#125,#126),#152,.F.);
#160=ADVANCED_FACE('',(#127,#128,#129),#153,.T.);
#161=ADVANCED_FACE('',(#130,#131),#23,.F.);
#162=ADVANCED_FACE('',(#132,#133),#154,.T.);
#163=ADVANCED_FACE('',(#134,#135),#20,.T.);
#164=ADVANCED_FACE('',(#136,#137),#21,.T.);
#165=ADVANCED_FACE('',(#138,#139),#155,.T.);
#166=ADVANCED_FACE('',(#140,#141),#24,.F.);
#167=ADVANCED_FACE('',(#142,#143),#156,.T.);
#168=ADVANCED_FACE('',(#144,#145),#25,.F.);
#169=ADVANCED_FACE('',(#146,#147),#157,.T.);
#170=ADVANCED_FACE('',(#148,#149),#22,.T.);
#171=ADVANCED_FACE('',(#150,#151),#158,.F.);
#172=CLOSED_SHELL('',(#159,#160,#161,#162,#163,#164,#165,#166,#167,#168,
#169,#170,#171));
#173=STYLED_ITEM('',(#174),#181);
#174=PRESENTATION_STYLE_ASSIGNMENT((#175));
#175=SURFACE_STYLE_USAGE(.BOTH.,#176);
#176=SURFACE_SIDE_STYLE('',(#177));
#177=SURFACE_STYLE_FILL_AREA(#178);
#178=FILL_AREA_STYLE('',(#179));
#179=FILL_AREA_STYLE_COLOUR('',#180);
#180=COLOUR_RGB('',0.689999997615814,0.689999997615814,0.689999997615814);
#181=MANIFOLD_SOLID_BREP('30065221121(architecture400)',#172);
#182=SHAPE_DEFINITION_REPRESENTATION(#429,#183);
#183=SHAPE_REPRESENTATION('30065221121(architecture400)',(#184),#424);
#184=AXIS2_PLACEMENT_3D('',#262,#210,#211);
#185=AXIS2_PLACEMENT_3D('',#263,#212,#213);
#186=AXIS2_PLACEMENT_3D('',#264,#214,#215);
#187=AXIS2_PLACEMENT_3D('',#266,#216,#217);
#188=AXIS2_PLACEMENT_3D('',#328,#218,#219);
#189=AXIS2_PLACEMENT_3D('',#329,#220,#221);
#190=AXIS2_PLACEMENT_3D('',#394,#222,#223);
#191=AXIS2_PLACEMENT_3D('',#396,#224,#225);
#192=AXIS2_PLACEMENT_3D('',#397,#226,#227);
#193=AXIS2_PLACEMENT_3D('',#399,#228,#229);
#194=AXIS2_PLACEMENT_3D('',#400,#230,#231);
#195=AXIS2_PLACEMENT_3D('',#402,#232,#233);
#196=AXIS2_PLACEMENT_3D('',#403,#234,#235);
#197=AXIS2_PLACEMENT_3D('',#404,#236,#237);
#198=AXIS2_PLACEMENT_3D('',#406,#238,#239);
#199=AXIS2_PLACEMENT_3D('',#407,#240,#241);
#200=AXIS2_PLACEMENT_3D('',#409,#242,#243);
#201=AXIS2_PLACEMENT_3D('',#410,#244,#245);
#202=AXIS2_PLACEMENT_3D('',#411,#246,#247);
#203=AXIS2_PLACEMENT_3D('',#413,#248,#249);
#204=AXIS2_PLACEMENT_3D('',#414,#250,#251);
#205=AXIS2_PLACEMENT_3D('',#416,#252,#253);
#206=AXIS2_PLACEMENT_3D('',#418,#254,#255);
#207=AXIS2_PLACEMENT_3D('',#419,#256,#257);
#208=AXIS2_PLACEMENT_3D('',#421,#258,#259);
#209=AXIS2_PLACEMENT_3D('',#422,#260,#261);
#210=DIRECTION('',(0.,0.,1.));
#211=DIRECTION('',(1.,0.,0.));
#212=DIRECTION('',(-1.,0.,0.));
#213=DIRECTION('',(0.,0.,1.));
#214=DIRECTION('',(1.,0.,0.));
#215=DIRECTION('',(0.,0.,-1.));
#216=DIRECTION('',(-1.,0.,0.));
#217=DIRECTION('',(0.,0.,1.));
#218=DIRECTION('',(1.,0.,0.));
#219=DIRECTION('',(0.,0.,-1.));
#220=DIRECTION('',(1.,0.,0.));
#221=DIRECTION('',(0.,0.,-1.));
#222=DIRECTION('',(1.,0.,0.));
#223=DIRECTION('',(0.,0.,-1.));
#224=DIRECTION('',(1.,0.,0.));
#225=DIRECTION('',(0.,0.,-1.));
#226=DIRECTION('',(1.,0.,0.));
#227=DIRECTION('',(0.,0.,-1.));
#228=DIRECTION('',(1.,0.,0.));
#229=DIRECTION('',(0.,0.,-1.));
#230=DIRECTION('',(1.,0.,0.));
#231=DIRECTION('',(0.,0.,-1.));
#232=DIRECTION('',(1.,0.,0.));
#233=DIRECTION('',(0.,0.,-1.));
#234=DIRECTION('',(-1.,0.,0.));
#235=DIRECTION('',(0.,0.,1.));
#236=DIRECTION('',(1.,0.,0.));
#237=DIRECTION('',(0.,0.,-1.));
#238=DIRECTION('',(1.,0.,0.));
#239=DIRECTION('',(0.,0.,-1.));
#240=DIRECTION('',(1.,0.,0.));
#241=DIRECTION('',(0.,0.,-1.));
#242=DIRECTION('',(-1.,0.,0.));
#243=DIRECTION('',(0.,0.,1.));
#244=DIRECTION('',(0.,0.,-1.));
#245=DIRECTION('',(-1.,0.,0.));
#246=DIRECTION('',(0.,0.,-1.));
#247=DIRECTION('',(-1.,0.,0.));
#248=DIRECTION('',(0.,0.,-1.));
#249=DIRECTION('',(-1.,0.,0.));
#250=DIRECTION('',(0.,0.,-1.));
#251=DIRECTION('',(-1.,0.,0.));
#252=DIRECTION('',(0.,0.,-1.));
#253=DIRECTION('',(-1.,0.,0.));
#254=DIRECTION('',(0.,0.,-1.));
#255=DIRECTION('',(-1.,0.,0.));
#256=DIRECTION('',(0.,0.,-1.));
#257=DIRECTION('',(-1.,0.,0.));
#258=DIRECTION('',(0.,0.,-1.));
#259=DIRECTION('',(-1.,0.,0.));
#260=DIRECTION('',(0.,0.,-1.));
#261=DIRECTION('',(-1.,0.,0.));
#262=CARTESIAN_POINT('',(0.,0.,0.));
#263=CARTESIAN_POINT('',(1.,0.,0.));
#264=CARTESIAN_POINT('',(-350.,0.,0.));
#265=CARTESIAN_POINT('',(-350.,0.,-101.7));
#266=CARTESIAN_POINT('',(0.,0.,0.));
#267=CARTESIAN_POINT('',(0.,0.,101.7));
#268=CARTESIAN_POINT('',(-125.991450677996,-10.0487959963975,101.359994657408));
#269=CARTESIAN_POINT('',(-125.129640559448,-1.64924974867495,101.783592364546));
#270=CARTESIAN_POINT('',(-125.468356857394,4.97840874689442,101.617534812336));
#271=CARTESIAN_POINT('',(-126.200863830454,9.83759082160932,101.261693967443));
#272=CARTESIAN_POINT('',(-127.412675858718,14.6193531815651,100.681685051502));
#273=CARTESIAN_POINT('',(-129.661018013446,20.811762978797,99.6314640332836));
#274=CARTESIAN_POINT('',(-132.72103995587,26.4735407056859,98.2621418532999));
#275=CARTESIAN_POINT('',(-136.599633439942,31.6750753910713,96.6681418105374));
#276=CARTESIAN_POINT('',(-139.819491496192,35.2129900615026,95.4317211364724));
#277=CARTESIAN_POINT('',(-143.357279677364,38.4262857704811,94.1805024492647));
#278=CARTESIAN_POINT('',(-147.248866354241,41.325289368118,92.9409570526244));
#279=CARTESIAN_POINT('',(-151.372185977947,43.8121322860517,91.7905512930528));
#280=CARTESIAN_POINT('',(-155.714536362845,45.8903603883901,90.7657829826191));
#281=CARTESIAN_POINT('',(-160.294779017709,47.5605817008202,89.8987836063783));
#282=CARTESIAN_POINT('',(-166.717860161858,49.1981984952561,89.0137824144343));
#283=CARTESIAN_POINT('',(-173.204962103673,49.8607954347309,88.6379372844496));
#284=CARTESIAN_POINT('',(-179.886639979522,49.5437036956734,88.8167636655389));
#285=CARTESIAN_POINT('',(-184.776248081624,48.8107527487269,89.2231948747917));
#286=CARTESIAN_POINT('',(-189.524197300239,47.6156411232729,89.8694914459746));
#287=CARTESIAN_POINT('',(-195.720949082147,45.3810012173926,91.0311966531504));
#288=CARTESIAN_POINT('',(-201.38010192575,42.3356002868156,92.5071523969713));
#289=CARTESIAN_POINT('',(-206.574716483839,38.482991755849,94.1573891352288));
#290=CARTESIAN_POINT('',(-210.135007659215,35.2593579792259,95.4147895907349));
#291=CARTESIAN_POINT('',(-213.354411946672,31.7281812492078,96.6501038611274));
#292=CARTESIAN_POINT('',(-216.248263241792,27.866801914095,97.8375885509443));
#293=CARTESIAN_POINT('',(-218.779641952249,23.6920972999316,98.9344675852925));
#294=CARTESIAN_POINT('',(-220.870207378404,19.3330295409674,99.8797326127823));
#295=CARTESIAN_POINT('',(-222.540537747206,14.7671716747875,100.659608552921));
#296=CARTESIAN_POINT('',(-223.779524694852,9.94663556472886,101.252160976898));
#297=CARTESIAN_POINT('',(-224.523839699652,5.05031769409182,101.613724395141));
#298=CARTESIAN_POINT('',(-224.869665741586,-1.49988172513944,101.783302576467));
#299=CARTESIAN_POINT('',(-224.215057672775,-8.18745244170758,101.461044465216));
#300=CARTESIAN_POINT('',(-222.612747023474,-14.5282236750013,100.693814827065));
#301=CARTESIAN_POINT('',(-220.949090036276,-19.1540822036046,99.9158865879174));
#302=CARTESIAN_POINT('',(-218.834608855205,-23.5905196961078,98.9588351738936));
#303=CARTESIAN_POINT('',(-216.344048705135,-27.7208605504662,97.8784078821835));
#304=CARTESIAN_POINT('',(-213.467309028242,-31.5946759822423,96.6946709273749));
#305=CARTESIAN_POINT('',(-209.120898598538,-36.3847860566446,95.0239632973459));
#306=CARTESIAN_POINT('',(-204.223343356952,-40.4257773829925,93.3551098053121));
#307=CARTESIAN_POINT('',(-198.664271494534,-43.7953783060699,91.7990448967391));
#308=CARTESIAN_POINT('',(-194.291049859267,-45.8882331475061,90.7668090577619));
#309=CARTESIAN_POINT('',(-189.737580541039,-47.5475380122206,89.9055171997119));
#310=CARTESIAN_POINT('',(-184.985731772696,-48.7710805846605,89.2450923901226));
#311=CARTESIAN_POINT('',(-180.034555684184,-49.5279438884701,88.8254989568038));
#312=CARTESIAN_POINT('',(-175.111471119715,-49.7803519561339,88.6836132271458));
#313=CARTESIAN_POINT('',(-170.181794637633,-49.5499129491808,88.8132617309879));
#314=CARTESIAN_POINT('',(-163.572502853888,-48.5669815493014,89.3582030227617));
#315=CARTESIAN_POINT('',(-157.345432549976,-46.6585494497367,90.3853930153822));
#316=CARTESIAN_POINT('',(-151.43117789782,-43.8469614910484,91.7743122760004));
#317=CARTESIAN_POINT('',(-147.298547868609,-41.3564142556379,92.9266948696848));
#318=CARTESIAN_POINT('',(-143.445071803603,-38.4986903751136,94.1508823030377));
#319=CARTESIAN_POINT('',(-139.846720959302,-35.2439123140902,95.4210528951307));
#320=CARTESIAN_POINT('',(-136.613542535523,-31.6892030594629,96.662939508881));
#321=CARTESIAN_POINT('',(-133.742773013178,-27.850068404389,97.8415934549));
#322=CARTESIAN_POINT('',(-131.226273694774,-23.7061855451424,98.9317135411662));
#323=CARTESIAN_POINT('',(-128.393186620563,-17.788898856328,100.213121141723));
#324=CARTESIAN_POINT('',(-125.991450677996,-10.0487959963975,101.359994657408));
#325=CARTESIAN_POINT('',(-125.129640559448,-1.64924974867495,101.783592364546));
#326=CARTESIAN_POINT('',(-125.468356857394,4.97840874689442,101.617534812336));
#327=CARTESIAN_POINT('',(-125.3,0.,101.7));
#328=CARTESIAN_POINT('',(0.,0.,0.));
#329=CARTESIAN_POINT('',(-72.4,0.,0.));
#330=CARTESIAN_POINT('',(-72.4,0.,-117.9));
#331=CARTESIAN_POINT('',(-232.454987817267,5.81483507395481,117.804388876879));
#332=CARTESIAN_POINT('',(-232.747446392921,-0.0100835638540693,117.947757951899));
#333=CARTESIAN_POINT('',(-232.455226611048,-5.77450081853859,117.804579315524));
#334=CARTESIAN_POINT('',(-231.604853882273,-11.4116723803808,117.39117386318));
#335=CARTESIAN_POINT('',(-230.199352527939,-16.9574330727615,116.718165724887));
#336=CARTESIAN_POINT('',(-228.243196982229,-22.3479113800052,115.803567752153));
#337=CARTESIAN_POINT('',(-225.816769254413,-27.4152121623278,114.705508183693));
#338=CARTESIAN_POINT('',(-222.916920477004,-32.2194143590432,113.446973255893));
#339=CARTESIAN_POINT('',(-219.542801039694,-36.741237474056,112.059751387521));
#340=CARTESIAN_POINT('',(-215.807954624276,-40.8458447516117,110.624564859961));
#341=CARTESIAN_POINT('',(-211.704342289717,-44.572844119785,109.172290406329));
#342=CARTESIAN_POINT('',(-207.190343097125,-47.9355826897955,107.733506472789));
#343=CARTESIAN_POINT('',(-202.407619200915,-50.8201365655657,106.398187106513));
#344=CARTESIAN_POINT('',(-197.370754190483,-53.2308073068433,105.208648612758));
#345=CARTESIAN_POINT('',(-192.057839672015,-55.168245590367,104.202206485488));
#346=CARTESIAN_POINT('',(-184.607332736437,-57.0678658220565,103.174851716618));
#347=CARTESIAN_POINT('',(-177.082482046295,-57.8365172048689,102.738517865264));
#348=CARTESIAN_POINT('',(-169.331788234307,-57.4687154330415,102.946100125039));
#349=CARTESIAN_POINT('',(-163.659997228235,-56.61852087014,103.417899794902));
#350=CARTESIAN_POINT('',(-158.152482309609,-55.2322205759238,104.168146341241));
#351=CARTESIAN_POINT('',(-150.964470490018,-52.6401034065313,105.51667531424));
#352=CARTESIAN_POINT('',(-144.400225147671,-49.1076397657533,107.229901811485));
#353=CARTESIAN_POINT('',(-138.374706002802,-44.6388040221748,109.145401139624));
#354=CARTESIAN_POINT('',(-134.245077143715,-40.899696556679,110.604838091433));
#355=CARTESIAN_POINT('',(-130.510729369342,-36.8037838524052,112.038655903117));
#356=CARTESIAN_POINT('',(-127.153904021035,-32.3247030551693,113.416981947257));
#357=CARTESIAN_POINT('',(-124.217664937092,-27.4824075326756,114.690070017261));
#358=CARTESIAN_POINT('',(-121.792672506947,-22.4261339419656,115.787201998054));
#359=CARTESIAN_POINT('',(-119.855027520789,-17.1299535919323,116.692425251347));
#360=CARTESIAN_POINT('',(-118.417928747966,-11.5379192451991,117.380106227382));
#361=CARTESIAN_POINT('',(-117.553880910933,-5.85928481789755,117.80014248837));
#362=CARTESIAN_POINT('',(-117.25536573173,-0.15761157114458,117.946361866863));
#363=CARTESIAN_POINT('',(-117.525776702946,5.60928299527464,117.813862129863));
#364=CARTESIAN_POINT('',(-118.379044011062,11.3382203230015,117.39893084455));
#365=CARTESIAN_POINT('',(-119.770604244766,16.8514663902382,116.73249638616));
#366=CARTESIAN_POINT('',(-121.701110027466,22.2183109987968,115.82917605543));
#367=CARTESIAN_POINT('',(-124.153606392303,27.3640402516082,114.71849038953));
#368=CARTESIAN_POINT('',(-127.042563123422,32.1550796164735,113.464456810535));
#369=CARTESIAN_POINT('',(-130.37951510165,36.6486049255763,112.090488756068));
#370=CARTESIAN_POINT('',(-135.420980273862,42.2047206707972,110.151360310795));
#371=CARTESIAN_POINT('',(-141.101801433984,46.8920669226086,108.214290581882));
#372=CARTESIAN_POINT('',(-147.550126866901,50.8007251520437,106.408036897439));
#373=CARTESIAN_POINT('',(-152.622603225093,53.2282614180404,105.209878216424));
#374=CARTESIAN_POINT('',(-157.904394925234,55.1530500672191,104.210058105037));
#375=CARTESIAN_POINT('',(-163.416588117266,56.572421667706,103.443363760471));
#376=CARTESIAN_POINT('',(-169.159745066091,57.4503811106675,102.956270306177));
#377=CARTESIAN_POINT('',(-174.870309444849,57.7432082916633,102.791539196166));
#378=CARTESIAN_POINT('',(-180.588769254904,57.4759281300771,102.942029252113));
#379=CARTESIAN_POINT('',(-188.255475155303,56.335741570628,103.57462982429));
#380=CARTESIAN_POINT('',(-195.478624269264,54.1220289080361,104.767017917975));
#381=CARTESIAN_POINT('',(-202.338938536079,50.8606777148247,106.379271158486));
#382=CARTESIAN_POINT('',(-207.132432020599,47.9718628175,107.716868262815));
#383=CARTESIAN_POINT('',(-211.602335527611,44.6570263845293,109.137844612665));
#384=CARTESIAN_POINT('',(-215.776291749432,40.8816122783548,110.612172921706));
#385=CARTESIAN_POINT('',(-219.526427558082,36.7585531455785,112.053548840033));
#386=CARTESIAN_POINT('',(-222.856460283462,32.3054337598011,113.421619630076));
#387=CARTESIAN_POINT('',(-225.775516910666,27.4983591214022,114.686877631351));
#388=CARTESIAN_POINT('',(-229.062470628706,20.63537707348,116.174544635717));
#389=CARTESIAN_POINT('',(-231.286428598459,13.4497614540566,117.236759363763));
#390=CARTESIAN_POINT('',(-232.454987817267,5.81483507395481,117.804388876879));
#391=CARTESIAN_POINT('',(-232.747446392921,-0.0100835638540693,117.947757951899));
#392=CARTESIAN_POINT('',(-232.455226611048,-5.77450081853859,117.804579315524));
#393=CARTESIAN_POINT('',(-232.65,0.,117.9));
#394=CARTESIAN_POINT('',(-277.6,0.,0.));
#395=CARTESIAN_POINT('',(-277.6,0.,-117.9));
#396=CARTESIAN_POINT('',(-350.,0.,0.));
#397=CARTESIAN_POINT('',(-350.,0.,0.));
#398=CARTESIAN_POINT('',(-350.,0.,-112.5));
#399=CARTESIAN_POINT('',(0.,0.,0.));
#400=CARTESIAN_POINT('',(-283.,0.,0.));
#401=CARTESIAN_POINT('',(-283.,0.,-112.5));
#402=CARTESIAN_POINT('',(-283.,0.,0.));
#403=CARTESIAN_POINT('',(-72.4,0.,0.));
#404=CARTESIAN_POINT('',(-67.,0.,0.));
#405=CARTESIAN_POINT('',(-67.,0.,-112.5));
#406=CARTESIAN_POINT('',(0.,0.,0.));
#407=CARTESIAN_POINT('',(0.,0.,0.));
#408=CARTESIAN_POINT('',(0.,0.,-112.5));
#409=CARTESIAN_POINT('',(0.,0.,112.5));
#410=CARTESIAN_POINT('',(-175.,0.,0.));
#411=CARTESIAN_POINT('',(-175.,0.,131.35));
#412=CARTESIAN_POINT('',(-232.65,0.,131.35));
#413=CARTESIAN_POINT('',(-175.,0.,170.));
#414=CARTESIAN_POINT('',(-175.,0.,170.));
#415=CARTESIAN_POINT('',(-230.,0.,170.));
#416=CARTESIAN_POINT('',(-175.,0.,170.));
#417=CARTESIAN_POINT('',(-224.7,0.,170.));
#418=CARTESIAN_POINT('',(-175.,0.,0.));
#419=CARTESIAN_POINT('',(-175.,0.,134.));
#420=CARTESIAN_POINT('',(-230.,0.,134.));
#421=CARTESIAN_POINT('',(-175.,0.,134.));
#422=CARTESIAN_POINT('',(-175.,0.,171.));
#423=MECHANICAL_DESIGN_GEOMETRIC_PRESENTATION_REPRESENTATION('',(#173),
#424);
#424=(
GEOMETRIC_REPRESENTATION_CONTEXT(3)
GLOBAL_UNCERTAINTY_ASSIGNED_CONTEXT((#425))
GLOBAL_UNIT_ASSIGNED_CONTEXT((#428,#427,#426))
REPRESENTATION_CONTEXT('30065221121(architecture400)',
'TOP_LEVEL_ASSEMBLY_PART')
);
#425=UNCERTAINTY_MEASURE_WITH_UNIT(LENGTH_MEASURE(0.005),#428,
'DISTANCE_ACCURACY_VALUE','Maximum Tolerance applied to model');
#426=(
NAMED_UNIT(*)
SI_UNIT($,.STERADIAN.)
SOLID_ANGLE_UNIT()
);
#427=(
NAMED_UNIT(*)
PLANE_ANGLE_UNIT()
SI_UNIT($,.RADIAN.)
);
#428=(
LENGTH_UNIT()
NAMED_UNIT(*)
SI_UNIT(.MILLI.,.METRE.)
);
#429=PRODUCT_DEFINITION_SHAPE('','',#430);
#430=PRODUCT_DEFINITION('','',#432,#431);
#431=DESIGN_CONTEXT('',#438,'design');
#432=PRODUCT_DEFINITION_FORMATION_WITH_SPECIFIED_SOURCE('','',#434,
 .NOT_KNOWN.);
#433=PRODUCT_RELATED_PRODUCT_CATEGORY('','',(#434));
#434=PRODUCT('30065221121(architecture400)',
'30065221121(architecture400)','30065221121(architecture400)',(#436));
#435=PRODUCT_CATEGORY('','');
#436=MECHANICAL_CONTEXT('',#438,'mechanical');
#437=APPLICATION_PROTOCOL_DEFINITION('international standard',
'config_control_design',2010,#438);
#438=APPLICATION_CONTEXT(
'configuration controlled 3D designs of mechanical parts and assemblie
s');
ENDSEC;
END-ISO-10303-21;
