ISO-10303-21;
HEADER;
/* Generated by software containing ST-Developer
 * from STEP Tools, Inc. (www.steptools.com) 
 */

FILE_DESCRIPTION(
/* description */ (''),
/* implementation_level */ '2;1');

FILE_NAME(
/* name */ 
'Q:\\Ric010\\FF7\\FIPlastiCAD\\FIP\\Lavoro\\PVC Fittings\\PVC Fittings
 STEP\\TRIV\\TRIV075063.ipt.stp',
/* time_stamp */ '2013-10-01T14:56:37+02:00',
/* author */ ('bfaro'),
/* organization */ (''),
/* preprocessor_version */ 'ST-DEVELOPER v15.2',
/* originating_system */ 'Autodesk Inventor 2014',
/* authorisation */ '');

FILE_SCHEMA (('AUTOMOTIVE_DESIGN { 1 0 10303 214 3 1 1 }'));
ENDSEC;

DATA;
#10=SHAPE_REPRESENTATION_RELATIONSHIP('SRR','None',#451,#11);
#11=ADVANCED_BREP_SHAPE_REPRESENTATION($,(#181),#442);
#12=STYLED_ITEM($,(#459),#181);
#13=PLANE($,#202);
#14=PLANE($,#203);
#15=PLANE($,#204);
#16=PLANE($,#205);
#17=PLANE($,#206);
#18=PLANE($,#207);
#19=FACE_BOUND($,#53,.T.);
#20=FACE_BOUND($,#55,.T.);
#21=FACE_BOUND($,#56,.T.);
#22=FACE_BOUND($,#58,.T.);
#23=FACE_BOUND($,#59,.T.);
#24=FACE_BOUND($,#61,.T.);
#25=FACE_BOUND($,#63,.T.);
#26=FACE_BOUND($,#65,.T.);
#27=FACE_BOUND($,#67,.T.);
#28=FACE_BOUND($,#69,.T.);
#29=FACE_BOUND($,#70,.T.);
#30=FACE_BOUND($,#71,.T.);
#31=FACE_BOUND($,#73,.T.);
#32=FACE_BOUND($,#75,.T.);
#33=FACE_BOUND($,#76,.T.);
#34=FACE_BOUND($,#77,.T.);
#35=FACE_BOUND($,#78,.T.);
#36=FACE_BOUND($,#79,.T.);
#37=B_SPLINE_CURVE_WITH_KNOTS($,3,(#265,#266,#267,#268,#269,#270,#271,#272,
#273,#274,#275,#276,#277,#278,#279,#280,#281,#282,#283,#284,#285,#286,#287,
#288,#289,#290,#291,#292,#293,#294,#295,#296,#297,#298,#299,#300,#301,#302,
#303,#304,#305,#306,#307,#308,#309,#310,#311,#312,#313,#314,#315,#316,#317,
#318,#319,#320,#321,#322,#323,#324,#325,#326,#327,#328,#329,#330),
 .UNSPECIFIED.,.T.,.F.,(4,2,2,2,2,2,2,2,2,2,2,2,2,2,2,2,2,2,2,2,2,2,2,2,
2,2,2,2,2,2,2,2,4),(0.,0.64458526045781,1.28917052091562,1.93375578137343,
2.57834104183124,3.19048408569977,3.80262712956829,4.41477017343682,5.02691321730534,
5.63905626117387,6.25119930504239,6.86334234891092,7.47548539277944,8.12007065323725,
8.76465591369506,9.40924117415287,10.0538264346107,10.6984116950484,11.342996955486,
11.9875822159237,12.6321674763614,13.2443105202259,13.8564535640903,14.4685966079548,
15.0807396518193,15.6928826956837,16.3050257395482,16.9171687834127,17.5293118272771,
18.1738970877148,18.8184823481525,19.4630676085902,20.1076528690279),
 .UNSPECIFIED.);
#38=B_SPLINE_CURVE_WITH_KNOTS($,3,(#343,#344,#345,#346,#347,#348,#349,#350,
#351,#352,#353,#354,#355,#356,#357,#358,#359,#360),.UNSPECIFIED.,.F.,.F.,
(4,2,2,2,2,2,2,2,4),(12.412463135209,13.2045795729081,13.9966960106072,
14.7888124483062,15.5809288860053,16.340370340179,17.0998117943528,17.8592532485265,
18.6186947027003),.UNSPECIFIED.);
#39=B_SPLINE_CURVE_WITH_KNOTS($,3,(#362,#363,#364,#365,#366,#367,#368,#369,
#370,#371,#372,#373,#374,#375,#376,#377,#378,#379),.UNSPECIFIED.,.F.,.F.,
(4,2,2,2,2,2,2,2,4),(-12.412463135209,-11.6203466974962,-10.8282302597834,
-10.0361138220705,-9.2439973843577,-8.48455593016933,-7.72511447598096,
-6.96567302179259,-6.20623156760422),.UNSPECIFIED.);
#40=B_SPLINE_CURVE_WITH_KNOTS($,3,(#381,#382,#383,#384,#385,#386,#387,#388,
#389,#390,#391,#392,#393,#394,#395,#396,#397,#398),.UNSPECIFIED.,.F.,.F.,
(4,2,2,2,2,2,2,2,4),(18.6186947025866,19.378136156775,20.1375776109633,
20.8970190651517,21.6564605193401,22.4485769570529,23.2406933947658,24.0328098324786,
24.8249262701914),.UNSPECIFIED.);
#41=B_SPLINE_CURVE_WITH_KNOTS($,3,(#399,#400,#401,#402,#403,#404,#405,#406,
#407,#408,#409,#410,#411,#412,#413,#414,#415,#416),.UNSPECIFIED.,.F.,.F.,
(4,2,2,2,2,2,2,2,4),(-6.20623156749119,-5.44679011331744,-4.68734865914369,
-3.92790720496994,-3.16846575079619,-2.37634931309713,-1.58423287539807,
-0.792116437699015,4.44089209850063E-014),.UNSPECIFIED.);
#42=FACE_OUTER_BOUND($,#52,.T.);
#43=FACE_OUTER_BOUND($,#54,.T.);
#44=FACE_OUTER_BOUND($,#57,.T.);
#45=FACE_OUTER_BOUND($,#60,.T.);
#46=FACE_OUTER_BOUND($,#62,.T.);
#47=FACE_OUTER_BOUND($,#64,.T.);
#48=FACE_OUTER_BOUND($,#66,.T.);
#49=FACE_OUTER_BOUND($,#68,.T.);
#50=FACE_OUTER_BOUND($,#72,.T.);
#51=FACE_OUTER_BOUND($,#74,.T.);
#52=EDGE_LOOP($,(#126));
#53=EDGE_LOOP($,(#127));
#54=EDGE_LOOP($,(#128));
#55=EDGE_LOOP($,(#129));
#56=EDGE_LOOP($,(#130));
#57=EDGE_LOOP($,(#131));
#58=EDGE_LOOP($,(#132));
#59=EDGE_LOOP($,(#133,#134,#135,#136));
#60=EDGE_LOOP($,(#137));
#61=EDGE_LOOP($,(#138));
#62=EDGE_LOOP($,(#139,#140,#141,#142));
#63=EDGE_LOOP($,(#143));
#64=EDGE_LOOP($,(#144));
#65=EDGE_LOOP($,(#145));
#66=EDGE_LOOP($,(#146));
#67=EDGE_LOOP($,(#147));
#68=EDGE_LOOP($,(#148));
#69=EDGE_LOOP($,(#149));
#70=EDGE_LOOP($,(#150));
#71=EDGE_LOOP($,(#151));
#72=EDGE_LOOP($,(#152));
#73=EDGE_LOOP($,(#153));
#74=EDGE_LOOP($,(#154));
#75=EDGE_LOOP($,(#155));
#76=EDGE_LOOP($,(#156));
#77=EDGE_LOOP($,(#157));
#78=EDGE_LOOP($,(#158));
#79=EDGE_LOOP($,(#159));
#80=CIRCLE($,#184,30.5);
#81=CIRCLE($,#186,35.5);
#82=CIRCLE($,#187,35.5);
#83=CIRCLE($,#189,45.5);
#84=CIRCLE($,#190,45.5);
#85=CIRCLE($,#192,37.5);
#86=CIRCLE($,#193,37.5);
#87=CIRCLE($,#195,38.);
#88=CIRCLE($,#197,37.5);
#89=CIRCLE($,#198,37.5);
#90=CIRCLE($,#200,31.5);
#91=CIRCLE($,#201,31.5);
#92=VERTEX_POINT($,#262);
#93=VERTEX_POINT($,#264);
#94=VERTEX_POINT($,#332);
#95=VERTEX_POINT($,#334);
#96=VERTEX_POINT($,#337);
#97=VERTEX_POINT($,#339);
#98=VERTEX_POINT($,#341);
#99=VERTEX_POINT($,#342);
#100=VERTEX_POINT($,#361);
#101=VERTEX_POINT($,#380);
#102=VERTEX_POINT($,#418);
#103=VERTEX_POINT($,#420);
#104=VERTEX_POINT($,#423);
#105=VERTEX_POINT($,#426);
#106=VERTEX_POINT($,#428);
#107=VERTEX_POINT($,#431);
#108=VERTEX_POINT($,#433);
#109=EDGE_CURVE($,#92,#92,#80,.T.);
#110=EDGE_CURVE($,#93,#93,#37,.T.);
#111=EDGE_CURVE($,#94,#94,#81,.T.);
#112=EDGE_CURVE($,#95,#95,#82,.T.);
#113=EDGE_CURVE($,#96,#96,#83,.T.);
#114=EDGE_CURVE($,#97,#97,#84,.T.);
#115=EDGE_CURVE($,#98,#99,#38,.T.);
#116=EDGE_CURVE($,#98,#100,#39,.T.);
#117=EDGE_CURVE($,#100,#101,#40,.T.);
#118=EDGE_CURVE($,#99,#101,#41,.T.);
#119=EDGE_CURVE($,#102,#102,#85,.T.);
#120=EDGE_CURVE($,#103,#103,#86,.T.);
#121=EDGE_CURVE($,#104,#104,#87,.T.);
#122=EDGE_CURVE($,#105,#105,#88,.T.);
#123=EDGE_CURVE($,#106,#106,#89,.T.);
#124=EDGE_CURVE($,#107,#107,#90,.T.);
#125=EDGE_CURVE($,#108,#108,#91,.T.);
#126=ORIENTED_EDGE($,*,*,#109,.F.);
#127=ORIENTED_EDGE($,*,*,#110,.F.);
#128=ORIENTED_EDGE($,*,*,#111,.F.);
#129=ORIENTED_EDGE($,*,*,#112,.F.);
#130=ORIENTED_EDGE($,*,*,#110,.T.);
#131=ORIENTED_EDGE($,*,*,#113,.F.);
#132=ORIENTED_EDGE($,*,*,#114,.T.);
#133=ORIENTED_EDGE($,*,*,#115,.F.);
#134=ORIENTED_EDGE($,*,*,#116,.T.);
#135=ORIENTED_EDGE($,*,*,#117,.T.);
#136=ORIENTED_EDGE($,*,*,#118,.F.);
#137=ORIENTED_EDGE($,*,*,#119,.T.);
#138=ORIENTED_EDGE($,*,*,#120,.F.);
#139=ORIENTED_EDGE($,*,*,#116,.F.);
#140=ORIENTED_EDGE($,*,*,#115,.T.);
#141=ORIENTED_EDGE($,*,*,#118,.T.);
#142=ORIENTED_EDGE($,*,*,#117,.F.);
#143=ORIENTED_EDGE($,*,*,#121,.F.);
#144=ORIENTED_EDGE($,*,*,#122,.T.);
#145=ORIENTED_EDGE($,*,*,#123,.F.);
#146=ORIENTED_EDGE($,*,*,#124,.T.);
#147=ORIENTED_EDGE($,*,*,#125,.F.);
#148=ORIENTED_EDGE($,*,*,#114,.F.);
#149=ORIENTED_EDGE($,*,*,#120,.T.);
#150=ORIENTED_EDGE($,*,*,#112,.T.);
#151=ORIENTED_EDGE($,*,*,#119,.F.);
#152=ORIENTED_EDGE($,*,*,#113,.T.);
#153=ORIENTED_EDGE($,*,*,#122,.F.);
#154=ORIENTED_EDGE($,*,*,#121,.T.);
#155=ORIENTED_EDGE($,*,*,#124,.F.);
#156=ORIENTED_EDGE($,*,*,#111,.T.);
#157=ORIENTED_EDGE($,*,*,#123,.T.);
#158=ORIENTED_EDGE($,*,*,#109,.T.);
#159=ORIENTED_EDGE($,*,*,#125,.T.);
#160=CYLINDRICAL_SURFACE($,#183,30.5);
#161=CYLINDRICAL_SURFACE($,#185,35.5);
#162=CYLINDRICAL_SURFACE($,#188,45.5);
#163=CYLINDRICAL_SURFACE($,#191,37.5);
#164=CYLINDRICAL_SURFACE($,#194,38.);
#165=CYLINDRICAL_SURFACE($,#196,37.5);
#166=CYLINDRICAL_SURFACE($,#199,31.5);
#167=ADVANCED_FACE($,(#42,#19),#160,.F.);
#168=ADVANCED_FACE($,(#43,#20,#21),#161,.F.);
#169=ADVANCED_FACE($,(#44,#22,#23),#162,.T.);
#170=ADVANCED_FACE($,(#45,#24),#163,.F.);
#171=ADVANCED_FACE($,(#46,#25),#164,.T.);
#172=ADVANCED_FACE($,(#47,#26),#165,.F.);
#173=ADVANCED_FACE($,(#48,#27),#166,.F.);
#174=ADVANCED_FACE($,(#49,#28),#13,.T.);
#175=ADVANCED_FACE($,(#29,#30),#14,.T.);
#176=ADVANCED_FACE($,(#50,#31),#15,.T.);
#177=ADVANCED_FACE($,(#51,#32),#16,.T.);
#178=ADVANCED_FACE($,(#33,#34),#17,.T.);
#179=ADVANCED_FACE($,(#35,#36),#18,.T.);
#180=CLOSED_SHELL($,(#167,#168,#169,#170,#171,#172,#173,#174,#175,#176,
#177,#178,#179));
#181=MANIFOLD_SOLID_BREP('Solido1',#180);
#182=AXIS2_PLACEMENT_3D('placement',#260,#208,#209);
#183=AXIS2_PLACEMENT_3D($,#261,#210,#211);
#184=AXIS2_PLACEMENT_3D($,#263,#212,#213);
#185=AXIS2_PLACEMENT_3D($,#331,#214,#215);
#186=AXIS2_PLACEMENT_3D($,#333,#216,#217);
#187=AXIS2_PLACEMENT_3D($,#335,#218,#219);
#188=AXIS2_PLACEMENT_3D($,#336,#220,#221);
#189=AXIS2_PLACEMENT_3D($,#338,#222,#223);
#190=AXIS2_PLACEMENT_3D($,#340,#224,#225);
#191=AXIS2_PLACEMENT_3D($,#417,#226,#227);
#192=AXIS2_PLACEMENT_3D($,#419,#228,#229);
#193=AXIS2_PLACEMENT_3D($,#421,#230,#231);
#194=AXIS2_PLACEMENT_3D($,#422,#232,#233);
#195=AXIS2_PLACEMENT_3D($,#424,#234,#235);
#196=AXIS2_PLACEMENT_3D($,#425,#236,#237);
#197=AXIS2_PLACEMENT_3D($,#427,#238,#239);
#198=AXIS2_PLACEMENT_3D($,#429,#240,#241);
#199=AXIS2_PLACEMENT_3D($,#430,#242,#243);
#200=AXIS2_PLACEMENT_3D($,#432,#244,#245);
#201=AXIS2_PLACEMENT_3D($,#434,#246,#247);
#202=AXIS2_PLACEMENT_3D($,#435,#248,#249);
#203=AXIS2_PLACEMENT_3D($,#436,#250,#251);
#204=AXIS2_PLACEMENT_3D($,#437,#252,#253);
#205=AXIS2_PLACEMENT_3D($,#438,#254,#255);
#206=AXIS2_PLACEMENT_3D($,#439,#256,#257);
#207=AXIS2_PLACEMENT_3D($,#440,#258,#259);
#208=DIRECTION('axis',(0.,0.,1.));
#209=DIRECTION('refdir',(1.,0.,0.));
#210=DIRECTION('center_axis',(-1.,0.,-4.4896605381707E-011));
#211=DIRECTION('ref_axis',(-4.4896605381707E-011,0.,1.));
#212=DIRECTION('center_axis',(-1.,0.,-4.489664E-011));
#213=DIRECTION('ref_axis',(-4.4896605381707E-011,0.,1.));
#214=DIRECTION('center_axis',(0.,0.,-1.));
#215=DIRECTION('ref_axis',(-1.,0.,0.));
#216=DIRECTION('center_axis',(0.,0.,-1.));
#217=DIRECTION('ref_axis',(-1.,0.,0.));
#218=DIRECTION('center_axis',(0.,0.,1.));
#219=DIRECTION('ref_axis',(-1.,0.,0.));
#220=DIRECTION('center_axis',(0.,0.,1.));
#221=DIRECTION('ref_axis',(1.,0.,0.));
#222=DIRECTION('center_axis',(0.,0.,1.));
#223=DIRECTION('ref_axis',(1.,0.,0.));
#224=DIRECTION('center_axis',(0.,0.,1.));
#225=DIRECTION('ref_axis',(1.,0.,0.));
#226=DIRECTION('center_axis',(0.,0.,1.));
#227=DIRECTION('ref_axis',(1.,0.,0.));
#228=DIRECTION('center_axis',(0.,0.,1.));
#229=DIRECTION('ref_axis',(1.,0.,0.));
#230=DIRECTION('center_axis',(0.,0.,1.));
#231=DIRECTION('ref_axis',(1.,0.,0.));
#232=DIRECTION('center_axis',(1.,0.,4.489664E-011));
#233=DIRECTION('ref_axis',(4.489664E-011,0.,-1.));
#234=DIRECTION('center_axis',(1.,0.,4.489664E-011));
#235=DIRECTION('ref_axis',(4.489664E-011,0.,-1.));
#236=DIRECTION('center_axis',(0.,0.,1.));
#237=DIRECTION('ref_axis',(1.,0.,0.));
#238=DIRECTION('center_axis',(0.,0.,1.));
#239=DIRECTION('ref_axis',(1.,0.,0.));
#240=DIRECTION('center_axis',(0.,0.,1.));
#241=DIRECTION('ref_axis',(1.,0.,0.));
#242=DIRECTION('center_axis',(1.,-8.1217763957707E-015,4.48971216398155E-011));
#243=DIRECTION('ref_axis',(4.48969961737367E-011,0.,-1.));
#244=DIRECTION('center_axis',(1.,0.,4.489664E-011));
#245=DIRECTION('ref_axis',(4.489664E-011,0.,-1.));
#246=DIRECTION('center_axis',(1.,0.,4.489664E-011));
#247=DIRECTION('ref_axis',(4.489664E-011,0.,-1.));
#248=DIRECTION('center_axis',(0.,0.,-1.));
#249=DIRECTION('ref_axis',(-1.,0.,0.));
#250=DIRECTION('center_axis',(0.,0.,-1.));
#251=DIRECTION('ref_axis',(-1.,0.,0.));
#252=DIRECTION('center_axis',(0.,0.,1.));
#253=DIRECTION('ref_axis',(1.,0.,0.));
#254=DIRECTION('center_axis',(1.,0.,4.489664E-011));
#255=DIRECTION('ref_axis',(4.48963533017377E-011,0.,-1.));
#256=DIRECTION('center_axis',(0.,0.,1.));
#257=DIRECTION('ref_axis',(1.,0.,0.));
#258=DIRECTION('center_axis',(1.,0.,4.489664E-011));
#259=DIRECTION('ref_axis',(4.48963533017377E-011,0.,-1.));
#260=CARTESIAN_POINT('',(0.,0.,0.));
#261=CARTESIAN_POINT('Origin',(40.,0.,84.000000001796));
#262=CARTESIAN_POINT('',(40.0000000013694,3.73517273739943E-015,53.500000001796));
#263=CARTESIAN_POINT('Origin',(40.,0.,84.000000001796));
#264=CARTESIAN_POINT('',(18.165902124585,30.5,84.0000000008157));
#265=CARTESIAN_POINT('Ctrl Pts',(18.165902124585,30.5,84.0000000008157));
#266=CARTESIAN_POINT('Ctrl Pts',(18.165902124585,30.5,86.1486175356751));
#267=CARTESIAN_POINT('Ctrl Pts',(18.5552401170696,30.2744741486543,88.2261030313414));
#268=CARTESIAN_POINT('Ctrl Pts',(19.8481386484114,29.4430316548788,92.2165454265999));
#269=CARTESIAN_POINT('Ctrl Pts',(20.7443748700339,28.8362821084209,94.1316981471262));
#270=CARTESIAN_POINT('Ctrl Pts',(22.7503194695234,27.2815543102127,97.7803999579423));
#271=CARTESIAN_POINT('Ctrl Pts',(23.8596993353299,26.3322283724465,99.5132929079905));
#272=CARTESIAN_POINT('Ctrl Pts',(26.0722682979029,24.1434945869504,102.738734650678));
#273=CARTESIAN_POINT('Ctrl Pts',(27.1758490717225,22.9031408806918,104.230372772908));
#274=CARTESIAN_POINT('Ctrl Pts',(29.1686294961208,20.2976334796222,106.835880174067));
#275=CARTESIAN_POINT('Ctrl Pts',(30.1383189904252,18.8493021962084,108.056856348535));
#276=CARTESIAN_POINT('Ctrl Pts',(31.9204891598183,15.6427886504086,110.255127008406));
#277=CARTESIAN_POINT('Ctrl Pts',(32.7324638723024,13.884311536599,111.232401560205));
#278=CARTESIAN_POINT('Ctrl Pts',(34.0760068195978,10.1495862706573,112.833379059768));
#279=CARTESIAN_POINT('Ctrl Pts',(34.608622836678,8.16882705942179,113.458507369097));
#280=CARTESIAN_POINT('Ctrl Pts',(35.3207969877625,4.1143420356102,114.292005242579));
#281=CARTESIAN_POINT('Ctrl Pts',(35.5,2.04047681289508,114.500000001594));
#282=CARTESIAN_POINT('Ctrl Pts',(35.5,-2.04047681289508,114.500000001594));
#283=CARTESIAN_POINT('Ctrl Pts',(35.3207969877625,-4.1143420356102,114.292005242579));
#284=CARTESIAN_POINT('Ctrl Pts',(34.608622836678,-8.16882705942179,113.458507369097));
#285=CARTESIAN_POINT('Ctrl Pts',(34.0760068195978,-10.1495862706573,112.833379059768));
#286=CARTESIAN_POINT('Ctrl Pts',(32.7324638723024,-13.884311536599,111.232401560205));
#287=CARTESIAN_POINT('Ctrl Pts',(31.9204891598183,-15.6427886504086,110.255127008406));
#288=CARTESIAN_POINT('Ctrl Pts',(30.1383189904252,-18.8493021962084,108.056856348535));
#289=CARTESIAN_POINT('Ctrl Pts',(29.1686294961208,-20.2976334796222,106.835880174067));
#290=CARTESIAN_POINT('Ctrl Pts',(27.1758490717225,-22.9031408806918,104.230372772908));
#291=CARTESIAN_POINT('Ctrl Pts',(26.072268297903,-24.1434945869504,102.738734650678));
#292=CARTESIAN_POINT('Ctrl Pts',(23.85969933533,-26.3322283724465,99.5132929079905));
#293=CARTESIAN_POINT('Ctrl Pts',(22.7503194695234,-27.2815543102127,97.7803999579424));
#294=CARTESIAN_POINT('Ctrl Pts',(20.7443748700339,-28.8362821084209,94.1316981471262));
#295=CARTESIAN_POINT('Ctrl Pts',(19.8481386484114,-29.4430316548788,92.2165454265999));
#296=CARTESIAN_POINT('Ctrl Pts',(18.5552401170696,-30.2744741486543,88.2261030313414));
#297=CARTESIAN_POINT('Ctrl Pts',(18.165902124585,-30.5,86.1486175356751));
#298=CARTESIAN_POINT('Ctrl Pts',(18.165902124585,-30.5,81.8513824660235));
#299=CARTESIAN_POINT('Ctrl Pts',(18.5552401170489,-30.2744741486665,79.7738969704198));
#300=CARTESIAN_POINT('Ctrl Pts',(19.8481386483621,-29.4430316549115,75.7834545753038));
#301=CARTESIAN_POINT('Ctrl Pts',(20.7443748699749,-28.8362821084628,73.8683018548564));
#302=CARTESIAN_POINT('Ctrl Pts',(22.7503194694535,-27.2815543102706,70.2196000442154));
#303=CARTESIAN_POINT('Ctrl Pts',(23.8596993352586,-26.3322283725108,68.4867070942614));
#304=CARTESIAN_POINT('Ctrl Pts',(26.0722682978297,-24.1434945870291,65.2612653517647));
#305=CARTESIAN_POINT('Ctrl Pts',(27.1758490716486,-22.9031408807785,63.7696272296318));
#306=CARTESIAN_POINT('Ctrl Pts',(29.1686294960657,-20.2976334797036,61.1641198286221));
#307=CARTESIAN_POINT('Ctrl Pts',(30.1383189903878,-18.8493021962703,59.943143654218));
#308=CARTESIAN_POINT('Ctrl Pts',(31.9204891598065,-15.6427886504351,57.7448729944747));
#309=CARTESIAN_POINT('Ctrl Pts',(32.7324638722987,-13.8843115366096,56.7675984427392));
#310=CARTESIAN_POINT('Ctrl Pts',(34.0760068196021,-10.1495862706451,55.1666209432873));
#311=CARTESIAN_POINT('Ctrl Pts',(34.6086228366825,-8.16882705940278,54.5414926340053));
#312=CARTESIAN_POINT('Ctrl Pts',(35.3207969877648,-4.11434203559052,53.7079947605903));
#313=CARTESIAN_POINT('Ctrl Pts',(35.5,-2.04047681288156,53.500000001594));
#314=CARTESIAN_POINT('Ctrl Pts',(35.5,2.04047681288155,53.500000001594));
#315=CARTESIAN_POINT('Ctrl Pts',(35.3207969877648,4.11434203559051,53.7079947605903));
#316=CARTESIAN_POINT('Ctrl Pts',(34.6086228366825,8.16882705940276,54.5414926340053));
#317=CARTESIAN_POINT('Ctrl Pts',(34.0760068196021,10.1495862706451,55.1666209432873));
#318=CARTESIAN_POINT('Ctrl Pts',(32.7324638722987,13.8843115366096,56.7675984427392));
#319=CARTESIAN_POINT('Ctrl Pts',(31.9204891598065,15.6427886504351,57.7448729944747));
#320=CARTESIAN_POINT('Ctrl Pts',(30.1383189903878,18.8493021962703,59.943143654218));
#321=CARTESIAN_POINT('Ctrl Pts',(29.1686294960657,20.2976334797035,61.1641198286221));
#322=CARTESIAN_POINT('Ctrl Pts',(27.1758490716486,22.9031408807785,63.7696272296318));
#323=CARTESIAN_POINT('Ctrl Pts',(26.0722682978297,24.1434945870291,65.2612653517646));
#324=CARTESIAN_POINT('Ctrl Pts',(23.8596993352586,26.3322283725108,68.4867070942614));
#325=CARTESIAN_POINT('Ctrl Pts',(22.7503194694535,27.2815543102706,70.2196000442154));
#326=CARTESIAN_POINT('Ctrl Pts',(20.744374869975,28.8362821084628,73.8683018548564));
#327=CARTESIAN_POINT('Ctrl Pts',(19.8481386483621,29.4430316549115,75.7834545753038));
#328=CARTESIAN_POINT('Ctrl Pts',(18.5552401170489,30.2744741486665,79.7738969704198));
#329=CARTESIAN_POINT('Ctrl Pts',(18.165902124585,30.5,81.8513824660235));
#330=CARTESIAN_POINT('Ctrl Pts',(18.165902124585,30.5,84.0000000008157));
#331=CARTESIAN_POINT('Origin',(0.,0.,124.));
#332=CARTESIAN_POINT('',(35.5,4.3474961369731E-015,124.));
#333=CARTESIAN_POINT('Origin',(0.,0.,124.));
#334=CARTESIAN_POINT('',(35.5,4.3474961369731E-015,44.));
#335=CARTESIAN_POINT('Origin',(0.,0.,44.));
#336=CARTESIAN_POINT('Origin',(0.,0.,0.));
#337=CARTESIAN_POINT('',(-45.5,-5.571959E-015,168.));
#338=CARTESIAN_POINT('Origin',(0.,0.,168.));
#339=CARTESIAN_POINT('',(45.5,-1.114392E-014,0.));
#340=CARTESIAN_POINT('Origin',(0.,0.,0.));
#341=CARTESIAN_POINT('',(25.024987512484,-38.,84.000000001124));
#342=CARTESIAN_POINT('',(45.5,-1.022546E-014,46.000000002043));
#343=CARTESIAN_POINT('Ctrl Pts',(25.0249875124844,-38.,84.0000000011235));
#344=CARTESIAN_POINT('Ctrl Pts',(25.0249875124843,-38.,81.35961187546));
#345=CARTESIAN_POINT('Ctrl Pts',(25.4535683261288,-37.7249478701213,78.7748752027659));
#346=CARTESIAN_POINT('Ctrl Pts',(26.9217517827489,-36.691621813603,73.7922327664179));
#347=CARTESIAN_POINT('Ctrl Pts',(27.9529670395374,-35.9330977225655,71.3919112848438));
#348=CARTESIAN_POINT('Ctrl Pts',(30.2865672011193,-33.989406890983,66.8281735303786));
#349=CARTESIAN_POINT('Ctrl Pts',(31.5882444911448,-32.8024086580536,64.6633453684558));
#350=CARTESIAN_POINT('Ctrl Pts',(34.1974458496856,-30.072410994812,60.6428956805285));
#351=CARTESIAN_POINT('Ctrl Pts',(35.5050831793148,-28.5282511274629,58.7881357588646));
#352=CARTESIAN_POINT('Ctrl Pts',(37.881909984151,-25.2802650997707,55.5401497313079));
#353=CARTESIAN_POINT('Ctrl Pts',(39.0468064296544,-23.4682149224443,54.0144272037233));
#354=CARTESIAN_POINT('Ctrl Pts',(41.1901344202368,-19.4623490506863,51.2722035956261));
#355=CARTESIAN_POINT('Ctrl Pts',(42.1678805017989,-17.2681724863146,50.05569397222));
#356=CARTESIAN_POINT('Ctrl Pts',(43.7859350415079,-12.6139558439656,48.0654221935806));
#357=CARTESIAN_POINT('Ctrl Pts',(44.427441172588,-10.1483746373998,47.2899121226922));
#358=CARTESIAN_POINT('Ctrl Pts',(45.2846924390774,-5.10721721748071,46.2569689597128));
#359=CARTESIAN_POINT('Ctrl Pts',(45.5,-2.53147151391248,46.0000000020428));
#360=CARTESIAN_POINT('Ctrl Pts',(45.5,-2.77555756156289E-016,46.0000000020428));
#361=CARTESIAN_POINT('',(45.5,-1.114392E-014,122.00000000204));
#362=CARTESIAN_POINT('Ctrl Pts',(25.0249875124844,-38.,84.0000000011236));
#363=CARTESIAN_POINT('Ctrl Pts',(25.0249875124844,-38.,86.640388126833));
#364=CARTESIAN_POINT('Ctrl Pts',(25.4535683261406,-37.7249478701133,89.2251247995733));
#365=CARTESIAN_POINT('Ctrl Pts',(26.9217517827641,-36.6916218135919,94.2077672360375));
#366=CARTESIAN_POINT('Ctrl Pts',(27.9529670395454,-35.9330977225586,96.608088717681));
#367=CARTESIAN_POINT('Ctrl Pts',(30.2865672011029,-33.9894068909969,101.17182647231));
#368=CARTESIAN_POINT('Ctrl Pts',(31.5882444911112,-32.8024086580844,103.336654634325));
#369=CARTESIAN_POINT('Ctrl Pts',(34.1974458496206,-30.0724109948844,107.357104322446));
#370=CARTESIAN_POINT('Ctrl Pts',(35.5050831792357,-28.5282511275596,109.211864244212));
#371=CARTESIAN_POINT('Ctrl Pts',(37.8819099840584,-25.2802650999081,112.45985027197));
#372=CARTESIAN_POINT('Ctrl Pts',(39.0468064295623,-23.468214922597,113.985572799663));
#373=CARTESIAN_POINT('Ctrl Pts',(41.190134420156,-19.4623490508567,116.727796407971));
#374=CARTESIAN_POINT('Ctrl Pts',(42.1678805017288,-17.2681724864874,117.944306031479));
#375=CARTESIAN_POINT('Ctrl Pts',(43.7859350414628,-12.6139558441244,119.934577810296));
#376=CARTESIAN_POINT('Ctrl Pts',(44.4274411725573,-10.1483746375419,120.71008788126));
#377=CARTESIAN_POINT('Ctrl Pts',(45.2846924390692,-5.10721721756783,121.743031044344));
#378=CARTESIAN_POINT('Ctrl Pts',(45.5,-2.53147151396125,122.000000002043));
#379=CARTESIAN_POINT('Ctrl Pts',(45.5,-4.44089209850063E-015,122.000000002043));
#380=CARTESIAN_POINT('',(25.024987512484,38.,84.000000001124));
#381=CARTESIAN_POINT('Ctrl Pts',(45.5,4.71844785465692E-015,122.000000002043));
#382=CARTESIAN_POINT('Ctrl Pts',(45.5,2.53147151396126,122.000000002043));
#383=CARTESIAN_POINT('Ctrl Pts',(45.2846924390692,5.10721721756784,121.743031044344));
#384=CARTESIAN_POINT('Ctrl Pts',(44.4274411725572,10.1483746375419,120.71008788126));
#385=CARTESIAN_POINT('Ctrl Pts',(43.7859350414628,12.6139558441244,119.934577810296));
#386=CARTESIAN_POINT('Ctrl Pts',(42.1678805017288,17.2681724864874,117.944306031479));
#387=CARTESIAN_POINT('Ctrl Pts',(41.190134420156,19.4623490508567,116.727796407971));
#388=CARTESIAN_POINT('Ctrl Pts',(39.0468064295623,23.468214922597,113.985572799663));
#389=CARTESIAN_POINT('Ctrl Pts',(37.8819099840584,25.2802650999081,112.45985027197));
#390=CARTESIAN_POINT('Ctrl Pts',(35.5050831792357,28.5282511275596,109.211864244212));
#391=CARTESIAN_POINT('Ctrl Pts',(34.1974458496206,30.0724109948844,107.357104322446));
#392=CARTESIAN_POINT('Ctrl Pts',(31.5882444911112,32.8024086580844,103.336654634325));
#393=CARTESIAN_POINT('Ctrl Pts',(30.2865672011029,33.9894068909969,101.17182647231));
#394=CARTESIAN_POINT('Ctrl Pts',(27.9529670395454,35.9330977225586,96.608088717681));
#395=CARTESIAN_POINT('Ctrl Pts',(26.9217517827641,36.6916218135919,94.2077672360375));
#396=CARTESIAN_POINT('Ctrl Pts',(25.4535683261406,37.7249478701133,89.2251247995733));
#397=CARTESIAN_POINT('Ctrl Pts',(25.0249875124844,38.,86.640388126833));
#398=CARTESIAN_POINT('Ctrl Pts',(25.0249875124844,38.,84.0000000011236));
#399=CARTESIAN_POINT('Ctrl Pts',(45.5,-9.43689570931383E-015,46.0000000020428));
#400=CARTESIAN_POINT('Ctrl Pts',(45.5,2.53147151391247,46.0000000020428));
#401=CARTESIAN_POINT('Ctrl Pts',(45.2846924390774,5.10721721748071,46.2569689597128));
#402=CARTESIAN_POINT('Ctrl Pts',(44.427441172588,10.1483746373998,47.2899121226922));
#403=CARTESIAN_POINT('Ctrl Pts',(43.7859350415079,12.6139558439656,48.0654221935806));
#404=CARTESIAN_POINT('Ctrl Pts',(42.1678805017989,17.2681724863146,50.05569397222));
#405=CARTESIAN_POINT('Ctrl Pts',(41.1901344202368,19.4623490506863,51.2722035956261));
#406=CARTESIAN_POINT('Ctrl Pts',(39.0468064296544,23.4682149224443,54.0144272037233));
#407=CARTESIAN_POINT('Ctrl Pts',(37.881909984151,25.2802650997707,55.5401497313079));
#408=CARTESIAN_POINT('Ctrl Pts',(35.5050831793148,28.5282511274629,58.7881357588646));
#409=CARTESIAN_POINT('Ctrl Pts',(34.1974458496856,30.072410994812,60.6428956805285));
#410=CARTESIAN_POINT('Ctrl Pts',(31.5882444911448,32.8024086580536,64.6633453684558));
#411=CARTESIAN_POINT('Ctrl Pts',(30.2865672011193,33.989406890983,66.8281735303786));
#412=CARTESIAN_POINT('Ctrl Pts',(27.9529670395374,35.9330977225655,71.3919112848438));
#413=CARTESIAN_POINT('Ctrl Pts',(26.9217517827489,36.691621813603,73.7922327664179));
#414=CARTESIAN_POINT('Ctrl Pts',(25.4535683261288,37.7249478701213,78.7748752027659));
#415=CARTESIAN_POINT('Ctrl Pts',(25.0249875124844,38.,81.35961187546));
#416=CARTESIAN_POINT('Ctrl Pts',(25.0249875124844,38.,84.0000000011236));
#417=CARTESIAN_POINT('Origin',(-8.88178419700125E-015,0.,22.));
#418=CARTESIAN_POINT('',(-37.5,-4.592274E-015,44.));
#419=CARTESIAN_POINT('Origin',(0.,0.,44.));
#420=CARTESIAN_POINT('',(-37.5,-4.592274E-015,0.));
#421=CARTESIAN_POINT('Origin',(0.,0.,0.));
#422=CARTESIAN_POINT('Origin',(0.,0.,84.));
#423=CARTESIAN_POINT('',(77.9999999982939,-4.653504E-015,122.000000003502));
#424=CARTESIAN_POINT('Origin',(78.,0.,84.000000003502));
#425=CARTESIAN_POINT('Origin',(-8.88178419700125E-015,0.,146.));
#426=CARTESIAN_POINT('',(-37.5,-4.592274E-015,168.));
#427=CARTESIAN_POINT('Origin',(0.,0.,168.));
#428=CARTESIAN_POINT('',(-37.5,-4.592274E-015,124.));
#429=CARTESIAN_POINT('Origin',(0.,0.,124.));
#430=CARTESIAN_POINT('Origin',(59.,0.,84.000000002649));
#431=CARTESIAN_POINT('',(77.9999999985858,-3.85751E-015,115.500000003502));
#432=CARTESIAN_POINT('Origin',(78.,0.,84.000000003502));
#433=CARTESIAN_POINT('',(39.9999999985858,-3.85751E-015,115.500000001796));
#434=CARTESIAN_POINT('Origin',(40.,0.,84.000000001796));
#435=CARTESIAN_POINT('Origin',(0.,0.,0.));
#436=CARTESIAN_POINT('Origin',(0.,0.,44.));
#437=CARTESIAN_POINT('Origin',(0.,0.,168.));
#438=CARTESIAN_POINT('Origin',(78.,0.,84.000000003502));
#439=CARTESIAN_POINT('Origin',(0.,0.,124.));
#440=CARTESIAN_POINT('Origin',(40.,0.,84.000000001796));
#441=UNCERTAINTY_MEASURE_WITH_UNIT(LENGTH_MEASURE(0.01),#443,
'DISTANCE_ACCURACY_VALUE',
'Maximum model space distance between geometric entities at asserted c
onnectivities');
#442=(
GEOMETRIC_REPRESENTATION_CONTEXT(3)
GLOBAL_UNCERTAINTY_ASSIGNED_CONTEXT((#441))
GLOBAL_UNIT_ASSIGNED_CONTEXT((#443,#446,#444))
REPRESENTATION_CONTEXT('','3D')
);
#443=(
LENGTH_UNIT()
NAMED_UNIT(*)
SI_UNIT(.MILLI.,.METRE.)
);
#444=(
NAMED_UNIT(*)
SI_UNIT($,.STERADIAN.)
SOLID_ANGLE_UNIT()
);
#445=DIMENSIONAL_EXPONENTS(0.,0.,0.,0.,0.,0.,0.);
#446=(
CONVERSION_BASED_UNIT('degree',#448)
NAMED_UNIT(#445)
PLANE_ANGLE_UNIT()
);
#447=(
NAMED_UNIT(*)
PLANE_ANGLE_UNIT()
SI_UNIT($,.RADIAN.)
);
#448=PLANE_ANGLE_MEASURE_WITH_UNIT(PLANE_ANGLE_MEASURE(0.01745329252),#447);
#449=SHAPE_DEFINITION_REPRESENTATION(#450,#451);
#450=PRODUCT_DEFINITION_SHAPE('',$,#453);
#451=SHAPE_REPRESENTATION('',(#182),#442);
#452=PRODUCT_DEFINITION_CONTEXT('3D Mechanical Parts',#456,'design');
#453=PRODUCT_DEFINITION('TRIV075063','TRIV075063',#454,#452);
#454=PRODUCT_DEFINITION_FORMATION('',$,#458);
#455=APPLICATION_PROTOCOL_DEFINITION('international standard',
'automotive_design',2009,#456);
#456=APPLICATION_CONTEXT(
'Core Data for Automotive Mechanical Design Process');
#457=PRODUCT_CONTEXT('3D Mechanical Parts',#456,'mechanical');
#458=PRODUCT('TRIV075063','TRIV075063',$,(#457));
#459=PRESENTATION_STYLE_ASSIGNMENT((#460));
#460=SURFACE_STYLE_USAGE(.BOTH.,#461);
#461=SURFACE_SIDE_STYLE($,(#462));
#462=SURFACE_STYLE_FILL_AREA(#463);
#463=FILL_AREA_STYLE($,(#464));
#464=FILL_AREA_STYLE_COLOUR($,#465);
#465=COLOUR_RGB('',0.509803921568627,0.509803921568627,0.588235294117647);
ENDSEC;
END-ISO-10303-21;
