ISO-10303-21;
HEADER;
/* Generated by software containing ST-Developer
 * from STEP Tools, Inc. (www.steptools.com) 
 */

FILE_DESCRIPTION(
/* description */ (''),
/* implementation_level */ '2;1');

FILE_NAME(
/* name */ 
'Q:\\Ric010\\FF7\\FIPlastiCAD\\FIP\\Lavoro\\PVC Fittings\\PVC Fittings
 STEP\\TIFV\\TIFV032012.ipt.stp',
/* time_stamp */ '2013-10-01T14:55:19+02:00',
/* author */ ('bfaro'),
/* organization */ (''),
/* preprocessor_version */ 'ST-DEVELOPER v15.2',
/* originating_system */ 'Autodesk Inventor 2014',
/* authorisation */ '');

FILE_SCHEMA (('AUTOMOTIVE_DESIGN { 1 0 10303 214 3 1 1 }'));
ENDSEC;

DATA;
#10=SHAPE_REPRESENTATION_RELATIONSHIP('SRR','None',#413,#11);
#11=ADVANCED_BREP_SHAPE_REPRESENTATION($,(#187),#404);
#12=PLANE($,#208);
#13=PLANE($,#209);
#14=PLANE($,#210);
#15=PLANE($,#211);
#16=PLANE($,#212);
#17=PLANE($,#213);
#18=STYLED_ITEM($,(#422),#179);
#19=STYLED_ITEM($,(#421),#187);
#20=B_SPLINE_CURVE_WITH_KNOTS($,3,(#282,#283,#284,#285,#286,#287,#288,#289,
#290,#291,#292,#293,#294,#295,#296,#297,#298,#299,#300,#301,#302,#303,#304,
#305,#306,#307),.UNSPECIFIED.,.F.,.F.,(4,2,2,2,2,2,2,2,2,2,2,2,4),(2.20316578007516,
2.47683010706979,2.75049443406443,3.29782308805369,3.85207732410201,4.12920444212616,
4.40633156015032,4.68345867817448,4.96058579619863,5.51484003224695,6.06216868623621,
6.33583301323085,6.60949734022548),.UNSPECIFIED.);
#21=B_SPLINE_CURVE_WITH_KNOTS($,3,(#309,#310,#311,#312,#313,#314,#315,#316,
#317,#318,#319,#320,#321,#322),.UNSPECIFIED.,.F.,.F.,(4,2,2,2,2,2,4),(-2.20316578007516,
-1.92950145308053,-1.65583712608589,-1.10850847209663,-0.554254236048314,
-0.277127118024157,0.),.UNSPECIFIED.);
#22=B_SPLINE_CURVE_WITH_KNOTS($,3,(#323,#324,#325,#326,#327,#328,#329,#330,
#331,#332,#333,#334,#335,#336),.UNSPECIFIED.,.F.,.F.,(4,2,2,2,2,2,4),(-8.81266312030064,
-8.53553600227648,-8.25840888425233,-7.70415464820401,-7.15682599421475,
-6.88316166722011,-6.60949734022548),.UNSPECIFIED.);
#23=B_SPLINE_CURVE_WITH_KNOTS($,3,(#344,#345,#346,#347,#348,#349,#350,#351,
#352,#353,#354,#355,#356,#357,#358,#359,#360,#361,#362),.UNSPECIFIED.,.F.,
 .F.,(4,2,2,2,3,2,2,2,4),(3.49747771217371,3.78799089062314,4.07850406907258,
4.3709038426521,4.66330361623162,4.95570338981114,5.24810316339066,5.53861634184009,
5.82912952028952),.UNSPECIFIED.);
#24=B_SPLINE_CURVE_WITH_KNOTS($,3,(#364,#365,#366,#367,#368,#369,#370,#371,
#372,#373),.UNSPECIFIED.,.F.,.F.,(4,2,2,2,4),(-2.33165180811581,-2.03925203453629,
-1.74685226095677,-1.45633908250734,-1.1658259040579),.UNSPECIFIED.);
#25=B_SPLINE_CURVE_WITH_KNOTS($,3,(#374,#375,#376,#377,#378,#379,#380,#381,
#382,#383),.UNSPECIFIED.,.F.,.F.,(4,2,2,2,4),(-3.49747771217371,-3.20696453372428,
-2.91645135527485,-2.62405158169533,-2.33165180811581),.UNSPECIFIED.);
#26=FACE_BOUND($,#55,.T.);
#27=FACE_BOUND($,#57,.T.);
#28=FACE_BOUND($,#59,.T.);
#29=FACE_BOUND($,#60,.T.);
#30=FACE_BOUND($,#62,.T.);
#31=FACE_BOUND($,#63,.T.);
#32=FACE_BOUND($,#65,.T.);
#33=FACE_BOUND($,#67,.T.);
#34=FACE_BOUND($,#69,.T.);
#35=FACE_BOUND($,#71,.T.);
#36=FACE_BOUND($,#73,.T.);
#37=FACE_BOUND($,#75,.T.);
#38=FACE_BOUND($,#77,.T.);
#39=FACE_BOUND($,#79,.T.);
#40=FACE_BOUND($,#81,.T.);
#41=FACE_OUTER_BOUND($,#54,.T.);
#42=FACE_OUTER_BOUND($,#56,.T.);
#43=FACE_OUTER_BOUND($,#58,.T.);
#44=FACE_OUTER_BOUND($,#61,.T.);
#45=FACE_OUTER_BOUND($,#64,.T.);
#46=FACE_OUTER_BOUND($,#66,.T.);
#47=FACE_OUTER_BOUND($,#68,.T.);
#48=FACE_OUTER_BOUND($,#70,.T.);
#49=FACE_OUTER_BOUND($,#72,.T.);
#50=FACE_OUTER_BOUND($,#74,.T.);
#51=FACE_OUTER_BOUND($,#76,.T.);
#52=FACE_OUTER_BOUND($,#78,.T.);
#53=FACE_OUTER_BOUND($,#80,.T.);
#54=EDGE_LOOP($,(#130));
#55=EDGE_LOOP($,(#131));
#56=EDGE_LOOP($,(#132));
#57=EDGE_LOOP($,(#133));
#58=EDGE_LOOP($,(#134));
#59=EDGE_LOOP($,(#135,#136,#137));
#60=EDGE_LOOP($,(#138));
#61=EDGE_LOOP($,(#139));
#62=EDGE_LOOP($,(#140,#141,#142));
#63=EDGE_LOOP($,(#143));
#64=EDGE_LOOP($,(#144,#145,#146));
#65=EDGE_LOOP($,(#147));
#66=EDGE_LOOP($,(#148,#149,#150));
#67=EDGE_LOOP($,(#151));
#68=EDGE_LOOP($,(#152));
#69=EDGE_LOOP($,(#153));
#70=EDGE_LOOP($,(#154));
#71=EDGE_LOOP($,(#155));
#72=EDGE_LOOP($,(#156));
#73=EDGE_LOOP($,(#157));
#74=EDGE_LOOP($,(#158));
#75=EDGE_LOOP($,(#159));
#76=EDGE_LOOP($,(#160));
#77=EDGE_LOOP($,(#161));
#78=EDGE_LOOP($,(#162));
#79=EDGE_LOOP($,(#163));
#80=EDGE_LOOP($,(#164));
#81=EDGE_LOOP($,(#165));
#82=CIRCLE($,#190,16.);
#83=CIRCLE($,#191,16.);
#84=CIRCLE($,#193,16.);
#85=CIRCLE($,#194,16.);
#86=CIRCLE($,#196,20.5);
#87=CIRCLE($,#197,20.5);
#88=CIRCLE($,#199,12.5);
#89=CIRCLE($,#200,12.5);
#90=CIRCLE($,#202,14.);
#91=CIRCLE($,#204,7.5);
#92=CIRCLE($,#206,9.3);
#93=CIRCLE($,#207,9.3);
#94=VERTEX_POINT($,#268);
#95=VERTEX_POINT($,#270);
#96=VERTEX_POINT($,#273);
#97=VERTEX_POINT($,#275);
#98=VERTEX_POINT($,#278);
#99=VERTEX_POINT($,#280);
#100=VERTEX_POINT($,#281);
#101=VERTEX_POINT($,#308);
#102=VERTEX_POINT($,#337);
#103=VERTEX_POINT($,#340);
#104=VERTEX_POINT($,#342);
#105=VERTEX_POINT($,#343);
#106=VERTEX_POINT($,#363);
#107=VERTEX_POINT($,#384);
#108=VERTEX_POINT($,#387);
#109=VERTEX_POINT($,#390);
#110=VERTEX_POINT($,#393);
#111=VERTEX_POINT($,#395);
#112=EDGE_CURVE($,#94,#94,#82,.T.);
#113=EDGE_CURVE($,#95,#95,#83,.T.);
#114=EDGE_CURVE($,#96,#96,#84,.T.);
#115=EDGE_CURVE($,#97,#97,#85,.T.);
#116=EDGE_CURVE($,#98,#98,#86,.T.);
#117=EDGE_CURVE($,#99,#100,#20,.T.);
#118=EDGE_CURVE($,#100,#101,#21,.T.);
#119=EDGE_CURVE($,#101,#99,#22,.T.);
#120=EDGE_CURVE($,#102,#102,#87,.T.);
#121=EDGE_CURVE($,#103,#103,#88,.T.);
#122=EDGE_CURVE($,#104,#105,#23,.T.);
#123=EDGE_CURVE($,#106,#104,#24,.T.);
#124=EDGE_CURVE($,#105,#106,#25,.T.);
#125=EDGE_CURVE($,#107,#107,#89,.T.);
#126=EDGE_CURVE($,#108,#108,#90,.T.);
#127=EDGE_CURVE($,#109,#109,#91,.T.);
#128=EDGE_CURVE($,#110,#110,#92,.T.);
#129=EDGE_CURVE($,#111,#111,#93,.T.);
#130=ORIENTED_EDGE($,*,*,#112,.F.);
#131=ORIENTED_EDGE($,*,*,#113,.T.);
#132=ORIENTED_EDGE($,*,*,#114,.F.);
#133=ORIENTED_EDGE($,*,*,#115,.T.);
#134=ORIENTED_EDGE($,*,*,#116,.T.);
#135=ORIENTED_EDGE($,*,*,#117,.T.);
#136=ORIENTED_EDGE($,*,*,#118,.T.);
#137=ORIENTED_EDGE($,*,*,#119,.T.);
#138=ORIENTED_EDGE($,*,*,#120,.F.);
#139=ORIENTED_EDGE($,*,*,#121,.F.);
#140=ORIENTED_EDGE($,*,*,#122,.F.);
#141=ORIENTED_EDGE($,*,*,#123,.F.);
#142=ORIENTED_EDGE($,*,*,#124,.F.);
#143=ORIENTED_EDGE($,*,*,#125,.T.);
#144=ORIENTED_EDGE($,*,*,#119,.F.);
#145=ORIENTED_EDGE($,*,*,#118,.F.);
#146=ORIENTED_EDGE($,*,*,#117,.F.);
#147=ORIENTED_EDGE($,*,*,#126,.F.);
#148=ORIENTED_EDGE($,*,*,#124,.T.);
#149=ORIENTED_EDGE($,*,*,#123,.T.);
#150=ORIENTED_EDGE($,*,*,#122,.T.);
#151=ORIENTED_EDGE($,*,*,#127,.F.);
#152=ORIENTED_EDGE($,*,*,#128,.T.);
#153=ORIENTED_EDGE($,*,*,#129,.T.);
#154=ORIENTED_EDGE($,*,*,#128,.F.);
#155=ORIENTED_EDGE($,*,*,#127,.T.);
#156=ORIENTED_EDGE($,*,*,#126,.T.);
#157=ORIENTED_EDGE($,*,*,#129,.F.);
#158=ORIENTED_EDGE($,*,*,#120,.T.);
#159=ORIENTED_EDGE($,*,*,#115,.F.);
#160=ORIENTED_EDGE($,*,*,#114,.T.);
#161=ORIENTED_EDGE($,*,*,#125,.F.);
#162=ORIENTED_EDGE($,*,*,#113,.F.);
#163=ORIENTED_EDGE($,*,*,#121,.T.);
#164=ORIENTED_EDGE($,*,*,#116,.F.);
#165=ORIENTED_EDGE($,*,*,#112,.T.);
#166=CYLINDRICAL_SURFACE($,#189,16.);
#167=CYLINDRICAL_SURFACE($,#192,16.);
#168=CYLINDRICAL_SURFACE($,#195,20.5);
#169=CYLINDRICAL_SURFACE($,#198,12.5);
#170=CYLINDRICAL_SURFACE($,#201,14.);
#171=CYLINDRICAL_SURFACE($,#203,7.5);
#172=CYLINDRICAL_SURFACE($,#205,9.3);
#173=ADVANCED_FACE($,(#41,#26),#166,.F.);
#174=ADVANCED_FACE($,(#42,#27),#167,.F.);
#175=ADVANCED_FACE($,(#43,#28,#29),#168,.T.);
#176=ADVANCED_FACE($,(#44,#30,#31),#169,.F.);
#177=ADVANCED_FACE($,(#45,#32),#170,.T.);
#178=ADVANCED_FACE($,(#46,#33),#171,.F.);
#179=ADVANCED_FACE($,(#47,#34),#172,.F.);
#180=ADVANCED_FACE($,(#48,#35),#12,.F.);
#181=ADVANCED_FACE($,(#49,#36),#13,.T.);
#182=ADVANCED_FACE($,(#50,#37),#14,.T.);
#183=ADVANCED_FACE($,(#51,#38),#15,.T.);
#184=ADVANCED_FACE($,(#52,#39),#16,.T.);
#185=ADVANCED_FACE($,(#53,#40),#17,.T.);
#186=CLOSED_SHELL($,(#173,#174,#175,#176,#177,#178,#179,#180,#181,#182,
#183,#184,#185));
#187=MANIFOLD_SOLID_BREP('B7',#186);
#188=AXIS2_PLACEMENT_3D('placement',#266,#214,#215);
#189=AXIS2_PLACEMENT_3D($,#267,#216,#217);
#190=AXIS2_PLACEMENT_3D($,#269,#218,#219);
#191=AXIS2_PLACEMENT_3D($,#271,#220,#221);
#192=AXIS2_PLACEMENT_3D($,#272,#222,#223);
#193=AXIS2_PLACEMENT_3D($,#274,#224,#225);
#194=AXIS2_PLACEMENT_3D($,#276,#226,#227);
#195=AXIS2_PLACEMENT_3D($,#277,#228,#229);
#196=AXIS2_PLACEMENT_3D($,#279,#230,#231);
#197=AXIS2_PLACEMENT_3D($,#338,#232,#233);
#198=AXIS2_PLACEMENT_3D($,#339,#234,#235);
#199=AXIS2_PLACEMENT_3D($,#341,#236,#237);
#200=AXIS2_PLACEMENT_3D($,#385,#238,#239);
#201=AXIS2_PLACEMENT_3D($,#386,#240,#241);
#202=AXIS2_PLACEMENT_3D($,#388,#242,#243);
#203=AXIS2_PLACEMENT_3D($,#389,#244,#245);
#204=AXIS2_PLACEMENT_3D($,#391,#246,#247);
#205=AXIS2_PLACEMENT_3D($,#392,#248,#249);
#206=AXIS2_PLACEMENT_3D($,#394,#250,#251);
#207=AXIS2_PLACEMENT_3D($,#396,#252,#253);
#208=AXIS2_PLACEMENT_3D($,#397,#254,#255);
#209=AXIS2_PLACEMENT_3D($,#398,#256,#257);
#210=AXIS2_PLACEMENT_3D($,#399,#258,#259);
#211=AXIS2_PLACEMENT_3D($,#400,#260,#261);
#212=AXIS2_PLACEMENT_3D($,#401,#262,#263);
#213=AXIS2_PLACEMENT_3D($,#402,#264,#265);
#214=DIRECTION('axis',(0.,0.,1.));
#215=DIRECTION('refdir',(1.,0.,0.));
#216=DIRECTION('center_axis',(-1.,0.,0.));
#217=DIRECTION('ref_axis',(0.,0.,-1.));
#218=DIRECTION('center_axis',(-1.,0.,0.));
#219=DIRECTION('ref_axis',(0.,0.,-1.));
#220=DIRECTION('center_axis',(-1.,0.,0.));
#221=DIRECTION('ref_axis',(0.,0.,-1.));
#222=DIRECTION('center_axis',(-1.,0.,0.));
#223=DIRECTION('ref_axis',(0.,0.,-1.));
#224=DIRECTION('center_axis',(-1.,0.,0.));
#225=DIRECTION('ref_axis',(0.,0.,-1.));
#226=DIRECTION('center_axis',(-1.,0.,0.));
#227=DIRECTION('ref_axis',(0.,0.,-1.));
#228=DIRECTION('center_axis',(-1.,0.,0.));
#229=DIRECTION('ref_axis',(0.,0.,-1.));
#230=DIRECTION('center_axis',(-1.,0.,0.));
#231=DIRECTION('ref_axis',(0.,0.,-1.));
#232=DIRECTION('center_axis',(-1.,0.,0.));
#233=DIRECTION('ref_axis',(0.,0.,-1.));
#234=DIRECTION('center_axis',(-1.,0.,0.));
#235=DIRECTION('ref_axis',(0.,0.,-1.));
#236=DIRECTION('center_axis',(-1.,0.,0.));
#237=DIRECTION('ref_axis',(0.,0.,-1.));
#238=DIRECTION('center_axis',(-1.,0.,0.));
#239=DIRECTION('ref_axis',(0.,0.,-1.));
#240=DIRECTION('center_axis',(1.345725E-016,-1.83691E-016,1.));
#241=DIRECTION('ref_axis',(-1.,-2.47197570975E-032,1.345725E-016));
#242=DIRECTION('center_axis',(0.,0.,1.));
#243=DIRECTION('ref_axis',(-1.,0.,0.));
#244=DIRECTION('center_axis',(1.345725E-016,-1.83691E-016,1.));
#245=DIRECTION('ref_axis',(-1.,-2.47197570975E-032,1.345725E-016));
#246=DIRECTION('center_axis',(0.,0.,-1.));
#247=DIRECTION('ref_axis',(-1.,0.,0.));
#248=DIRECTION('center_axis',(1.345725E-016,-1.83691E-016,1.));
#249=DIRECTION('ref_axis',(-1.,-2.47197570975E-032,1.345725E-016));
#250=DIRECTION('center_axis',(0.,0.,-1.));
#251=DIRECTION('ref_axis',(-1.,0.,0.));
#252=DIRECTION('center_axis',(0.,0.,1.));
#253=DIRECTION('ref_axis',(-1.,0.,0.));
#254=DIRECTION('center_axis',(0.,0.,-1.));
#255=DIRECTION('ref_axis',(0.,1.,0.));
#256=DIRECTION('center_axis',(0.,0.,1.));
#257=DIRECTION('ref_axis',(0.,-1.,0.));
#258=DIRECTION('center_axis',(-1.,0.,0.));
#259=DIRECTION('ref_axis',(0.,-1.,0.));
#260=DIRECTION('center_axis',(-1.,0.,0.));
#261=DIRECTION('ref_axis',(0.,-1.,0.));
#262=DIRECTION('center_axis',(1.,0.,0.));
#263=DIRECTION('ref_axis',(0.,1.,0.));
#264=DIRECTION('center_axis',(1.,0.,0.));
#265=DIRECTION('ref_axis',(0.,1.,0.));
#266=CARTESIAN_POINT('',(0.,0.,0.));
#267=CARTESIAN_POINT('Origin',(46.,0.,0.));
#268=CARTESIAN_POINT('',(57.,-9.796851E-016,16.));
#269=CARTESIAN_POINT('Origin',(57.,0.,0.));
#270=CARTESIAN_POINT('',(35.,-9.796851E-016,16.));
#271=CARTESIAN_POINT('Origin',(35.,0.,0.));
#272=CARTESIAN_POINT('Origin',(-11.,0.,0.));
#273=CARTESIAN_POINT('',(0.,-9.796851E-016,16.));
#274=CARTESIAN_POINT('Origin',(0.,0.,0.));
#275=CARTESIAN_POINT('',(-22.,-9.796851E-016,16.));
#276=CARTESIAN_POINT('Origin',(-22.,0.,0.));
#277=CARTESIAN_POINT('Origin',(17.5,0.,0.));
#278=CARTESIAN_POINT('',(57.,-1.255222E-015,20.5));
#279=CARTESIAN_POINT('Origin',(57.,0.,0.));
#280=CARTESIAN_POINT('',(31.5,-2.174693E-015,20.5));
#281=CARTESIAN_POINT('',(3.5,-5.696452E-015,20.5));
#282=CARTESIAN_POINT('Ctrl Pts',(31.5,-6.03683769639929E-015,20.5));
#283=CARTESIAN_POINT('Ctrl Pts',(31.5,-0.912214423315452,20.5));
#284=CARTESIAN_POINT('Ctrl Pts',(31.4094072406183,-1.84586585398914,20.4377831630273));
#285=CARTESIAN_POINT('Ctrl Pts',(31.0391291620256,-3.6838583120733,20.1876048430861));
#286=CARTESIAN_POINT('Ctrl Pts',(30.7595975918466,-4.58824959937012,19.9997850948583));
#287=CARTESIAN_POINT('Ctrl Pts',(29.6715475528069,-7.16444405732696,19.2897507163455));
#288=CARTESIAN_POINT('Ctrl Pts',(28.6014138365133,-8.69757603671005,18.6141371720562));
#289=CARTESIAN_POINT('Ctrl Pts',(26.182367646086,-11.1166222271373,17.2801221014774));
#290=CARTESIAN_POINT('Ctrl Pts',(24.6522977023993,-12.1768626973479,16.5176659812813));
#291=CARTESIAN_POINT('Ctrl Pts',(22.0925657953933,-13.2576819825128,15.6428489371728));
#292=CARTESIAN_POINT('Ctrl Pts',(21.1945311022413,-13.5361015790921,15.3976097715465));
#293=CARTESIAN_POINT('Ctrl Pts',(19.3602522124746,-13.9073745550742,15.0631127686929));
#294=CARTESIAN_POINT('Ctrl Pts',(18.4237570600805,-14.,14.9749791318719));
#295=CARTESIAN_POINT('Ctrl Pts',(16.5762429399195,-14.,14.9749791318719));
#296=CARTESIAN_POINT('Ctrl Pts',(15.6397477875254,-13.9073745550742,15.0631127686929));
#297=CARTESIAN_POINT('Ctrl Pts',(13.8054688977587,-13.5361015790921,15.3976097715465));
#298=CARTESIAN_POINT('Ctrl Pts',(12.9074342046067,-13.2576819825128,15.6428489371728));
#299=CARTESIAN_POINT('Ctrl Pts',(10.3477022976007,-12.1768626973479,16.5176659812813));
#300=CARTESIAN_POINT('Ctrl Pts',(8.81763235391398,-11.1166222271373,17.2801221014774));
#301=CARTESIAN_POINT('Ctrl Pts',(6.39858616348671,-8.69757603671004,18.6141371720562));
#302=CARTESIAN_POINT('Ctrl Pts',(5.32845244719308,-7.16444405732695,19.2897507163455));
#303=CARTESIAN_POINT('Ctrl Pts',(4.24040240815345,-4.58824959937011,19.9997850948583));
#304=CARTESIAN_POINT('Ctrl Pts',(3.96087083797442,-3.6838583120733,20.1876048430861));
#305=CARTESIAN_POINT('Ctrl Pts',(3.59059275938171,-1.84586585398914,20.4377831630273));
#306=CARTESIAN_POINT('Ctrl Pts',(3.5,-0.912214423315449,20.5));
#307=CARTESIAN_POINT('Ctrl Pts',(3.5,-4.23272528138341E-015,20.5));
#308=CARTESIAN_POINT('',(17.5,14.,14.9749791318719));
#309=CARTESIAN_POINT('Ctrl Pts',(3.5,-7.70217223333702E-015,20.5));
#310=CARTESIAN_POINT('Ctrl Pts',(3.5,0.912214423315435,20.5));
#311=CARTESIAN_POINT('Ctrl Pts',(3.59059275938171,1.84586585398912,20.4377831630273));
#312=CARTESIAN_POINT('Ctrl Pts',(3.96087083797442,3.68385831207328,20.1876048430861));
#313=CARTESIAN_POINT('Ctrl Pts',(4.24040240815344,4.5882495993701,19.9997850948583));
#314=CARTESIAN_POINT('Ctrl Pts',(5.32845244719307,7.16444405732693,19.2897507163455));
#315=CARTESIAN_POINT('Ctrl Pts',(6.3985861634867,8.69757603671003,18.6141371720562));
#316=CARTESIAN_POINT('Ctrl Pts',(8.81763235391397,11.1166222271373,17.2801221014774));
#317=CARTESIAN_POINT('Ctrl Pts',(10.3477022976007,12.1768626973479,16.5176659812813));
#318=CARTESIAN_POINT('Ctrl Pts',(12.9074342046067,13.2576819825128,15.6428489371729));
#319=CARTESIAN_POINT('Ctrl Pts',(13.8054688977587,13.5361015790921,15.3976097715465));
#320=CARTESIAN_POINT('Ctrl Pts',(15.6397477875254,13.9073745550742,15.0631127686929));
#321=CARTESIAN_POINT('Ctrl Pts',(16.5762429399195,14.,14.9749791318719));
#322=CARTESIAN_POINT('Ctrl Pts',(17.5,14.,14.9749791318719));
#323=CARTESIAN_POINT('Ctrl Pts',(17.5,14.,14.9749791318719));
#324=CARTESIAN_POINT('Ctrl Pts',(18.4237570600805,14.,14.9749791318719));
#325=CARTESIAN_POINT('Ctrl Pts',(19.3602522124746,13.9073745550742,15.0631127686929));
#326=CARTESIAN_POINT('Ctrl Pts',(21.1945311022413,13.5361015790921,15.3976097715465));
#327=CARTESIAN_POINT('Ctrl Pts',(22.0925657953933,13.2576819825128,15.6428489371729));
#328=CARTESIAN_POINT('Ctrl Pts',(24.6522977023993,12.1768626973479,16.5176659812813));
#329=CARTESIAN_POINT('Ctrl Pts',(26.182367646086,11.1166222271373,17.2801221014774));
#330=CARTESIAN_POINT('Ctrl Pts',(28.6014138365133,8.69757603671004,18.6141371720562));
#331=CARTESIAN_POINT('Ctrl Pts',(29.6715475528069,7.16444405732694,19.2897507163455));
#332=CARTESIAN_POINT('Ctrl Pts',(30.7595975918466,4.58824959937011,19.9997850948583));
#333=CARTESIAN_POINT('Ctrl Pts',(31.0391291620256,3.6838583120733,20.1876048430861));
#334=CARTESIAN_POINT('Ctrl Pts',(31.4094072406183,1.84586585398913,20.4377831630273));
#335=CARTESIAN_POINT('Ctrl Pts',(31.5,0.912214423315442,20.5));
#336=CARTESIAN_POINT('Ctrl Pts',(31.5,-2.35922392732846E-015,20.5));
#337=CARTESIAN_POINT('',(-22.,-1.255222E-015,20.5));
#338=CARTESIAN_POINT('Origin',(-22.,0.,0.));
#339=CARTESIAN_POINT('Origin',(17.5,0.,0.));
#340=CARTESIAN_POINT('',(35.,-7.65379E-016,12.5));
#341=CARTESIAN_POINT('Origin',(35.,0.,0.));
#342=CARTESIAN_POINT('',(10.,-1.209638E-015,12.5));
#343=CARTESIAN_POINT('',(25.,-2.082678E-015,12.5));
#344=CARTESIAN_POINT('Ctrl Pts',(10.,-2.4980018054066E-015,12.5));
#345=CARTESIAN_POINT('Ctrl Pts',(10.,0.968377261498104,12.5));
#346=CARTESIAN_POINT('Ctrl Pts',(10.1987407001311,1.98477841537642,12.3776843657067));
#347=CARTESIAN_POINT('Ctrl Pts',(10.9726976065836,3.82649351897701,11.9375190779208));
#348=CARTESIAN_POINT('Ctrl Pts',(11.5466954611109,4.6532971789091,11.6237719825082));
#349=CARTESIAN_POINT('Ctrl Pts',(12.8509239506925,5.95752566849071,11.0127131737674));
#350=CARTESIAN_POINT('Ctrl Pts',(13.6765646072888,6.52858429196894,10.6696721264991));
#351=CARTESIAN_POINT('Ctrl Pts',(15.5121048564175,7.29995277448255,10.1575111348691));
#352=CARTESIAN_POINT('Ctrl Pts',(16.5253340880683,7.5,10.));
#353=CARTESIAN_POINT('Ctrl Pts',(17.5,7.5,10.));
#354=CARTESIAN_POINT('Ctrl Pts',(18.4746659119317,7.5,10.));
#355=CARTESIAN_POINT('Ctrl Pts',(19.4878951435825,7.29995277448255,10.1575111348691));
#356=CARTESIAN_POINT('Ctrl Pts',(21.3234353927112,6.52858429196894,10.6696721264991));
#357=CARTESIAN_POINT('Ctrl Pts',(22.1490760493075,5.95752566849071,11.0127131737674));
#358=CARTESIAN_POINT('Ctrl Pts',(23.4533045388891,4.6532971789091,11.6237719825082));
#359=CARTESIAN_POINT('Ctrl Pts',(24.0273023934164,3.82649351897701,11.9375190779208));
#360=CARTESIAN_POINT('Ctrl Pts',(24.8012592998689,1.98477841537642,12.3776843657067));
#361=CARTESIAN_POINT('Ctrl Pts',(25.,0.968377261498103,12.5));
#362=CARTESIAN_POINT('Ctrl Pts',(25.,-3.60822483003176E-015,12.5));
#363=CARTESIAN_POINT('',(17.5,-7.5,10.));
#364=CARTESIAN_POINT('Ctrl Pts',(17.5,-7.5,10.));
#365=CARTESIAN_POINT('Ctrl Pts',(16.5253340880683,-7.5,10.));
#366=CARTESIAN_POINT('Ctrl Pts',(15.5121048564175,-7.29995277448255,10.1575111348691));
#367=CARTESIAN_POINT('Ctrl Pts',(13.6765646072888,-6.52858429196894,10.6696721264991));
#368=CARTESIAN_POINT('Ctrl Pts',(12.8509239506925,-5.95752566849072,11.0127131737674));
#369=CARTESIAN_POINT('Ctrl Pts',(11.5466954611109,-4.65329717890911,11.6237719825082));
#370=CARTESIAN_POINT('Ctrl Pts',(10.9726976065836,-3.82649351897702,11.9375190779208));
#371=CARTESIAN_POINT('Ctrl Pts',(10.1987407001311,-1.98477841537643,12.3776843657067));
#372=CARTESIAN_POINT('Ctrl Pts',(10.,-0.968377261498112,12.5));
#373=CARTESIAN_POINT('Ctrl Pts',(10.,-4.30211422042248E-015,12.5));
#374=CARTESIAN_POINT('Ctrl Pts',(25.,-1.52655665885959E-015,12.5));
#375=CARTESIAN_POINT('Ctrl Pts',(25.,-0.968377261498108,12.5));
#376=CARTESIAN_POINT('Ctrl Pts',(24.8012592998689,-1.98477841537642,12.3776843657067));
#377=CARTESIAN_POINT('Ctrl Pts',(24.0273023934164,-3.82649351897701,11.9375190779208));
#378=CARTESIAN_POINT('Ctrl Pts',(23.4533045388891,-4.65329717890911,11.6237719825082));
#379=CARTESIAN_POINT('Ctrl Pts',(22.1490760493075,-5.95752566849071,11.0127131737674));
#380=CARTESIAN_POINT('Ctrl Pts',(21.3234353927112,-6.52858429196894,10.6696721264991));
#381=CARTESIAN_POINT('Ctrl Pts',(19.4878951435825,-7.29995277448255,10.1575111348691));
#382=CARTESIAN_POINT('Ctrl Pts',(18.4746659119317,-7.5,10.));
#383=CARTESIAN_POINT('Ctrl Pts',(17.5,-7.5,10.));
#384=CARTESIAN_POINT('',(0.,-7.65379E-016,12.5));
#385=CARTESIAN_POINT('Origin',(0.,0.,0.));
#386=CARTESIAN_POINT('Origin',(17.5,-3.552714E-015,16.5));
#387=CARTESIAN_POINT('',(31.5,-4.869166E-015,33.));
#388=CARTESIAN_POINT('Origin',(17.5,-5.329071E-015,33.));
#389=CARTESIAN_POINT('Origin',(17.5,-1.776357E-015,9.));
#390=CARTESIAN_POINT('',(25.,-2.511121E-015,18.));
#391=CARTESIAN_POINT('Origin',(17.5,-3.552714E-015,18.));
#392=CARTESIAN_POINT('Origin',(17.5,-5.329071E-015,25.5));
#393=CARTESIAN_POINT('',(26.8,-2.812504E-015,18.));
#394=CARTESIAN_POINT('Origin',(17.5,-3.552714E-015,18.));
#395=CARTESIAN_POINT('',(26.8,-5.567869E-015,33.));
#396=CARTESIAN_POINT('Origin',(17.5,-5.329071E-015,33.));
#397=CARTESIAN_POINT('Origin',(9.1,-3.552714E-015,18.));
#398=CARTESIAN_POINT('Origin',(5.85,-5.329071E-015,33.));
#399=CARTESIAN_POINT('Origin',(-22.,3.552714E-015,-18.25));
#400=CARTESIAN_POINT('Origin',(1.776357E-015,1.776357E-015,-14.25));
#401=CARTESIAN_POINT('Origin',(35.,1.776357E-015,-14.25));
#402=CARTESIAN_POINT('Origin',(57.,3.552714E-015,-18.25));
#403=UNCERTAINTY_MEASURE_WITH_UNIT(LENGTH_MEASURE(0.01),#405,
'DISTANCE_ACCURACY_VALUE',
'Maximum model space distance between geometric entities at asserted c
onnectivities');
#404=(
GEOMETRIC_REPRESENTATION_CONTEXT(3)
GLOBAL_UNCERTAINTY_ASSIGNED_CONTEXT((#403))
GLOBAL_UNIT_ASSIGNED_CONTEXT((#405,#408,#406))
REPRESENTATION_CONTEXT('','3D')
);
#405=(
LENGTH_UNIT()
NAMED_UNIT(*)
SI_UNIT(.MILLI.,.METRE.)
);
#406=(
NAMED_UNIT(*)
SI_UNIT($,.STERADIAN.)
SOLID_ANGLE_UNIT()
);
#407=DIMENSIONAL_EXPONENTS(0.,0.,0.,0.,0.,0.,0.);
#408=(
CONVERSION_BASED_UNIT('degree',#410)
NAMED_UNIT(#407)
PLANE_ANGLE_UNIT()
);
#409=(
NAMED_UNIT(*)
PLANE_ANGLE_UNIT()
SI_UNIT($,.RADIAN.)
);
#410=PLANE_ANGLE_MEASURE_WITH_UNIT(PLANE_ANGLE_MEASURE(0.01745329252),#409);
#411=SHAPE_DEFINITION_REPRESENTATION(#412,#413);
#412=PRODUCT_DEFINITION_SHAPE('',$,#415);
#413=SHAPE_REPRESENTATION('',(#188),#404);
#414=PRODUCT_DEFINITION_CONTEXT('3D Mechanical Parts',#418,'design');
#415=PRODUCT_DEFINITION('TIFV032012','TIFV032012',#416,#414);
#416=PRODUCT_DEFINITION_FORMATION('',$,#420);
#417=APPLICATION_PROTOCOL_DEFINITION('international standard',
'automotive_design',2009,#418);
#418=APPLICATION_CONTEXT(
'Core Data for Automotive Mechanical Design Process');
#419=PRODUCT_CONTEXT('3D Mechanical Parts',#418,'mechanical');
#420=PRODUCT('TIFV032012','TIFV032012',$,(#419));
#421=PRESENTATION_STYLE_ASSIGNMENT((#423));
#422=PRESENTATION_STYLE_ASSIGNMENT((#424));
#423=SURFACE_STYLE_USAGE(.BOTH.,#425);
#424=SURFACE_STYLE_USAGE(.BOTH.,#426);
#425=SURFACE_SIDE_STYLE($,(#427));
#426=SURFACE_SIDE_STYLE($,(#428));
#427=SURFACE_STYLE_FILL_AREA(#429);
#428=SURFACE_STYLE_FILL_AREA(#430);
#429=FILL_AREA_STYLE($,(#431));
#430=FILL_AREA_STYLE($,(#432));
#431=FILL_AREA_STYLE_COLOUR($,#433);
#432=FILL_AREA_STYLE_COLOUR($,#434);
#433=COLOUR_RGB('',0.509803921568627,0.509803921568627,0.588235294117647);
#434=COLOUR_RGB('',1.,0.,0.);
ENDSEC;
END-ISO-10303-21;
