ISO-10303-21;
HEADER;
/* Generated by software containing ST-Developer
 * from STEP Tools, Inc. (www.steptools.com) 
 */

FILE_DESCRIPTION(
/* description */ (''),
/* implementation_level */ '2;1');

FILE_NAME(
/* name */ 
'Q:\\Ric010\\FF7\\FIPlastiCAD\\FIP\\Lavoro\\PVC Fittings\\PVC Fittings
 STEP\\TRIV\\TRIV110075.ipt.stp',
/* time_stamp */ '2013-10-01T14:56:45+02:00',
/* author */ ('bfaro'),
/* organization */ (''),
/* preprocessor_version */ 'ST-DEVELOPER v15.2',
/* originating_system */ 'Autodesk Inventor 2014',
/* authorisation */ '');

FILE_SCHEMA (('AUTOMOTIVE_DESIGN { 1 0 10303 214 3 1 1 }'));
ENDSEC;

DATA;
#10=SHAPE_REPRESENTATION_RELATIONSHIP('SRR','None',#451,#11);
#11=ADVANCED_BREP_SHAPE_REPRESENTATION($,(#181),#442);
#12=STYLED_ITEM($,(#459),#181);
#13=PLANE($,#202);
#14=PLANE($,#203);
#15=PLANE($,#204);
#16=PLANE($,#205);
#17=PLANE($,#206);
#18=PLANE($,#207);
#19=FACE_BOUND($,#53,.T.);
#20=FACE_BOUND($,#55,.T.);
#21=FACE_BOUND($,#56,.T.);
#22=FACE_BOUND($,#58,.T.);
#23=FACE_BOUND($,#59,.T.);
#24=FACE_BOUND($,#61,.T.);
#25=FACE_BOUND($,#63,.T.);
#26=FACE_BOUND($,#65,.T.);
#27=FACE_BOUND($,#67,.T.);
#28=FACE_BOUND($,#69,.T.);
#29=FACE_BOUND($,#70,.T.);
#30=FACE_BOUND($,#71,.T.);
#31=FACE_BOUND($,#73,.T.);
#32=FACE_BOUND($,#75,.T.);
#33=FACE_BOUND($,#76,.T.);
#34=FACE_BOUND($,#77,.T.);
#35=FACE_BOUND($,#78,.T.);
#36=FACE_BOUND($,#79,.T.);
#37=B_SPLINE_CURVE_WITH_KNOTS($,3,(#265,#266,#267,#268,#269,#270,#271,#272,
#273,#274,#275,#276,#277,#278,#279,#280,#281,#282,#283,#284,#285,#286,#287,
#288,#289,#290,#291,#292,#293,#294,#295,#296,#297,#298,#299,#300,#301,#302,
#303,#304,#305,#306,#307,#308,#309,#310,#311,#312,#313,#314,#315,#316,#317,
#318,#319,#320,#321,#322,#323,#324,#325,#326,#327,#328,#329,#330),
 .UNSPECIFIED.,.T.,.F.,(4,2,2,2,2,2,2,2,2,2,2,2,2,2,2,2,2,2,2,2,2,2,2,2,
2,2,2,2,2,2,2,2,4),(0.,0.700741323678793,1.40148264735759,2.10222397103638,
2.80296529471517,3.49580480293695,4.18864431115874,4.88148381938052,5.57432332760231,
6.26716283582409,6.96000234404588,7.65284185226766,8.34568136048945,9.04642268416824,
9.74716400784703,10.4479053315258,11.1486466552046,11.8493879788679,12.5501293025312,
13.2508706261945,13.9516119498578,14.6444514580755,15.3372909662933,16.0301304745111,
16.7229699827288,17.4158094909497,18.1086489991706,18.8014885073915,19.4943280156124,
20.1950693392725,20.8958106629327,21.5965519865928,22.2972933102529),
 .UNSPECIFIED.);
#38=B_SPLINE_CURVE_WITH_KNOTS($,3,(#343,#344,#345,#346,#347,#348,#349,#350,
#351,#352,#353,#354,#355,#356,#357,#358,#359,#360),.UNSPECIFIED.,.F.,.F.,
(4,2,2,2,2,2,2,2,4),(14.3237455374336,15.2246649602659,16.1255843830983,
17.0265038059306,17.9274232287629,18.8169719980839,19.7065207674049,20.5960695367259,
21.4856183060469),.UNSPECIFIED.);
#39=B_SPLINE_CURVE_WITH_KNOTS($,3,(#362,#363,#364,#365,#366,#367,#368,#369,
#370,#371,#372,#373,#374,#375,#376,#377,#378,#379),.UNSPECIFIED.,.F.,.F.,
(4,2,2,2,2,2,2,2,4),(-14.3237455374336,-13.4228261145932,-12.5219066917527,
-11.6209872689123,-10.7200678460719,-9.830519076733,-8.94097030739414,-8.05142153805529,
-7.16187276871643),.UNSPECIFIED.);
#40=B_SPLINE_CURVE_WITH_KNOTS($,3,(#381,#382,#383,#384,#385,#386,#387,#388,
#389,#390,#391,#392,#393,#394,#395,#396,#397,#398),.UNSPECIFIED.,.F.,.F.,
(4,2,2,2,2,2,2,2,4),(21.4856183059445,22.3751670752833,23.2647158446222,
24.154264613961,25.0438133832999,25.9447328061403,26.8456522289808,27.7465716518212,
28.6474910746616),.UNSPECIFIED.);
#41=B_SPLINE_CURVE_WITH_KNOTS($,3,(#399,#400,#401,#402,#403,#404,#405,#406,
#407,#408,#409,#410,#411,#412,#413,#414,#415,#416),.UNSPECIFIED.,.F.,.F.,
(4,2,2,2,2,2,2,2,4),(-7.16187276861403,-6.27232399929304,-5.38277522997204,
-4.49322646065105,-3.60367769133006,-2.70275826849773,-1.8018388456654,
-0.900919422833069,-7.37188088351104E-013),.UNSPECIFIED.);
#42=FACE_OUTER_BOUND($,#52,.T.);
#43=FACE_OUTER_BOUND($,#54,.T.);
#44=FACE_OUTER_BOUND($,#57,.T.);
#45=FACE_OUTER_BOUND($,#60,.T.);
#46=FACE_OUTER_BOUND($,#62,.T.);
#47=FACE_OUTER_BOUND($,#64,.T.);
#48=FACE_OUTER_BOUND($,#66,.T.);
#49=FACE_OUTER_BOUND($,#68,.T.);
#50=FACE_OUTER_BOUND($,#72,.T.);
#51=FACE_OUTER_BOUND($,#74,.T.);
#52=EDGE_LOOP($,(#126));
#53=EDGE_LOOP($,(#127));
#54=EDGE_LOOP($,(#128));
#55=EDGE_LOOP($,(#129));
#56=EDGE_LOOP($,(#130));
#57=EDGE_LOOP($,(#131));
#58=EDGE_LOOP($,(#132));
#59=EDGE_LOOP($,(#133,#134,#135,#136));
#60=EDGE_LOOP($,(#137));
#61=EDGE_LOOP($,(#138));
#62=EDGE_LOOP($,(#139,#140,#141,#142));
#63=EDGE_LOOP($,(#143));
#64=EDGE_LOOP($,(#144));
#65=EDGE_LOOP($,(#145));
#66=EDGE_LOOP($,(#146));
#67=EDGE_LOOP($,(#147));
#68=EDGE_LOOP($,(#148));
#69=EDGE_LOOP($,(#149));
#70=EDGE_LOOP($,(#150));
#71=EDGE_LOOP($,(#151));
#72=EDGE_LOOP($,(#152));
#73=EDGE_LOOP($,(#153));
#74=EDGE_LOOP($,(#154));
#75=EDGE_LOOP($,(#155));
#76=EDGE_LOOP($,(#156));
#77=EDGE_LOOP($,(#157));
#78=EDGE_LOOP($,(#158));
#79=EDGE_LOOP($,(#159));
#80=CIRCLE($,#184,35.5);
#81=CIRCLE($,#186,53.);
#82=CIRCLE($,#187,53.);
#83=CIRCLE($,#189,66.5);
#84=CIRCLE($,#190,66.5);
#85=CIRCLE($,#192,55.);
#86=CIRCLE($,#193,55.);
#87=CIRCLE($,#195,45.5);
#88=CIRCLE($,#197,55.);
#89=CIRCLE($,#198,55.);
#90=CIRCLE($,#200,37.5);
#91=CIRCLE($,#201,37.5);
#92=VERTEX_POINT($,#262);
#93=VERTEX_POINT($,#264);
#94=VERTEX_POINT($,#332);
#95=VERTEX_POINT($,#334);
#96=VERTEX_POINT($,#337);
#97=VERTEX_POINT($,#339);
#98=VERTEX_POINT($,#341);
#99=VERTEX_POINT($,#342);
#100=VERTEX_POINT($,#361);
#101=VERTEX_POINT($,#380);
#102=VERTEX_POINT($,#418);
#103=VERTEX_POINT($,#420);
#104=VERTEX_POINT($,#423);
#105=VERTEX_POINT($,#426);
#106=VERTEX_POINT($,#428);
#107=VERTEX_POINT($,#431);
#108=VERTEX_POINT($,#433);
#109=EDGE_CURVE($,#92,#92,#80,.T.);
#110=EDGE_CURVE($,#93,#93,#37,.T.);
#111=EDGE_CURVE($,#94,#94,#81,.T.);
#112=EDGE_CURVE($,#95,#95,#82,.T.);
#113=EDGE_CURVE($,#96,#96,#83,.T.);
#114=EDGE_CURVE($,#97,#97,#84,.T.);
#115=EDGE_CURVE($,#98,#99,#38,.T.);
#116=EDGE_CURVE($,#98,#100,#39,.T.);
#117=EDGE_CURVE($,#100,#101,#40,.T.);
#118=EDGE_CURVE($,#99,#101,#41,.T.);
#119=EDGE_CURVE($,#102,#102,#85,.T.);
#120=EDGE_CURVE($,#103,#103,#86,.T.);
#121=EDGE_CURVE($,#104,#104,#87,.T.);
#122=EDGE_CURVE($,#105,#105,#88,.T.);
#123=EDGE_CURVE($,#106,#106,#89,.T.);
#124=EDGE_CURVE($,#107,#107,#90,.T.);
#125=EDGE_CURVE($,#108,#108,#91,.T.);
#126=ORIENTED_EDGE($,*,*,#109,.F.);
#127=ORIENTED_EDGE($,*,*,#110,.F.);
#128=ORIENTED_EDGE($,*,*,#111,.F.);
#129=ORIENTED_EDGE($,*,*,#112,.F.);
#130=ORIENTED_EDGE($,*,*,#110,.T.);
#131=ORIENTED_EDGE($,*,*,#113,.F.);
#132=ORIENTED_EDGE($,*,*,#114,.T.);
#133=ORIENTED_EDGE($,*,*,#115,.F.);
#134=ORIENTED_EDGE($,*,*,#116,.T.);
#135=ORIENTED_EDGE($,*,*,#117,.T.);
#136=ORIENTED_EDGE($,*,*,#118,.F.);
#137=ORIENTED_EDGE($,*,*,#119,.T.);
#138=ORIENTED_EDGE($,*,*,#120,.F.);
#139=ORIENTED_EDGE($,*,*,#116,.F.);
#140=ORIENTED_EDGE($,*,*,#115,.T.);
#141=ORIENTED_EDGE($,*,*,#118,.T.);
#142=ORIENTED_EDGE($,*,*,#117,.F.);
#143=ORIENTED_EDGE($,*,*,#121,.F.);
#144=ORIENTED_EDGE($,*,*,#122,.T.);
#145=ORIENTED_EDGE($,*,*,#123,.F.);
#146=ORIENTED_EDGE($,*,*,#124,.T.);
#147=ORIENTED_EDGE($,*,*,#125,.F.);
#148=ORIENTED_EDGE($,*,*,#114,.F.);
#149=ORIENTED_EDGE($,*,*,#120,.T.);
#150=ORIENTED_EDGE($,*,*,#112,.T.);
#151=ORIENTED_EDGE($,*,*,#119,.F.);
#152=ORIENTED_EDGE($,*,*,#113,.T.);
#153=ORIENTED_EDGE($,*,*,#122,.F.);
#154=ORIENTED_EDGE($,*,*,#121,.T.);
#155=ORIENTED_EDGE($,*,*,#124,.F.);
#156=ORIENTED_EDGE($,*,*,#111,.T.);
#157=ORIENTED_EDGE($,*,*,#123,.T.);
#158=ORIENTED_EDGE($,*,*,#109,.T.);
#159=ORIENTED_EDGE($,*,*,#125,.T.);
#160=CYLINDRICAL_SURFACE($,#183,35.5);
#161=CYLINDRICAL_SURFACE($,#185,53.);
#162=CYLINDRICAL_SURFACE($,#188,66.5);
#163=CYLINDRICAL_SURFACE($,#191,55.);
#164=CYLINDRICAL_SURFACE($,#194,45.5);
#165=CYLINDRICAL_SURFACE($,#196,55.);
#166=CYLINDRICAL_SURFACE($,#199,37.5000000000008);
#167=ADVANCED_FACE($,(#42,#19),#160,.F.);
#168=ADVANCED_FACE($,(#43,#20,#21),#161,.F.);
#169=ADVANCED_FACE($,(#44,#22,#23),#162,.T.);
#170=ADVANCED_FACE($,(#45,#24),#163,.F.);
#171=ADVANCED_FACE($,(#46,#25),#164,.T.);
#172=ADVANCED_FACE($,(#47,#26),#165,.F.);
#173=ADVANCED_FACE($,(#48,#27),#166,.F.);
#174=ADVANCED_FACE($,(#49,#28),#13,.T.);
#175=ADVANCED_FACE($,(#29,#30),#14,.T.);
#176=ADVANCED_FACE($,(#50,#31),#15,.T.);
#177=ADVANCED_FACE($,(#51,#32),#16,.T.);
#178=ADVANCED_FACE($,(#33,#34),#17,.T.);
#179=ADVANCED_FACE($,(#35,#36),#18,.T.);
#180=CLOSED_SHELL($,(#167,#168,#169,#170,#171,#172,#173,#174,#175,#176,
#177,#178,#179));
#181=MANIFOLD_SOLID_BREP('Solido1',#180);
#182=AXIS2_PLACEMENT_3D('placement',#260,#208,#209);
#183=AXIS2_PLACEMENT_3D($,#261,#210,#211);
#184=AXIS2_PLACEMENT_3D($,#263,#212,#213);
#185=AXIS2_PLACEMENT_3D($,#331,#214,#215);
#186=AXIS2_PLACEMENT_3D($,#333,#216,#217);
#187=AXIS2_PLACEMENT_3D($,#335,#218,#219);
#188=AXIS2_PLACEMENT_3D($,#336,#220,#221);
#189=AXIS2_PLACEMENT_3D($,#338,#222,#223);
#190=AXIS2_PLACEMENT_3D($,#340,#224,#225);
#191=AXIS2_PLACEMENT_3D($,#417,#226,#227);
#192=AXIS2_PLACEMENT_3D($,#419,#228,#229);
#193=AXIS2_PLACEMENT_3D($,#421,#230,#231);
#194=AXIS2_PLACEMENT_3D($,#422,#232,#233);
#195=AXIS2_PLACEMENT_3D($,#424,#234,#235);
#196=AXIS2_PLACEMENT_3D($,#425,#236,#237);
#197=AXIS2_PLACEMENT_3D($,#427,#238,#239);
#198=AXIS2_PLACEMENT_3D($,#429,#240,#241);
#199=AXIS2_PLACEMENT_3D($,#430,#242,#243);
#200=AXIS2_PLACEMENT_3D($,#432,#244,#245);
#201=AXIS2_PLACEMENT_3D($,#434,#246,#247);
#202=AXIS2_PLACEMENT_3D($,#435,#248,#249);
#203=AXIS2_PLACEMENT_3D($,#436,#250,#251);
#204=AXIS2_PLACEMENT_3D($,#437,#252,#253);
#205=AXIS2_PLACEMENT_3D($,#438,#254,#255);
#206=AXIS2_PLACEMENT_3D($,#439,#256,#257);
#207=AXIS2_PLACEMENT_3D($,#440,#258,#259);
#208=DIRECTION('axis',(0.,0.,1.));
#209=DIRECTION('refdir',(1.,0.,0.));
#210=DIRECTION('center_axis',(-1.,0.,-4.48966412310369E-011));
#211=DIRECTION('ref_axis',(-4.48966412310369E-011,0.,1.));
#212=DIRECTION('center_axis',(-1.,0.,-4.489664E-011));
#213=DIRECTION('ref_axis',(-4.48966412310369E-011,0.,1.));
#214=DIRECTION('center_axis',(0.,0.,-1.));
#215=DIRECTION('ref_axis',(-1.,0.,0.));
#216=DIRECTION('center_axis',(0.,0.,-1.));
#217=DIRECTION('ref_axis',(-1.,0.,0.));
#218=DIRECTION('center_axis',(0.,0.,1.));
#219=DIRECTION('ref_axis',(-1.,0.,0.));
#220=DIRECTION('center_axis',(0.,0.,1.));
#221=DIRECTION('ref_axis',(1.,0.,0.));
#222=DIRECTION('center_axis',(0.,0.,1.));
#223=DIRECTION('ref_axis',(1.,0.,0.));
#224=DIRECTION('center_axis',(0.,0.,1.));
#225=DIRECTION('ref_axis',(1.,0.,0.));
#226=DIRECTION('center_axis',(0.,0.,1.));
#227=DIRECTION('ref_axis',(1.,0.,0.));
#228=DIRECTION('center_axis',(0.,0.,1.));
#229=DIRECTION('ref_axis',(1.,0.,0.));
#230=DIRECTION('center_axis',(0.,0.,1.));
#231=DIRECTION('ref_axis',(1.,0.,0.));
#232=DIRECTION('center_axis',(1.,0.,4.489664E-011));
#233=DIRECTION('ref_axis',(4.489664E-011,0.,-1.));
#234=DIRECTION('center_axis',(1.,0.,4.489664E-011));
#235=DIRECTION('ref_axis',(4.489664E-011,0.,-1.));
#236=DIRECTION('center_axis',(0.,0.,1.));
#237=DIRECTION('ref_axis',(1.,0.,0.));
#238=DIRECTION('center_axis',(0.,0.,1.));
#239=DIRECTION('ref_axis',(1.,0.,0.));
#240=DIRECTION('center_axis',(0.,0.,1.));
#241=DIRECTION('ref_axis',(1.,0.,0.));
#242=DIRECTION('center_axis',(1.,1.75735685088459E-013,4.48969052936147E-011));
#243=DIRECTION('ref_axis',(4.48968269968939E-011,0.,-1.));
#244=DIRECTION('center_axis',(1.,0.,4.489664E-011));
#245=DIRECTION('ref_axis',(4.489664E-011,0.,-1.));
#246=DIRECTION('center_axis',(1.,0.,4.489664E-011));
#247=DIRECTION('ref_axis',(4.489664E-011,0.,-1.));
#248=DIRECTION('center_axis',(0.,0.,-1.));
#249=DIRECTION('ref_axis',(-1.,0.,0.));
#250=DIRECTION('center_axis',(0.,0.,-1.));
#251=DIRECTION('ref_axis',(-1.,0.,0.));
#252=DIRECTION('center_axis',(0.,0.,1.));
#253=DIRECTION('ref_axis',(1.,0.,0.));
#254=DIRECTION('center_axis',(1.,0.,4.489664E-011));
#255=DIRECTION('ref_axis',(4.48963533017377E-011,0.,-1.));
#256=DIRECTION('center_axis',(0.,0.,1.));
#257=DIRECTION('ref_axis',(1.,0.,0.));
#258=DIRECTION('center_axis',(1.,0.,4.489664E-011));
#259=DIRECTION('ref_axis',(4.48963533017377E-011,0.,-1.));
#260=CARTESIAN_POINT('',(0.,0.,0.));
#261=CARTESIAN_POINT('Origin',(61.,0.,122.00000000273));
#262=CARTESIAN_POINT('',(61.0000000015938,4.3474961369731E-015,86.50000000273));
#263=CARTESIAN_POINT('Origin',(61.,0.,122.00000000273));
#264=CARTESIAN_POINT('',(39.3541611522848,35.5,122.000000001758));
#265=CARTESIAN_POINT('Ctrl Pts',(39.3541611522848,35.5,122.000000001758));
#266=CARTESIAN_POINT('Ctrl Pts',(39.3541611522848,35.5,124.335804414021));
#267=CARTESIAN_POINT('Ctrl Pts',(39.5685725075727,35.2663566689779,126.707253246905));
#268=CARTESIAN_POINT('Ctrl Pts',(40.3863174856883,34.3268582744743,131.356332140006));
#269=CARTESIAN_POINT('Ctrl Pts',(40.9870464690295,33.6215703615381,133.634534552208));
#270=CARTESIAN_POINT('Ctrl Pts',(42.4199712330118,31.794554547154,137.964932872782));
#271=CARTESIAN_POINT('Ctrl Pts',(43.2511761820021,30.6712732344431,140.021738189499));
#272=CARTESIAN_POINT('Ctrl Pts',(44.9658511274811,28.0973926741676,143.81849157435));
#273=CARTESIAN_POINT('Ctrl Pts',(45.8482033222622,26.6461042942121,145.558477172093));
#274=CARTESIAN_POINT('Ctrl Pts',(47.499277115442,23.5758857762347,148.628695690124));
#275=CARTESIAN_POINT('Ctrl Pts',(48.3320275831194,21.8452815122049,150.076743175576));
#276=CARTESIAN_POINT('Ctrl Pts',(49.8748063902082,18.0472962552854,152.656401126263));
#277=CARTESIAN_POINT('Ctrl Pts',(50.5839698247055,15.9796690158233,153.788166227491));
#278=CARTESIAN_POINT('Ctrl Pts',(51.758755725205,11.6240721620626,155.626155396931));
#279=CARTESIAN_POINT('Ctrl Pts',(52.2249249924901,9.33145387766159,156.333889798803));
#280=CARTESIAN_POINT('Ctrl Pts',(52.8457241269492,4.67421260486193,157.271004476202));
#281=CARTESIAN_POINT('Ctrl Pts',(53.,2.30946502740595,157.500000002371));
#282=CARTESIAN_POINT('Ctrl Pts',(53.,-2.30946502740595,157.500000002371));
#283=CARTESIAN_POINT('Ctrl Pts',(52.8457241269492,-4.67421260486193,157.271004476202));
#284=CARTESIAN_POINT('Ctrl Pts',(52.2249249924901,-9.33145387766159,156.333889798803));
#285=CARTESIAN_POINT('Ctrl Pts',(51.758755725205,-11.6240721620626,155.626155396931));
#286=CARTESIAN_POINT('Ctrl Pts',(50.5839698247055,-15.9796690158233,153.788166227491));
#287=CARTESIAN_POINT('Ctrl Pts',(49.8748063902082,-18.0472962552854,152.656401126263));
#288=CARTESIAN_POINT('Ctrl Pts',(48.3320275831194,-21.8452815122049,150.076743175576));
#289=CARTESIAN_POINT('Ctrl Pts',(47.499277115442,-23.5758857762347,148.628695690124));
#290=CARTESIAN_POINT('Ctrl Pts',(45.8482033222622,-26.6461042942121,145.558477172093));
#291=CARTESIAN_POINT('Ctrl Pts',(44.9658511274811,-28.0973926741676,143.81849157435));
#292=CARTESIAN_POINT('Ctrl Pts',(43.2511761820021,-30.6712732344431,140.021738189499));
#293=CARTESIAN_POINT('Ctrl Pts',(42.4199712330118,-31.794554547154,137.964932872782));
#294=CARTESIAN_POINT('Ctrl Pts',(40.9870464690295,-33.6215703615381,133.634534552208));
#295=CARTESIAN_POINT('Ctrl Pts',(40.3863174856883,-34.3268582744743,131.356332140006));
#296=CARTESIAN_POINT('Ctrl Pts',(39.5685725075727,-35.2663566689779,126.707253246905));
#297=CARTESIAN_POINT('Ctrl Pts',(39.3541611522848,-35.5,124.335804414021));
#298=CARTESIAN_POINT('Ctrl Pts',(39.3541611522848,-35.5,119.664195589547));
#299=CARTESIAN_POINT('Ctrl Pts',(39.5685725075638,-35.2663566689877,117.292746756713));
#300=CARTESIAN_POINT('Ctrl Pts',(40.3863174856625,-34.3268582745044,112.643667863718));
#301=CARTESIAN_POINT('Ctrl Pts',(40.987046468996,-33.6215703615787,110.365465451572));
#302=CARTESIAN_POINT('Ctrl Pts',(42.419971232969,-31.7945545472108,106.035067131123));
#303=CARTESIAN_POINT('Ctrl Pts',(43.2511761819577,-30.6712732345055,103.978261814473));
#304=CARTESIAN_POINT('Ctrl Pts',(44.9658511274362,-28.0973926742391,100.181508429762));
#305=CARTESIAN_POINT('Ctrl Pts',(45.8482033222182,-26.6461042942873,98.4415228320921));
#306=CARTESIAN_POINT('Ctrl Pts',(47.4992771154111,-23.5758857762986,95.3713043141776));
#307=CARTESIAN_POINT('Ctrl Pts',(48.3320275830997,-21.8452815122503,93.9232568287802));
#308=CARTESIAN_POINT('Ctrl Pts',(49.8748063902043,-18.0472962552983,91.3435988782041));
#309=CARTESIAN_POINT('Ctrl Pts',(50.5839698247062,-15.9796690158223,90.2118337770329));
#310=CARTESIAN_POINT('Ctrl Pts',(51.7587557252099,-11.624072162043,88.373844607692));
#311=CARTESIAN_POINT('Ctrl Pts',(52.2249249924943,-9.3314538776376,87.666110205863));
#312=CARTESIAN_POINT('Ctrl Pts',(52.8457241269509,-4.67421260484102,86.728995528523));
#313=CARTESIAN_POINT('Ctrl Pts',(53.,-2.30946502739255,86.5000000023708));
#314=CARTESIAN_POINT('Ctrl Pts',(53.,2.30946502740299,86.5000000023708));
#315=CARTESIAN_POINT('Ctrl Pts',(52.8457241269495,4.67421260486161,86.7289955285251));
#316=CARTESIAN_POINT('Ctrl Pts',(52.2249249924877,9.33145387767674,87.666110205873));
#317=CARTESIAN_POINT('Ctrl Pts',(51.7587557251995,11.6240721620906,88.3738446077078));
#318=CARTESIAN_POINT('Ctrl Pts',(50.583969824687,15.9796690158842,90.2118337770633));
#319=CARTESIAN_POINT('Ctrl Pts',(49.87480639018,18.0472962553662,91.3435988782434));
#320=CARTESIAN_POINT('Ctrl Pts',(48.3320275830651,21.8452815123274,93.9232568288394));
#321=CARTESIAN_POINT('Ctrl Pts',(47.4992771153714,23.5758857763789,95.3713043142479));
#322=CARTESIAN_POINT('Ctrl Pts',(45.8482033221772,26.6461042943571,98.4415228321721));
#323=CARTESIAN_POINT('Ctrl Pts',(44.9658511273993,28.0973926742977,100.181508429838));
#324=CARTESIAN_POINT('Ctrl Pts',(43.25117618193,30.6712732345441,103.97826181454));
#325=CARTESIAN_POINT('Ctrl Pts',(42.4199712329463,31.7945545472407,106.035067131184));
#326=CARTESIAN_POINT('Ctrl Pts',(40.987046468983,33.6215703615943,110.365465451619));
#327=CARTESIAN_POINT('Ctrl Pts',(40.3863174856541,34.3268582745143,112.643667863757));
#328=CARTESIAN_POINT('Ctrl Pts',(39.5685725075618,35.2663566689898,117.292746756733));
#329=CARTESIAN_POINT('Ctrl Pts',(39.3541611522848,35.5,119.664195589558));
#330=CARTESIAN_POINT('Ctrl Pts',(39.3541611522848,35.5,122.000000001758));
#331=CARTESIAN_POINT('Origin',(0.,0.,183.));
#332=CARTESIAN_POINT('',(53.,6.49062803548097E-015,183.));
#333=CARTESIAN_POINT('Origin',(0.,0.,183.));
#334=CARTESIAN_POINT('',(53.,6.49062803548097E-015,61.));
#335=CARTESIAN_POINT('Origin',(0.,0.,61.));
#336=CARTESIAN_POINT('Origin',(0.,0.,0.));
#337=CARTESIAN_POINT('',(-66.5,-8.143632E-015,244.));
#338=CARTESIAN_POINT('Origin',(0.,0.,244.));
#339=CARTESIAN_POINT('',(66.5,-1.628726E-014,0.));
#340=CARTESIAN_POINT('Origin',(0.,0.,0.));
#341=CARTESIAN_POINT('',(48.497422611929,-45.5,122.00000000217));
#342=CARTESIAN_POINT('',(66.5,-5.27355936696949E-015,76.5000000029856));
#343=CARTESIAN_POINT('Ctrl Pts',(48.4974226119286,-45.5,122.000000002177));
#344=CARTESIAN_POINT('Ctrl Pts',(48.497422611929,-45.4999999999995,118.996935259403));
#345=CARTESIAN_POINT('Ctrl Pts',(48.785033375608,-45.1988081164691,115.952913483179));
#346=CARTESIAN_POINT('Ctrl Pts',(49.876070408174,-43.9919234657183,109.991245365708));
#347=CARTESIAN_POINT('Ctrl Pts',(50.6758104771858,-43.0869726619002,107.072774835618));
#348=CARTESIAN_POINT('Ctrl Pts',(52.5771218933244,-40.7451927456483,101.527111566201));
#349=CARTESIAN_POINT('Ctrl Pts',(53.6773727834346,-39.3063484013317,98.8940264831742));
#350=CARTESIAN_POINT('Ctrl Pts',(55.9423418784413,-36.0097730963192,94.032674797746));
#351=CARTESIAN_POINT('Ctrl Pts',(57.1056777640624,-34.1511120745508,91.8043949891255));
#352=CARTESIAN_POINT('Ctrl Pts',(59.2785471212343,-30.220566568658,87.8738494833567));
#353=CARTESIAN_POINT('Ctrl Pts',(60.3726670015629,-28.0058678700776,86.0199637290591));
#354=CARTESIAN_POINT('Ctrl Pts',(62.3985715683402,-23.1431592957634,82.7153232962783));
#355=CARTESIAN_POINT('Ctrl Pts',(63.3292605630173,-20.4948205485189,81.2643809348443));
#356=CARTESIAN_POINT('Ctrl Pts',(64.870880701823,-14.9131415458328,78.9067683074355));
#357=CARTESIAN_POINT('Ctrl Pts',(65.4825650995052,-11.9737851946812,77.9981529384714));
#358=CARTESIAN_POINT('Ctrl Pts',(66.2973554018772,-5.99987755528032,76.7945186277331));
#359=CARTESIAN_POINT('Ctrl Pts',(66.5,-2.9651625644036,76.5000000029856));
#360=CARTESIAN_POINT('Ctrl Pts',(66.5,0.,76.5000000029856));
#361=CARTESIAN_POINT('',(66.5,-1.628726E-014,167.50000000298));
#362=CARTESIAN_POINT('Ctrl Pts',(48.4974226119286,-45.5,122.000000002177));
#363=CARTESIAN_POINT('Ctrl Pts',(48.4974226119281,-45.5000000000005,125.003064744979));
#364=CARTESIAN_POINT('Ctrl Pts',(48.7850333756122,-45.1988081164645,128.047086521229));
#365=CARTESIAN_POINT('Ctrl Pts',(49.8760704081744,-43.9919234657179,134.008754638769));
#366=CARTESIAN_POINT('Ctrl Pts',(50.675810477178,-43.0869726619085,136.927225168901));
#367=CARTESIAN_POINT('Ctrl Pts',(52.5771218932898,-40.7451927456921,142.472888438428));
#368=CARTESIAN_POINT('Ctrl Pts',(53.6773727833813,-39.3063484014025,145.10597352152));
#369=CARTESIAN_POINT('Ctrl Pts',(55.9423418783515,-36.0097730964567,149.967325207096));
#370=CARTESIAN_POINT('Ctrl Pts',(57.105677763955,-34.1511120747277,152.195605015799));
#371=CARTESIAN_POINT('Ctrl Pts',(59.2785471211151,-30.2205665688909,156.126150521759));
#372=CARTESIAN_POINT('Ctrl Pts',(60.3726670014495,-28.0058678703221,157.980036276172));
#373=CARTESIAN_POINT('Ctrl Pts',(62.3985715682472,-23.1431592960144,161.284676709177));
#374=CARTESIAN_POINT('Ctrl Pts',(63.3292605629387,-20.4948205487645,162.73561907072));
#375=CARTESIAN_POINT('Ctrl Pts',(64.8708807017749,-14.9131415460461,165.093231698317));
#376=CARTESIAN_POINT('Ctrl Pts',(65.482565099473,-11.9737851948671,166.001847067361));
#377=CARTESIAN_POINT('Ctrl Pts',(66.2973554018692,-5.99987755538906,167.205481378208));
#378=CARTESIAN_POINT('Ctrl Pts',(66.5,-2.96516256446255,167.500000002986));
#379=CARTESIAN_POINT('Ctrl Pts',(66.5,-6.10622663543836E-015,167.500000002986));
#380=CARTESIAN_POINT('',(48.497422611929,45.5,122.00000000217));
#381=CARTESIAN_POINT('Ctrl Pts',(66.5,6.10622663543836E-015,167.500000002986));
#382=CARTESIAN_POINT('Ctrl Pts',(66.5,2.96516256446255,167.500000002986));
#383=CARTESIAN_POINT('Ctrl Pts',(66.2973554018692,5.99987755538905,167.205481378208));
#384=CARTESIAN_POINT('Ctrl Pts',(65.482565099473,11.9737851948671,166.001847067361));
#385=CARTESIAN_POINT('Ctrl Pts',(64.8708807017749,14.9131415460461,165.093231698317));
#386=CARTESIAN_POINT('Ctrl Pts',(63.3292605629387,20.4948205487645,162.735619070721));
#387=CARTESIAN_POINT('Ctrl Pts',(62.3985715682472,23.1431592960143,161.284676709177));
#388=CARTESIAN_POINT('Ctrl Pts',(60.3726670014495,28.0058678703221,157.980036276172));
#389=CARTESIAN_POINT('Ctrl Pts',(59.2785471211151,30.2205665688909,156.126150521759));
#390=CARTESIAN_POINT('Ctrl Pts',(57.105677763955,34.1511120747277,152.195605015799));
#391=CARTESIAN_POINT('Ctrl Pts',(55.9423418783515,36.0097730964566,149.967325207096));
#392=CARTESIAN_POINT('Ctrl Pts',(53.6773727833813,39.3063484014025,145.10597352152));
#393=CARTESIAN_POINT('Ctrl Pts',(52.5771218932898,40.7451927456921,142.472888438428));
#394=CARTESIAN_POINT('Ctrl Pts',(50.675810477178,43.0869726619085,136.927225168901));
#395=CARTESIAN_POINT('Ctrl Pts',(49.8760704081744,43.9919234657179,134.008754638769));
#396=CARTESIAN_POINT('Ctrl Pts',(48.7850333756122,45.1988081164645,128.047086521229));
#397=CARTESIAN_POINT('Ctrl Pts',(48.4974226119286,45.5,125.003064744979));
#398=CARTESIAN_POINT('Ctrl Pts',(48.4974226119286,45.5,122.000000002177));
#399=CARTESIAN_POINT('Ctrl Pts',(66.5,-1.0547118733939E-014,76.5000000029856));
#400=CARTESIAN_POINT('Ctrl Pts',(66.5,2.9651625644036,76.5000000029856));
#401=CARTESIAN_POINT('Ctrl Pts',(66.2973554018772,5.99987755528031,76.7945186277331));
#402=CARTESIAN_POINT('Ctrl Pts',(65.4825650995052,11.9737851946812,77.9981529384714));
#403=CARTESIAN_POINT('Ctrl Pts',(64.870880701823,14.9131415458328,78.9067683074355));
#404=CARTESIAN_POINT('Ctrl Pts',(63.3292605630173,20.4948205485189,81.2643809348443));
#405=CARTESIAN_POINT('Ctrl Pts',(62.3985715683402,23.1431592957634,82.7153232962783));
#406=CARTESIAN_POINT('Ctrl Pts',(60.3726670015629,28.0058678700776,86.0199637290591));
#407=CARTESIAN_POINT('Ctrl Pts',(59.2785471212343,30.220566568658,87.8738494833567));
#408=CARTESIAN_POINT('Ctrl Pts',(57.1056777640624,34.1511120745508,91.8043949891255));
#409=CARTESIAN_POINT('Ctrl Pts',(55.9423418784413,36.0097730963192,94.0326747977459));
#410=CARTESIAN_POINT('Ctrl Pts',(53.6773727834346,39.3063484013317,98.8940264831741));
#411=CARTESIAN_POINT('Ctrl Pts',(52.5771218933244,40.7451927456483,101.527111566201));
#412=CARTESIAN_POINT('Ctrl Pts',(50.6758104771858,43.0869726619002,107.072774835618));
#413=CARTESIAN_POINT('Ctrl Pts',(49.876070408174,43.9919234657183,109.991245365708));
#414=CARTESIAN_POINT('Ctrl Pts',(48.785033375608,45.1988081164691,115.952913483179));
#415=CARTESIAN_POINT('Ctrl Pts',(48.4974226119286,45.5,118.996935259403));
#416=CARTESIAN_POINT('Ctrl Pts',(48.4974226119286,45.5,122.000000002177));
#417=CARTESIAN_POINT('Origin',(0.,0.,30.5));
#418=CARTESIAN_POINT('',(-55.,-6.735335E-015,61.));
#419=CARTESIAN_POINT('Origin',(0.,0.,61.));
#420=CARTESIAN_POINT('',(-55.,-6.735335E-015,0.));
#421=CARTESIAN_POINT('Origin',(0.,0.,0.));
#422=CARTESIAN_POINT('Origin',(0.,0.,122.));
#423=CARTESIAN_POINT('',(104.999999997957,-5.571959E-015,167.500000004714));
#424=CARTESIAN_POINT('Origin',(105.,0.,122.00000000471));
#425=CARTESIAN_POINT('Origin',(0.,0.,213.5));
#426=CARTESIAN_POINT('',(-55.,-6.735335E-015,244.));
#427=CARTESIAN_POINT('Origin',(0.,0.,244.));
#428=CARTESIAN_POINT('',(-55.,-6.735335E-015,183.));
#429=CARTESIAN_POINT('Origin',(0.,0.,183.));
#430=CARTESIAN_POINT('Origin',(83.0000000000002,0.,122.000000003718));
#431=CARTESIAN_POINT('',(104.999999998316,-4.592274E-015,159.500000004705));
#432=CARTESIAN_POINT('Origin',(105.,0.,122.00000000471));
#433=CARTESIAN_POINT('',(60.9999999983164,-4.592274E-015,159.50000000273));
#434=CARTESIAN_POINT('Origin',(61.,0.,122.00000000273));
#435=CARTESIAN_POINT('Origin',(0.,0.,0.));
#436=CARTESIAN_POINT('Origin',(0.,0.,61.));
#437=CARTESIAN_POINT('Origin',(0.,0.,244.));
#438=CARTESIAN_POINT('Origin',(105.,0.,122.00000000471));
#439=CARTESIAN_POINT('Origin',(0.,0.,183.));
#440=CARTESIAN_POINT('Origin',(61.,0.,122.00000000273));
#441=UNCERTAINTY_MEASURE_WITH_UNIT(LENGTH_MEASURE(0.01),#443,
'DISTANCE_ACCURACY_VALUE',
'Maximum model space distance between geometric entities at asserted c
onnectivities');
#442=(
GEOMETRIC_REPRESENTATION_CONTEXT(3)
GLOBAL_UNCERTAINTY_ASSIGNED_CONTEXT((#441))
GLOBAL_UNIT_ASSIGNED_CONTEXT((#443,#446,#444))
REPRESENTATION_CONTEXT('','3D')
);
#443=(
LENGTH_UNIT()
NAMED_UNIT(*)
SI_UNIT(.MILLI.,.METRE.)
);
#444=(
NAMED_UNIT(*)
SI_UNIT($,.STERADIAN.)
SOLID_ANGLE_UNIT()
);
#445=DIMENSIONAL_EXPONENTS(0.,0.,0.,0.,0.,0.,0.);
#446=(
CONVERSION_BASED_UNIT('degree',#448)
NAMED_UNIT(#445)
PLANE_ANGLE_UNIT()
);
#447=(
NAMED_UNIT(*)
PLANE_ANGLE_UNIT()
SI_UNIT($,.RADIAN.)
);
#448=PLANE_ANGLE_MEASURE_WITH_UNIT(PLANE_ANGLE_MEASURE(0.01745329252),#447);
#449=SHAPE_DEFINITION_REPRESENTATION(#450,#451);
#450=PRODUCT_DEFINITION_SHAPE('',$,#453);
#451=SHAPE_REPRESENTATION('',(#182),#442);
#452=PRODUCT_DEFINITION_CONTEXT('3D Mechanical Parts',#456,'design');
#453=PRODUCT_DEFINITION('TRIV110075','TRIV110075',#454,#452);
#454=PRODUCT_DEFINITION_FORMATION('',$,#458);
#455=APPLICATION_PROTOCOL_DEFINITION('international standard',
'automotive_design',2009,#456);
#456=APPLICATION_CONTEXT(
'Core Data for Automotive Mechanical Design Process');
#457=PRODUCT_CONTEXT('3D Mechanical Parts',#456,'mechanical');
#458=PRODUCT('TRIV110075','TRIV110075',$,(#457));
#459=PRESENTATION_STYLE_ASSIGNMENT((#460));
#460=SURFACE_STYLE_USAGE(.BOTH.,#461);
#461=SURFACE_SIDE_STYLE($,(#462));
#462=SURFACE_STYLE_FILL_AREA(#463);
#463=FILL_AREA_STYLE($,(#464));
#464=FILL_AREA_STYLE_COLOUR($,#465);
#465=COLOUR_RGB('',0.509803921568627,0.509803921568627,0.588235294117647);
ENDSEC;
END-ISO-10303-21;
