ISO-10303-21;
HEADER;
/* Generated by software containing ST-Developer
 * from STEP Tools, Inc. (www.steptools.com) 
 */
/* OPTION: using custom renumber hook */

FILE_DESCRIPTION(
/* description */ ('STEP AP203'),
/* implementation_level */ '2;1');

FILE_NAME(
/* name */ '16007631611(architecture400)',
/* time_stamp */ '2022-06-30T14:21:24+02:00',
/* author */ ('License CC BY-ND 4.0'),
/* organization */ ('CADENAS'),
/* preprocessor_version */ 'ST-DEVELOPER v18.102',
/* originating_system */ 'PARTsolutions',
/* authorisation */ '  ');

FILE_SCHEMA (('CONFIG_CONTROL_DESIGN'));
ENDSEC;

DATA;
#10=PROPERTY_DEFINITION_REPRESENTATION(#14,#12);
#11=PROPERTY_DEFINITION_REPRESENTATION(#15,#13);
#12=REPRESENTATION('',(#16),#597);
#13=REPRESENTATION('',(#17),#597);
#14=PROPERTY_DEFINITION('pmi validation property','',#602);
#15=PROPERTY_DEFINITION('pmi validation property','',#602);
#16=VALUE_REPRESENTATION_ITEM('number of annotations',COUNT_MEASURE(0.));
#17=VALUE_REPRESENTATION_ITEM('number of views',COUNT_MEASURE(0.));
#18=SHAPE_REPRESENTATION_RELATIONSHIP('','',#339,#19);
#19=ADVANCED_BREP_SHAPE_REPRESENTATION('',(#337),#597);
#20=CONICAL_SURFACE('',#348,25.7,0.735605467756838);
#21=CONICAL_SURFACE('',#352,21.8116794750402,0.60817277844773);
#22=CONICAL_SURFACE('',#356,17.8525460396855,0.50817261783533);
#23=CONICAL_SURFACE('',#360,14.360980779464,0.453469843394795);
#24=CONICAL_SURFACE('',#364,11.1755421674341,0.33498229632023);
#25=CONICAL_SURFACE('',#368,8.32954646840149,0.271599591760076);
#26=CONICAL_SURFACE('',#376,8.,0.271599591760076);
#27=CONICAL_SURFACE('',#380,10.,0.33498229632023);
#28=CONICAL_SURFACE('',#384,12.5,0.453469843394794);
#29=CONICAL_SURFACE('',#388,16.,0.50817261783533);
#30=CONICAL_SURFACE('',#392,20.,0.608172778447729);
#31=CONICAL_SURFACE('',#396,25.,0.735605467756838);
#32=PLANE('',#344);
#33=PLANE('',#372);
#34=ORIENTED_EDGE('',*,*,#90,.T.);
#35=ORIENTED_EDGE('',*,*,#91,.F.);
#36=ORIENTED_EDGE('',*,*,#92,.T.);
#37=ORIENTED_EDGE('',*,*,#90,.F.);
#38=ORIENTED_EDGE('',*,*,#93,.T.);
#39=ORIENTED_EDGE('',*,*,#92,.F.);
#40=ORIENTED_EDGE('',*,*,#94,.T.);
#41=ORIENTED_EDGE('',*,*,#93,.F.);
#42=ORIENTED_EDGE('',*,*,#95,.T.);
#43=ORIENTED_EDGE('',*,*,#94,.F.);
#44=ORIENTED_EDGE('',*,*,#96,.T.);
#45=ORIENTED_EDGE('',*,*,#95,.F.);
#46=ORIENTED_EDGE('',*,*,#97,.T.);
#47=ORIENTED_EDGE('',*,*,#96,.F.);
#48=ORIENTED_EDGE('',*,*,#98,.T.);
#49=ORIENTED_EDGE('',*,*,#97,.F.);
#50=ORIENTED_EDGE('',*,*,#99,.T.);
#51=ORIENTED_EDGE('',*,*,#98,.F.);
#52=ORIENTED_EDGE('',*,*,#100,.T.);
#53=ORIENTED_EDGE('',*,*,#99,.F.);
#54=ORIENTED_EDGE('',*,*,#101,.T.);
#55=ORIENTED_EDGE('',*,*,#100,.F.);
#56=ORIENTED_EDGE('',*,*,#102,.T.);
#57=ORIENTED_EDGE('',*,*,#101,.F.);
#58=ORIENTED_EDGE('',*,*,#103,.T.);
#59=ORIENTED_EDGE('',*,*,#102,.F.);
#60=ORIENTED_EDGE('',*,*,#104,.T.);
#61=ORIENTED_EDGE('',*,*,#103,.F.);
#62=ORIENTED_EDGE('',*,*,#105,.T.);
#63=ORIENTED_EDGE('',*,*,#104,.F.);
#64=ORIENTED_EDGE('',*,*,#106,.T.);
#65=ORIENTED_EDGE('',*,*,#105,.F.);
#66=ORIENTED_EDGE('',*,*,#107,.T.);
#67=ORIENTED_EDGE('',*,*,#106,.F.);
#68=ORIENTED_EDGE('',*,*,#108,.T.);
#69=ORIENTED_EDGE('',*,*,#107,.F.);
#70=ORIENTED_EDGE('',*,*,#109,.T.);
#71=ORIENTED_EDGE('',*,*,#108,.F.);
#72=ORIENTED_EDGE('',*,*,#110,.T.);
#73=ORIENTED_EDGE('',*,*,#109,.F.);
#74=ORIENTED_EDGE('',*,*,#111,.T.);
#75=ORIENTED_EDGE('',*,*,#110,.F.);
#76=ORIENTED_EDGE('',*,*,#112,.T.);
#77=ORIENTED_EDGE('',*,*,#111,.F.);
#78=ORIENTED_EDGE('',*,*,#113,.T.);
#79=ORIENTED_EDGE('',*,*,#112,.F.);
#80=ORIENTED_EDGE('',*,*,#114,.T.);
#81=ORIENTED_EDGE('',*,*,#113,.F.);
#82=ORIENTED_EDGE('',*,*,#115,.T.);
#83=ORIENTED_EDGE('',*,*,#114,.F.);
#84=ORIENTED_EDGE('',*,*,#116,.T.);
#85=ORIENTED_EDGE('',*,*,#115,.F.);
#86=ORIENTED_EDGE('',*,*,#117,.T.);
#87=ORIENTED_EDGE('',*,*,#116,.F.);
#88=ORIENTED_EDGE('',*,*,#91,.T.);
#89=ORIENTED_EDGE('',*,*,#117,.F.);
#90=EDGE_CURVE('',#118,#118,#146,.T.);
#91=EDGE_CURVE('',#119,#119,#147,.T.);
#92=EDGE_CURVE('',#120,#120,#148,.T.);
#93=EDGE_CURVE('',#121,#121,#149,.T.);
#94=EDGE_CURVE('',#122,#122,#150,.T.);
#95=EDGE_CURVE('',#123,#123,#151,.T.);
#96=EDGE_CURVE('',#124,#124,#152,.T.);
#97=EDGE_CURVE('',#125,#125,#153,.T.);
#98=EDGE_CURVE('',#126,#126,#154,.T.);
#99=EDGE_CURVE('',#127,#127,#155,.T.);
#100=EDGE_CURVE('',#128,#128,#156,.T.);
#101=EDGE_CURVE('',#129,#129,#157,.T.);
#102=EDGE_CURVE('',#130,#130,#158,.T.);
#103=EDGE_CURVE('',#131,#131,#159,.T.);
#104=EDGE_CURVE('',#132,#132,#160,.T.);
#105=EDGE_CURVE('',#133,#133,#161,.T.);
#106=EDGE_CURVE('',#134,#134,#162,.T.);
#107=EDGE_CURVE('',#135,#135,#163,.T.);
#108=EDGE_CURVE('',#136,#136,#164,.T.);
#109=EDGE_CURVE('',#137,#137,#165,.T.);
#110=EDGE_CURVE('',#138,#138,#166,.T.);
#111=EDGE_CURVE('',#139,#139,#167,.T.);
#112=EDGE_CURVE('',#140,#140,#168,.T.);
#113=EDGE_CURVE('',#141,#141,#169,.T.);
#114=EDGE_CURVE('',#142,#142,#170,.T.);
#115=EDGE_CURVE('',#143,#143,#171,.T.);
#116=EDGE_CURVE('',#144,#144,#172,.T.);
#117=EDGE_CURVE('',#145,#145,#173,.T.);
#118=VERTEX_POINT('',#514);
#119=VERTEX_POINT('',#516);
#120=VERTEX_POINT('',#519);
#121=VERTEX_POINT('',#522);
#122=VERTEX_POINT('',#525);
#123=VERTEX_POINT('',#528);
#124=VERTEX_POINT('',#531);
#125=VERTEX_POINT('',#534);
#126=VERTEX_POINT('',#537);
#127=VERTEX_POINT('',#540);
#128=VERTEX_POINT('',#543);
#129=VERTEX_POINT('',#546);
#130=VERTEX_POINT('',#549);
#131=VERTEX_POINT('',#552);
#132=VERTEX_POINT('',#555);
#133=VERTEX_POINT('',#558);
#134=VERTEX_POINT('',#561);
#135=VERTEX_POINT('',#564);
#136=VERTEX_POINT('',#567);
#137=VERTEX_POINT('',#570);
#138=VERTEX_POINT('',#573);
#139=VERTEX_POINT('',#576);
#140=VERTEX_POINT('',#579);
#141=VERTEX_POINT('',#582);
#142=VERTEX_POINT('',#585);
#143=VERTEX_POINT('',#588);
#144=VERTEX_POINT('',#591);
#145=VERTEX_POINT('',#594);
#146=CIRCLE('',#342,31.5);
#147=CIRCLE('',#343,31.5);
#148=CIRCLE('',#345,25.7);
#149=CIRCLE('',#347,25.7);
#150=CIRCLE('',#349,21.8116794750402);
#151=CIRCLE('',#351,21.8116794750402);
#152=CIRCLE('',#353,17.8525460396855);
#153=CIRCLE('',#355,17.8525460396855);
#154=CIRCLE('',#357,14.360980779464);
#155=CIRCLE('',#359,14.360980779464);
#156=CIRCLE('',#361,11.1755421674341);
#157=CIRCLE('',#363,11.1755421674341);
#158=CIRCLE('',#365,8.32954646840149);
#159=CIRCLE('',#367,8.32954646840149);
#160=CIRCLE('',#369,6.2);
#161=CIRCLE('',#371,6.19999999999999);
#162=CIRCLE('',#373,7.99999999999999);
#163=CIRCLE('',#375,8.);
#164=CIRCLE('',#377,10.);
#165=CIRCLE('',#379,10.);
#166=CIRCLE('',#381,12.5);
#167=CIRCLE('',#383,12.5);
#168=CIRCLE('',#385,16.);
#169=CIRCLE('',#387,16.);
#170=CIRCLE('',#389,20.);
#171=CIRCLE('',#391,20.);
#172=CIRCLE('',#393,25.);
#173=CIRCLE('',#395,25.);
#174=EDGE_LOOP('',(#34));
#175=EDGE_LOOP('',(#35));
#176=EDGE_LOOP('',(#36));
#177=EDGE_LOOP('',(#37));
#178=EDGE_LOOP('',(#38));
#179=EDGE_LOOP('',(#39));
#180=EDGE_LOOP('',(#40));
#181=EDGE_LOOP('',(#41));
#182=EDGE_LOOP('',(#42));
#183=EDGE_LOOP('',(#43));
#184=EDGE_LOOP('',(#44));
#185=EDGE_LOOP('',(#45));
#186=EDGE_LOOP('',(#46));
#187=EDGE_LOOP('',(#47));
#188=EDGE_LOOP('',(#48));
#189=EDGE_LOOP('',(#49));
#190=EDGE_LOOP('',(#50));
#191=EDGE_LOOP('',(#51));
#192=EDGE_LOOP('',(#52));
#193=EDGE_LOOP('',(#53));
#194=EDGE_LOOP('',(#54));
#195=EDGE_LOOP('',(#55));
#196=EDGE_LOOP('',(#56));
#197=EDGE_LOOP('',(#57));
#198=EDGE_LOOP('',(#58));
#199=EDGE_LOOP('',(#59));
#200=EDGE_LOOP('',(#60));
#201=EDGE_LOOP('',(#61));
#202=EDGE_LOOP('',(#62));
#203=EDGE_LOOP('',(#63));
#204=EDGE_LOOP('',(#64));
#205=EDGE_LOOP('',(#65));
#206=EDGE_LOOP('',(#66));
#207=EDGE_LOOP('',(#67));
#208=EDGE_LOOP('',(#68));
#209=EDGE_LOOP('',(#69));
#210=EDGE_LOOP('',(#70));
#211=EDGE_LOOP('',(#71));
#212=EDGE_LOOP('',(#72));
#213=EDGE_LOOP('',(#73));
#214=EDGE_LOOP('',(#74));
#215=EDGE_LOOP('',(#75));
#216=EDGE_LOOP('',(#76));
#217=EDGE_LOOP('',(#77));
#218=EDGE_LOOP('',(#78));
#219=EDGE_LOOP('',(#79));
#220=EDGE_LOOP('',(#80));
#221=EDGE_LOOP('',(#81));
#222=EDGE_LOOP('',(#82));
#223=EDGE_LOOP('',(#83));
#224=EDGE_LOOP('',(#84));
#225=EDGE_LOOP('',(#85));
#226=EDGE_LOOP('',(#86));
#227=EDGE_LOOP('',(#87));
#228=EDGE_LOOP('',(#88));
#229=EDGE_LOOP('',(#89));
#230=FACE_BOUND('',#174,.T.);
#231=FACE_BOUND('',#175,.T.);
#232=FACE_BOUND('',#176,.T.);
#233=FACE_BOUND('',#177,.T.);
#234=FACE_BOUND('',#178,.T.);
#235=FACE_BOUND('',#179,.T.);
#236=FACE_BOUND('',#180,.T.);
#237=FACE_BOUND('',#181,.T.);
#238=FACE_BOUND('',#182,.T.);
#239=FACE_BOUND('',#183,.T.);
#240=FACE_BOUND('',#184,.T.);
#241=FACE_BOUND('',#185,.T.);
#242=FACE_BOUND('',#186,.T.);
#243=FACE_BOUND('',#187,.T.);
#244=FACE_BOUND('',#188,.T.);
#245=FACE_BOUND('',#189,.T.);
#246=FACE_BOUND('',#190,.T.);
#247=FACE_BOUND('',#191,.T.);
#248=FACE_BOUND('',#192,.T.);
#249=FACE_BOUND('',#193,.T.);
#250=FACE_BOUND('',#194,.T.);
#251=FACE_BOUND('',#195,.T.);
#252=FACE_BOUND('',#196,.T.);
#253=FACE_BOUND('',#197,.T.);
#254=FACE_BOUND('',#198,.T.);
#255=FACE_BOUND('',#199,.T.);
#256=FACE_BOUND('',#200,.T.);
#257=FACE_BOUND('',#201,.T.);
#258=FACE_BOUND('',#202,.T.);
#259=FACE_BOUND('',#203,.T.);
#260=FACE_BOUND('',#204,.T.);
#261=FACE_BOUND('',#205,.T.);
#262=FACE_BOUND('',#206,.T.);
#263=FACE_BOUND('',#207,.T.);
#264=FACE_BOUND('',#208,.T.);
#265=FACE_BOUND('',#209,.T.);
#266=FACE_BOUND('',#210,.T.);
#267=FACE_BOUND('',#211,.T.);
#268=FACE_BOUND('',#212,.T.);
#269=FACE_BOUND('',#213,.T.);
#270=FACE_BOUND('',#214,.T.);
#271=FACE_BOUND('',#215,.T.);
#272=FACE_BOUND('',#216,.T.);
#273=FACE_BOUND('',#217,.T.);
#274=FACE_BOUND('',#218,.T.);
#275=FACE_BOUND('',#219,.T.);
#276=FACE_BOUND('',#220,.T.);
#277=FACE_BOUND('',#221,.T.);
#278=FACE_BOUND('',#222,.T.);
#279=FACE_BOUND('',#223,.T.);
#280=FACE_BOUND('',#224,.T.);
#281=FACE_BOUND('',#225,.T.);
#282=FACE_BOUND('',#226,.T.);
#283=FACE_BOUND('',#227,.T.);
#284=FACE_BOUND('',#228,.T.);
#285=FACE_BOUND('',#229,.T.);
#286=CYLINDRICAL_SURFACE('',#341,31.5);
#287=CYLINDRICAL_SURFACE('',#346,25.7);
#288=CYLINDRICAL_SURFACE('',#350,21.8116794750402);
#289=CYLINDRICAL_SURFACE('',#354,17.8525460396855);
#290=CYLINDRICAL_SURFACE('',#358,14.360980779464);
#291=CYLINDRICAL_SURFACE('',#362,11.1755421674341);
#292=CYLINDRICAL_SURFACE('',#366,8.32954646840149);
#293=CYLINDRICAL_SURFACE('',#370,6.2);
#294=CYLINDRICAL_SURFACE('',#374,8.);
#295=CYLINDRICAL_SURFACE('',#378,10.);
#296=CYLINDRICAL_SURFACE('',#382,12.5);
#297=CYLINDRICAL_SURFACE('',#386,16.);
#298=CYLINDRICAL_SURFACE('',#390,20.);
#299=CYLINDRICAL_SURFACE('',#394,25.);
#300=ADVANCED_FACE('',(#230,#231),#286,.T.);
#301=ADVANCED_FACE('',(#232,#233),#32,.T.);
#302=ADVANCED_FACE('',(#234,#235),#287,.F.);
#303=ADVANCED_FACE('',(#236,#237),#20,.F.);
#304=ADVANCED_FACE('',(#238,#239),#288,.F.);
#305=ADVANCED_FACE('',(#240,#241),#21,.F.);
#306=ADVANCED_FACE('',(#242,#243),#289,.F.);
#307=ADVANCED_FACE('',(#244,#245),#22,.F.);
#308=ADVANCED_FACE('',(#246,#247),#290,.F.);
#309=ADVANCED_FACE('',(#248,#249),#23,.F.);
#310=ADVANCED_FACE('',(#250,#251),#291,.F.);
#311=ADVANCED_FACE('',(#252,#253),#24,.F.);
#312=ADVANCED_FACE('',(#254,#255),#292,.F.);
#313=ADVANCED_FACE('',(#256,#257),#25,.F.);
#314=ADVANCED_FACE('',(#258,#259),#293,.F.);
#315=ADVANCED_FACE('',(#260,#261),#33,.T.);
#316=ADVANCED_FACE('',(#262,#263),#294,.T.);
#317=ADVANCED_FACE('',(#264,#265),#26,.T.);
#318=ADVANCED_FACE('',(#266,#267),#295,.T.);
#319=ADVANCED_FACE('',(#268,#269),#27,.T.);
#320=ADVANCED_FACE('',(#270,#271),#296,.T.);
#321=ADVANCED_FACE('',(#272,#273),#28,.T.);
#322=ADVANCED_FACE('',(#274,#275),#297,.T.);
#323=ADVANCED_FACE('',(#276,#277),#29,.T.);
#324=ADVANCED_FACE('',(#278,#279),#298,.T.);
#325=ADVANCED_FACE('',(#280,#281),#30,.T.);
#326=ADVANCED_FACE('',(#282,#283),#299,.T.);
#327=ADVANCED_FACE('',(#284,#285),#31,.T.);
#328=CLOSED_SHELL('',(#300,#301,#302,#303,#304,#305,#306,#307,#308,#309,
#310,#311,#312,#313,#314,#315,#316,#317,#318,#319,#320,#321,#322,#323,#324,
#325,#326,#327));
#329=STYLED_ITEM('',(#330),#337);
#330=PRESENTATION_STYLE_ASSIGNMENT((#331));
#331=SURFACE_STYLE_USAGE(.BOTH.,#332);
#332=SURFACE_SIDE_STYLE('',(#333));
#333=SURFACE_STYLE_FILL_AREA(#334);
#334=FILL_AREA_STYLE('',(#335));
#335=FILL_AREA_STYLE_COLOUR('',#336);
#336=COLOUR_RGB('',0.689999997615814,0.689999997615814,0.689999997615814);
#337=MANIFOLD_SOLID_BREP('16007631611(architecture400)',#328);
#338=SHAPE_DEFINITION_REPRESENTATION(#602,#339);
#339=SHAPE_REPRESENTATION('16007631611(architecture400)',(#340),#597);
#340=AXIS2_PLACEMENT_3D('',#511,#397,#398);
#341=AXIS2_PLACEMENT_3D('',#512,#399,#400);
#342=AXIS2_PLACEMENT_3D('',#513,#401,#402);
#343=AXIS2_PLACEMENT_3D('',#515,#403,#404);
#344=AXIS2_PLACEMENT_3D('',#517,#405,#406);
#345=AXIS2_PLACEMENT_3D('',#518,#407,#408);
#346=AXIS2_PLACEMENT_3D('',#520,#409,#410);
#347=AXIS2_PLACEMENT_3D('',#521,#411,#412);
#348=AXIS2_PLACEMENT_3D('',#523,#413,#414);
#349=AXIS2_PLACEMENT_3D('',#524,#415,#416);
#350=AXIS2_PLACEMENT_3D('',#526,#417,#418);
#351=AXIS2_PLACEMENT_3D('',#527,#419,#420);
#352=AXIS2_PLACEMENT_3D('',#529,#421,#422);
#353=AXIS2_PLACEMENT_3D('',#530,#423,#424);
#354=AXIS2_PLACEMENT_3D('',#532,#425,#426);
#355=AXIS2_PLACEMENT_3D('',#533,#427,#428);
#356=AXIS2_PLACEMENT_3D('',#535,#429,#430);
#357=AXIS2_PLACEMENT_3D('',#536,#431,#432);
#358=AXIS2_PLACEMENT_3D('',#538,#433,#434);
#359=AXIS2_PLACEMENT_3D('',#539,#435,#436);
#360=AXIS2_PLACEMENT_3D('',#541,#437,#438);
#361=AXIS2_PLACEMENT_3D('',#542,#439,#440);
#362=AXIS2_PLACEMENT_3D('',#544,#441,#442);
#363=AXIS2_PLACEMENT_3D('',#545,#443,#444);
#364=AXIS2_PLACEMENT_3D('',#547,#445,#446);
#365=AXIS2_PLACEMENT_3D('',#548,#447,#448);
#366=AXIS2_PLACEMENT_3D('',#550,#449,#450);
#367=AXIS2_PLACEMENT_3D('',#551,#451,#452);
#368=AXIS2_PLACEMENT_3D('',#553,#453,#454);
#369=AXIS2_PLACEMENT_3D('',#554,#455,#456);
#370=AXIS2_PLACEMENT_3D('',#556,#457,#458);
#371=AXIS2_PLACEMENT_3D('',#557,#459,#460);
#372=AXIS2_PLACEMENT_3D('',#559,#461,#462);
#373=AXIS2_PLACEMENT_3D('',#560,#463,#464);
#374=AXIS2_PLACEMENT_3D('',#562,#465,#466);
#375=AXIS2_PLACEMENT_3D('',#563,#467,#468);
#376=AXIS2_PLACEMENT_3D('',#565,#469,#470);
#377=AXIS2_PLACEMENT_3D('',#566,#471,#472);
#378=AXIS2_PLACEMENT_3D('',#568,#473,#474);
#379=AXIS2_PLACEMENT_3D('',#569,#475,#476);
#380=AXIS2_PLACEMENT_3D('',#571,#477,#478);
#381=AXIS2_PLACEMENT_3D('',#572,#479,#480);
#382=AXIS2_PLACEMENT_3D('',#574,#481,#482);
#383=AXIS2_PLACEMENT_3D('',#575,#483,#484);
#384=AXIS2_PLACEMENT_3D('',#577,#485,#486);
#385=AXIS2_PLACEMENT_3D('',#578,#487,#488);
#386=AXIS2_PLACEMENT_3D('',#580,#489,#490);
#387=AXIS2_PLACEMENT_3D('',#581,#491,#492);
#388=AXIS2_PLACEMENT_3D('',#583,#493,#494);
#389=AXIS2_PLACEMENT_3D('',#584,#495,#496);
#390=AXIS2_PLACEMENT_3D('',#586,#497,#498);
#391=AXIS2_PLACEMENT_3D('',#587,#499,#500);
#392=AXIS2_PLACEMENT_3D('',#589,#501,#502);
#393=AXIS2_PLACEMENT_3D('',#590,#503,#504);
#394=AXIS2_PLACEMENT_3D('',#592,#505,#506);
#395=AXIS2_PLACEMENT_3D('',#593,#507,#508);
#396=AXIS2_PLACEMENT_3D('',#595,#509,#510);
#397=DIRECTION('',(0.,0.,1.));
#398=DIRECTION('',(1.,0.,0.));
#399=DIRECTION('',(1.,0.,0.));
#400=DIRECTION('',(0.,0.,-1.));
#401=DIRECTION('',(1.,0.,0.));
#402=DIRECTION('',(0.,0.,-1.));
#403=DIRECTION('',(1.,0.,0.));
#404=DIRECTION('',(0.,0.,-1.));
#405=DIRECTION('',(-1.,0.,0.));
#406=DIRECTION('',(0.,0.,1.));
#407=DIRECTION('',(1.,0.,0.));
#408=DIRECTION('',(0.,0.,-1.));
#409=DIRECTION('',(1.,0.,0.));
#410=DIRECTION('',(0.,0.,-1.));
#411=DIRECTION('',(1.,0.,0.));
#412=DIRECTION('',(0.,0.,-1.));
#413=DIRECTION('',(-1.,0.,0.));
#414=DIRECTION('',(0.,0.,1.));
#415=DIRECTION('',(1.,0.,0.));
#416=DIRECTION('',(0.,0.,-1.));
#417=DIRECTION('',(1.,0.,0.));
#418=DIRECTION('',(0.,0.,-1.));
#419=DIRECTION('',(1.,0.,0.));
#420=DIRECTION('',(0.,0.,-1.));
#421=DIRECTION('',(-1.,0.,0.));
#422=DIRECTION('',(0.,0.,1.));
#423=DIRECTION('',(1.,0.,0.));
#424=DIRECTION('',(0.,0.,-1.));
#425=DIRECTION('',(1.,0.,0.));
#426=DIRECTION('',(0.,0.,-1.));
#427=DIRECTION('',(1.,0.,0.));
#428=DIRECTION('',(0.,0.,-1.));
#429=DIRECTION('',(-1.,0.,0.));
#430=DIRECTION('',(0.,0.,1.));
#431=DIRECTION('',(1.,0.,0.));
#432=DIRECTION('',(0.,0.,-1.));
#433=DIRECTION('',(1.,0.,0.));
#434=DIRECTION('',(0.,0.,-1.));
#435=DIRECTION('',(1.,0.,0.));
#436=DIRECTION('',(0.,0.,-1.));
#437=DIRECTION('',(-1.,0.,0.));
#438=DIRECTION('',(0.,0.,1.));
#439=DIRECTION('',(1.,0.,0.));
#440=DIRECTION('',(0.,0.,-1.));
#441=DIRECTION('',(1.,0.,0.));
#442=DIRECTION('',(0.,0.,-1.));
#443=DIRECTION('',(1.,0.,0.));
#444=DIRECTION('',(0.,0.,-1.));
#445=DIRECTION('',(-1.,0.,0.));
#446=DIRECTION('',(0.,0.,1.));
#447=DIRECTION('',(1.,0.,0.));
#448=DIRECTION('',(0.,0.,-1.));
#449=DIRECTION('',(1.,0.,0.));
#450=DIRECTION('',(0.,0.,-1.));
#451=DIRECTION('',(1.,0.,0.));
#452=DIRECTION('',(0.,0.,-1.));
#453=DIRECTION('',(-1.,0.,0.));
#454=DIRECTION('',(0.,0.,1.));
#455=DIRECTION('',(1.,0.,0.));
#456=DIRECTION('',(0.,0.,-1.));
#457=DIRECTION('',(1.,0.,0.));
#458=DIRECTION('',(0.,0.,-1.));
#459=DIRECTION('',(1.,0.,0.));
#460=DIRECTION('',(0.,0.,-1.));
#461=DIRECTION('',(1.,0.,0.));
#462=DIRECTION('',(0.,0.,-1.));
#463=DIRECTION('',(1.,0.,0.));
#464=DIRECTION('',(0.,0.,-1.));
#465=DIRECTION('',(1.,0.,0.));
#466=DIRECTION('',(0.,0.,-1.));
#467=DIRECTION('',(1.,0.,0.));
#468=DIRECTION('',(0.,0.,-1.));
#469=DIRECTION('',(-1.,0.,0.));
#470=DIRECTION('',(0.,0.,1.));
#471=DIRECTION('',(1.,0.,0.));
#472=DIRECTION('',(0.,0.,-1.));
#473=DIRECTION('',(1.,0.,0.));
#474=DIRECTION('',(0.,0.,-1.));
#475=DIRECTION('',(1.,0.,0.));
#476=DIRECTION('',(0.,0.,-1.));
#477=DIRECTION('',(-1.,0.,0.));
#478=DIRECTION('',(0.,0.,1.));
#479=DIRECTION('',(1.,0.,0.));
#480=DIRECTION('',(0.,0.,-1.));
#481=DIRECTION('',(1.,0.,0.));
#482=DIRECTION('',(0.,0.,-1.));
#483=DIRECTION('',(1.,0.,0.));
#484=DIRECTION('',(0.,0.,-1.));
#485=DIRECTION('',(-1.,0.,0.));
#486=DIRECTION('',(0.,0.,1.));
#487=DIRECTION('',(1.,0.,0.));
#488=DIRECTION('',(0.,0.,-1.));
#489=DIRECTION('',(1.,0.,0.));
#490=DIRECTION('',(0.,0.,-1.));
#491=DIRECTION('',(1.,0.,0.));
#492=DIRECTION('',(0.,0.,-1.));
#493=DIRECTION('',(-1.,0.,0.));
#494=DIRECTION('',(0.,0.,1.));
#495=DIRECTION('',(1.,0.,0.));
#496=DIRECTION('',(0.,0.,-1.));
#497=DIRECTION('',(1.,0.,0.));
#498=DIRECTION('',(0.,0.,-1.));
#499=DIRECTION('',(1.,0.,0.));
#500=DIRECTION('',(0.,0.,-1.));
#501=DIRECTION('',(-1.,0.,0.));
#502=DIRECTION('',(0.,0.,1.));
#503=DIRECTION('',(1.,0.,0.));
#504=DIRECTION('',(0.,0.,-1.));
#505=DIRECTION('',(1.,0.,0.));
#506=DIRECTION('',(0.,0.,-1.));
#507=DIRECTION('',(1.,0.,0.));
#508=DIRECTION('',(0.,0.,-1.));
#509=DIRECTION('',(-1.,0.,0.));
#510=DIRECTION('',(0.,0.,1.));
#511=CARTESIAN_POINT('',(0.,0.,0.));
#512=CARTESIAN_POINT('',(97.,0.,0.));
#513=CARTESIAN_POINT('',(0.,0.,0.));
#514=CARTESIAN_POINT('',(0.,0.,-31.5));
#515=CARTESIAN_POINT('',(9.99999999999999,0.,0.));
#516=CARTESIAN_POINT('',(9.99999999999999,0.,-31.5));
#517=CARTESIAN_POINT('',(0.,31.5,0.));
#518=CARTESIAN_POINT('',(0.,0.,0.));
#519=CARTESIAN_POINT('',(0.,0.,-25.7));
#520=CARTESIAN_POINT('',(97.,0.,0.));
#521=CARTESIAN_POINT('',(9.99999999999999,0.,0.));
#522=CARTESIAN_POINT('',(9.99999999999999,0.,-25.7));
#523=CARTESIAN_POINT('',(9.99999999999999,0.,0.));
#524=CARTESIAN_POINT('',(14.2961863142913,0.,0.));
#525=CARTESIAN_POINT('',(14.2961863142913,0.,-21.8116794750402));
#526=CARTESIAN_POINT('',(97.,0.,0.));
#527=CARTESIAN_POINT('',(24.3636363636364,0.,0.));
#528=CARTESIAN_POINT('',(24.3636363636364,0.,-21.8116794750402));
#529=CARTESIAN_POINT('',(24.3636363636364,0.,0.));
#530=CARTESIAN_POINT('',(30.0503916616913,0.,0.));
#531=CARTESIAN_POINT('',(30.0503916616913,0.,-17.8525460396855));
#532=CARTESIAN_POINT('',(97.,0.,0.));
#533=CARTESIAN_POINT('',(38.7272727272727,0.,0.));
#534=CARTESIAN_POINT('',(38.7272727272727,0.,-17.8525460396855));
#535=CARTESIAN_POINT('',(38.7272727272727,0.,0.));
#536=CARTESIAN_POINT('',(44.9962194444886,0.,0.));
#537=CARTESIAN_POINT('',(44.9962194444886,0.,-14.360980779464));
#538=CARTESIAN_POINT('',(97.,0.,0.));
#539=CARTESIAN_POINT('',(53.0909090909092,0.,0.));
#540=CARTESIAN_POINT('',(53.0909090909092,0.,-14.360980779464));
#541=CARTESIAN_POINT('',(53.0909090909092,0.,0.));
#542=CARTESIAN_POINT('',(59.6272636454641,0.,0.));
#543=CARTESIAN_POINT('',(59.6272636454641,0.,-11.1755421674341));
#544=CARTESIAN_POINT('',(97.,0.,0.));
#545=CARTESIAN_POINT('',(66.4605941736881,0.,0.));
#546=CARTESIAN_POINT('',(66.4605941736881,0.,-11.1755421674341));
#547=CARTESIAN_POINT('',(66.4605941736881,0.,0.));
#548=CARTESIAN_POINT('',(74.6363636363636,0.,0.));
#549=CARTESIAN_POINT('',(74.6363636363636,0.,-8.32954646840149));
#550=CARTESIAN_POINT('',(97.,0.,0.));
#551=CARTESIAN_POINT('',(81.3529922271037,0.,0.));
#552=CARTESIAN_POINT('',(81.3529922271037,0.,-8.32954646840149));
#553=CARTESIAN_POINT('',(81.3529922271037,0.,0.));
#554=CARTESIAN_POINT('',(89.,0.,0.));
#555=CARTESIAN_POINT('',(89.,0.,-6.2));
#556=CARTESIAN_POINT('',(97.,0.,0.));
#557=CARTESIAN_POINT('',(97.,0.,0.));
#558=CARTESIAN_POINT('',(97.,0.,-6.19999999999999));
#559=CARTESIAN_POINT('',(97.,6.19999999999999,0.));
#560=CARTESIAN_POINT('',(97.,0.,0.));
#561=CARTESIAN_POINT('',(97.,0.,-7.99999999999999));
#562=CARTESIAN_POINT('',(97.,0.,0.));
#563=CARTESIAN_POINT('',(89.,0.,0.));
#564=CARTESIAN_POINT('',(89.,0.,-8.));
#565=CARTESIAN_POINT('',(89.,0.,0.));
#566=CARTESIAN_POINT('',(81.8181818181818,0.,0.));
#567=CARTESIAN_POINT('',(81.8181818181818,0.,-10.));
#568=CARTESIAN_POINT('',(97.,0.,0.));
#569=CARTESIAN_POINT('',(74.6363636363636,0.,0.));
#570=CARTESIAN_POINT('',(74.6363636363636,0.,-10.));
#571=CARTESIAN_POINT('',(74.6363636363636,0.,0.));
#572=CARTESIAN_POINT('',(67.4545454545454,0.,0.));
#573=CARTESIAN_POINT('',(67.4545454545454,0.,-12.5));
#574=CARTESIAN_POINT('',(97.,0.,0.));
#575=CARTESIAN_POINT('',(60.2727272727273,0.,0.));
#576=CARTESIAN_POINT('',(60.2727272727273,0.,-12.5));
#577=CARTESIAN_POINT('',(60.2727272727273,0.,0.));
#578=CARTESIAN_POINT('',(53.0909090909091,0.,0.));
#579=CARTESIAN_POINT('',(53.0909090909091,0.,-16.));
#580=CARTESIAN_POINT('',(97.,0.,0.));
#581=CARTESIAN_POINT('',(45.9090909090909,0.,0.));
#582=CARTESIAN_POINT('',(45.9090909090909,0.,-16.));
#583=CARTESIAN_POINT('',(45.9090909090909,0.,0.));
#584=CARTESIAN_POINT('',(38.7272727272727,0.,0.));
#585=CARTESIAN_POINT('',(38.7272727272727,0.,-20.));
#586=CARTESIAN_POINT('',(97.,0.,0.));
#587=CARTESIAN_POINT('',(31.5454545454545,0.,0.));
#588=CARTESIAN_POINT('',(31.5454545454545,0.,-20.));
#589=CARTESIAN_POINT('',(31.5454545454545,0.,0.));
#590=CARTESIAN_POINT('',(24.3636363636364,0.,0.));
#591=CARTESIAN_POINT('',(24.3636363636364,0.,-25.));
#592=CARTESIAN_POINT('',(97.,0.,0.));
#593=CARTESIAN_POINT('',(17.1818181818182,0.,0.));
#594=CARTESIAN_POINT('',(17.1818181818182,0.,-25.));
#595=CARTESIAN_POINT('',(17.1818181818182,0.,0.));
#596=MECHANICAL_DESIGN_GEOMETRIC_PRESENTATION_REPRESENTATION('',(#329),
#597);
#597=(
GEOMETRIC_REPRESENTATION_CONTEXT(3)
GLOBAL_UNCERTAINTY_ASSIGNED_CONTEXT((#598))
GLOBAL_UNIT_ASSIGNED_CONTEXT((#601,#600,#599))
REPRESENTATION_CONTEXT('16007631611(architecture400)',
'TOP_LEVEL_ASSEMBLY_PART')
);
#598=UNCERTAINTY_MEASURE_WITH_UNIT(LENGTH_MEASURE(0.005),#601,
'DISTANCE_ACCURACY_VALUE','Maximum Tolerance applied to model');
#599=(
NAMED_UNIT(*)
SI_UNIT($,.STERADIAN.)
SOLID_ANGLE_UNIT()
);
#600=(
NAMED_UNIT(*)
PLANE_ANGLE_UNIT()
SI_UNIT($,.RADIAN.)
);
#601=(
LENGTH_UNIT()
NAMED_UNIT(*)
SI_UNIT(.MILLI.,.METRE.)
);
#602=PRODUCT_DEFINITION_SHAPE('','',#603);
#603=PRODUCT_DEFINITION('','',#605,#604);
#604=DESIGN_CONTEXT('',#611,'design');
#605=PRODUCT_DEFINITION_FORMATION_WITH_SPECIFIED_SOURCE('','',#607,
 .NOT_KNOWN.);
#606=PRODUCT_RELATED_PRODUCT_CATEGORY('','',(#607));
#607=PRODUCT('16007631611(architecture400)',
'16007631611(architecture400)','16007631611(architecture400)',(#609));
#608=PRODUCT_CATEGORY('','');
#609=MECHANICAL_CONTEXT('',#611,'mechanical');
#610=APPLICATION_PROTOCOL_DEFINITION('international standard',
'config_control_design',2010,#611);
#611=APPLICATION_CONTEXT(
'configuration controlled 3D designs of mechanical parts and assemblie
s');
ENDSEC;
END-ISO-10303-21;
