ISO-10303-21;
HEADER;
/* Generated by software containing ST-Developer
 * from STEP Tools, Inc. (www.steptools.com) 
 */

FILE_DESCRIPTION(
/* description */ (''),
/* implementation_level */ '2;1');

FILE_NAME(
/* name */ 
'Q:\\Ric010\\FF7\\FIPlastiCAD\\FIP\\Lavoro\\PVC Fittings\\PVC Fittings
 STEP\\AFV\\AFV012020022.ipt.stp',
/* time_stamp */ '2013-10-01T14:35:12+02:00',
/* author */ ('bfaro'),
/* organization */ (''),
/* preprocessor_version */ 'ST-DEVELOPER v15.2',
/* originating_system */ 'Autodesk Inventor 2014',
/* authorisation */ '');

FILE_SCHEMA (('AUTOMOTIVE_DESIGN { 1 0 10303 214 3 1 1 }'));
ENDSEC;

DATA;
#10=SHAPE_REPRESENTATION_RELATIONSHIP('SRR','None',#697,#11);
#11=ADVANCED_BREP_SHAPE_REPRESENTATION($,(#399),#688);
#12=STYLED_ITEM($,(#705),#399);
#13=LINE($,#652,#31);
#14=LINE($,#654,#32);
#15=LINE($,#656,#33);
#16=LINE($,#658,#34);
#17=LINE($,#660,#35);
#18=LINE($,#661,#36);
#19=LINE($,#665,#37);
#20=LINE($,#667,#38);
#21=LINE($,#669,#39);
#22=LINE($,#671,#40);
#23=LINE($,#673,#41);
#24=LINE($,#674,#42);
#25=LINE($,#676,#43);
#26=LINE($,#677,#44);
#27=LINE($,#679,#45);
#28=LINE($,#681,#46);
#29=LINE($,#683,#47);
#30=LINE($,#685,#48);
#31=VECTOR($,#548,13.856406460551);
#32=VECTOR($,#549,13.856406460551);
#33=VECTOR($,#550,13.856406460551);
#34=VECTOR($,#551,13.856406460551);
#35=VECTOR($,#552,13.856406460551);
#36=VECTOR($,#553,13.856406460551);
#37=VECTOR($,#556,13.856406460551);
#38=VECTOR($,#557,13.856406460551);
#39=VECTOR($,#558,13.856406460551);
#40=VECTOR($,#559,13.856406460551);
#41=VECTOR($,#560,13.856406460551);
#42=VECTOR($,#561,13.856406460551);
#43=VECTOR($,#564,5.);
#44=VECTOR($,#565,5.);
#45=VECTOR($,#568,5.);
#46=VECTOR($,#571,5.);
#47=VECTOR($,#574,5.);
#48=VECTOR($,#577,5.);
#49=PLANE($,#437);
#50=PLANE($,#438);
#51=PLANE($,#439);
#52=PLANE($,#440);
#53=PLANE($,#441);
#54=PLANE($,#442);
#55=PLANE($,#443);
#56=PLANE($,#444);
#57=PLANE($,#445);
#58=PLANE($,#446);
#59=PLANE($,#447);
#60=PLANE($,#448);
#61=PLANE($,#449);
#62=PLANE($,#450);
#63=PLANE($,#451);
#64=PLANE($,#452);
#65=PLANE($,#453);
#66=TOROIDAL_SURFACE($,#430,8.54375593634302,1.);
#67=CYLINDRICAL_SURFACE($,#413,9.99999999999997);
#68=CYLINDRICAL_SURFACE($,#427,10.5);
#69=CYLINDRICAL_SURFACE($,#432,11.);
#70=CYLINDRICAL_SURFACE($,#434,7.);
#71=FACE_BOUND($,#126,.T.);
#72=FACE_BOUND($,#128,.T.);
#73=FACE_BOUND($,#130,.T.);
#74=FACE_BOUND($,#132,.T.);
#75=FACE_BOUND($,#134,.T.);
#76=FACE_BOUND($,#136,.T.);
#77=FACE_BOUND($,#138,.T.);
#78=FACE_BOUND($,#140,.T.);
#79=FACE_BOUND($,#142,.T.);
#80=FACE_BOUND($,#144,.T.);
#81=FACE_BOUND($,#146,.T.);
#82=FACE_BOUND($,#148,.T.);
#83=FACE_BOUND($,#150,.T.);
#84=FACE_BOUND($,#152,.T.);
#85=FACE_BOUND($,#154,.T.);
#86=FACE_BOUND($,#156,.T.);
#87=FACE_BOUND($,#158,.T.);
#88=FACE_BOUND($,#160,.T.);
#89=FACE_BOUND($,#162,.T.);
#90=FACE_BOUND($,#164,.T.);
#91=FACE_BOUND($,#166,.T.);
#92=FACE_BOUND($,#168,.T.);
#93=FACE_BOUND($,#170,.T.);
#94=FACE_BOUND($,#172,.T.);
#95=FACE_OUTER_BOUND($,#125,.T.);
#96=FACE_OUTER_BOUND($,#127,.T.);
#97=FACE_OUTER_BOUND($,#129,.T.);
#98=FACE_OUTER_BOUND($,#131,.T.);
#99=FACE_OUTER_BOUND($,#133,.T.);
#100=FACE_OUTER_BOUND($,#135,.T.);
#101=FACE_OUTER_BOUND($,#137,.T.);
#102=FACE_OUTER_BOUND($,#139,.T.);
#103=FACE_OUTER_BOUND($,#141,.T.);
#104=FACE_OUTER_BOUND($,#143,.T.);
#105=FACE_OUTER_BOUND($,#145,.T.);
#106=FACE_OUTER_BOUND($,#147,.T.);
#107=FACE_OUTER_BOUND($,#149,.T.);
#108=FACE_OUTER_BOUND($,#151,.T.);
#109=FACE_OUTER_BOUND($,#153,.T.);
#110=FACE_OUTER_BOUND($,#155,.T.);
#111=FACE_OUTER_BOUND($,#157,.T.);
#112=FACE_OUTER_BOUND($,#159,.T.);
#113=FACE_OUTER_BOUND($,#161,.T.);
#114=FACE_OUTER_BOUND($,#163,.T.);
#115=FACE_OUTER_BOUND($,#165,.T.);
#116=FACE_OUTER_BOUND($,#167,.T.);
#117=FACE_OUTER_BOUND($,#169,.T.);
#118=FACE_OUTER_BOUND($,#171,.T.);
#119=FACE_OUTER_BOUND($,#173,.T.);
#120=FACE_OUTER_BOUND($,#174,.T.);
#121=FACE_OUTER_BOUND($,#175,.T.);
#122=FACE_OUTER_BOUND($,#176,.T.);
#123=FACE_OUTER_BOUND($,#177,.T.);
#124=FACE_OUTER_BOUND($,#178,.T.);
#125=EDGE_LOOP($,(#278));
#126=EDGE_LOOP($,(#279));
#127=EDGE_LOOP($,(#280));
#128=EDGE_LOOP($,(#281));
#129=EDGE_LOOP($,(#282));
#130=EDGE_LOOP($,(#283));
#131=EDGE_LOOP($,(#284));
#132=EDGE_LOOP($,(#285));
#133=EDGE_LOOP($,(#286));
#134=EDGE_LOOP($,(#287));
#135=EDGE_LOOP($,(#288));
#136=EDGE_LOOP($,(#289));
#137=EDGE_LOOP($,(#290));
#138=EDGE_LOOP($,(#291));
#139=EDGE_LOOP($,(#292));
#140=EDGE_LOOP($,(#293));
#141=EDGE_LOOP($,(#294));
#142=EDGE_LOOP($,(#295));
#143=EDGE_LOOP($,(#296));
#144=EDGE_LOOP($,(#297));
#145=EDGE_LOOP($,(#298));
#146=EDGE_LOOP($,(#299));
#147=EDGE_LOOP($,(#300));
#148=EDGE_LOOP($,(#301));
#149=EDGE_LOOP($,(#302));
#150=EDGE_LOOP($,(#303));
#151=EDGE_LOOP($,(#304));
#152=EDGE_LOOP($,(#305));
#153=EDGE_LOOP($,(#306));
#154=EDGE_LOOP($,(#307));
#155=EDGE_LOOP($,(#308));
#156=EDGE_LOOP($,(#309));
#157=EDGE_LOOP($,(#310));
#158=EDGE_LOOP($,(#311));
#159=EDGE_LOOP($,(#312));
#160=EDGE_LOOP($,(#313));
#161=EDGE_LOOP($,(#314));
#162=EDGE_LOOP($,(#315));
#163=EDGE_LOOP($,(#316));
#164=EDGE_LOOP($,(#317));
#165=EDGE_LOOP($,(#318));
#166=EDGE_LOOP($,(#319));
#167=EDGE_LOOP($,(#320));
#168=EDGE_LOOP($,(#321));
#169=EDGE_LOOP($,(#322,#323,#324,#325,#326,#327));
#170=EDGE_LOOP($,(#328));
#171=EDGE_LOOP($,(#329,#330,#331,#332,#333,#334));
#172=EDGE_LOOP($,(#335));
#173=EDGE_LOOP($,(#336,#337,#338,#339));
#174=EDGE_LOOP($,(#340,#341,#342,#343));
#175=EDGE_LOOP($,(#344,#345,#346,#347));
#176=EDGE_LOOP($,(#348,#349,#350,#351));
#177=EDGE_LOOP($,(#352,#353,#354,#355));
#178=EDGE_LOOP($,(#356,#357,#358,#359));
#179=CIRCLE($,#402,10.);
#180=CIRCLE($,#403,9.52856368935522);
#181=CIRCLE($,#405,9.99999999999997);
#182=CIRCLE($,#406,9.38285556752029);
#183=CIRCLE($,#408,9.99999999999991);
#184=CIRCLE($,#409,9.38285556752032);
#185=CIRCLE($,#411,9.99999999999997);
#186=CIRCLE($,#412,9.38285556752024);
#187=CIRCLE($,#414,10.);
#188=CIRCLE($,#416,11.);
#189=CIRCLE($,#417,10.3828555675203);
#190=CIRCLE($,#419,11.);
#191=CIRCLE($,#420,10.3828555675203);
#192=CIRCLE($,#422,11.);
#193=CIRCLE($,#423,10.3828555675204);
#194=CIRCLE($,#425,11.);
#195=CIRCLE($,#426,10.3828555675204);
#196=CIRCLE($,#428,10.5);
#197=CIRCLE($,#429,10.5);
#198=CIRCLE($,#431,8.54375593634302);
#199=CIRCLE($,#433,11.);
#200=CIRCLE($,#435,7.);
#201=CIRCLE($,#436,7.);
#202=VERTEX_POINT($,#582);
#203=VERTEX_POINT($,#584);
#204=VERTEX_POINT($,#587);
#205=VERTEX_POINT($,#589);
#206=VERTEX_POINT($,#592);
#207=VERTEX_POINT($,#594);
#208=VERTEX_POINT($,#597);
#209=VERTEX_POINT($,#599);
#210=VERTEX_POINT($,#602);
#211=VERTEX_POINT($,#605);
#212=VERTEX_POINT($,#607);
#213=VERTEX_POINT($,#610);
#214=VERTEX_POINT($,#612);
#215=VERTEX_POINT($,#615);
#216=VERTEX_POINT($,#617);
#217=VERTEX_POINT($,#620);
#218=VERTEX_POINT($,#622);
#219=VERTEX_POINT($,#625);
#220=VERTEX_POINT($,#627);
#221=VERTEX_POINT($,#630);
#222=VERTEX_POINT($,#633);
#223=VERTEX_POINT($,#636);
#224=VERTEX_POINT($,#638);
#225=VERTEX_POINT($,#650);
#226=VERTEX_POINT($,#651);
#227=VERTEX_POINT($,#653);
#228=VERTEX_POINT($,#655);
#229=VERTEX_POINT($,#657);
#230=VERTEX_POINT($,#659);
#231=VERTEX_POINT($,#663);
#232=VERTEX_POINT($,#664);
#233=VERTEX_POINT($,#666);
#234=VERTEX_POINT($,#668);
#235=VERTEX_POINT($,#670);
#236=VERTEX_POINT($,#672);
#237=EDGE_CURVE($,#202,#202,#179,.T.);
#238=EDGE_CURVE($,#203,#203,#180,.T.);
#239=EDGE_CURVE($,#204,#204,#181,.T.);
#240=EDGE_CURVE($,#205,#205,#182,.T.);
#241=EDGE_CURVE($,#206,#206,#183,.T.);
#242=EDGE_CURVE($,#207,#207,#184,.T.);
#243=EDGE_CURVE($,#208,#208,#185,.T.);
#244=EDGE_CURVE($,#209,#209,#186,.T.);
#245=EDGE_CURVE($,#210,#210,#187,.T.);
#246=EDGE_CURVE($,#211,#211,#188,.T.);
#247=EDGE_CURVE($,#212,#212,#189,.T.);
#248=EDGE_CURVE($,#213,#213,#190,.T.);
#249=EDGE_CURVE($,#214,#214,#191,.T.);
#250=EDGE_CURVE($,#215,#215,#192,.T.);
#251=EDGE_CURVE($,#216,#216,#193,.T.);
#252=EDGE_CURVE($,#217,#217,#194,.T.);
#253=EDGE_CURVE($,#218,#218,#195,.T.);
#254=EDGE_CURVE($,#219,#219,#196,.T.);
#255=EDGE_CURVE($,#220,#220,#197,.T.);
#256=EDGE_CURVE($,#221,#221,#198,.T.);
#257=EDGE_CURVE($,#222,#222,#199,.T.);
#258=EDGE_CURVE($,#223,#223,#200,.T.);
#259=EDGE_CURVE($,#224,#224,#201,.T.);
#260=EDGE_CURVE($,#225,#226,#13,.T.);
#261=EDGE_CURVE($,#227,#225,#14,.T.);
#262=EDGE_CURVE($,#228,#227,#15,.T.);
#263=EDGE_CURVE($,#229,#228,#16,.T.);
#264=EDGE_CURVE($,#230,#229,#17,.T.);
#265=EDGE_CURVE($,#226,#230,#18,.T.);
#266=EDGE_CURVE($,#231,#232,#19,.T.);
#267=EDGE_CURVE($,#233,#231,#20,.T.);
#268=EDGE_CURVE($,#234,#233,#21,.T.);
#269=EDGE_CURVE($,#235,#234,#22,.T.);
#270=EDGE_CURVE($,#236,#235,#23,.T.);
#271=EDGE_CURVE($,#232,#236,#24,.T.);
#272=EDGE_CURVE($,#233,#226,#25,.T.);
#273=EDGE_CURVE($,#231,#225,#26,.T.);
#274=EDGE_CURVE($,#234,#230,#27,.T.);
#275=EDGE_CURVE($,#235,#229,#28,.T.);
#276=EDGE_CURVE($,#236,#228,#29,.T.);
#277=EDGE_CURVE($,#232,#227,#30,.T.);
#278=ORIENTED_EDGE($,*,*,#237,.T.);
#279=ORIENTED_EDGE($,*,*,#238,.F.);
#280=ORIENTED_EDGE($,*,*,#239,.T.);
#281=ORIENTED_EDGE($,*,*,#240,.F.);
#282=ORIENTED_EDGE($,*,*,#241,.T.);
#283=ORIENTED_EDGE($,*,*,#242,.F.);
#284=ORIENTED_EDGE($,*,*,#243,.T.);
#285=ORIENTED_EDGE($,*,*,#244,.F.);
#286=ORIENTED_EDGE($,*,*,#245,.T.);
#287=ORIENTED_EDGE($,*,*,#243,.F.);
#288=ORIENTED_EDGE($,*,*,#246,.T.);
#289=ORIENTED_EDGE($,*,*,#247,.F.);
#290=ORIENTED_EDGE($,*,*,#248,.T.);
#291=ORIENTED_EDGE($,*,*,#249,.F.);
#292=ORIENTED_EDGE($,*,*,#250,.T.);
#293=ORIENTED_EDGE($,*,*,#251,.F.);
#294=ORIENTED_EDGE($,*,*,#252,.T.);
#295=ORIENTED_EDGE($,*,*,#253,.F.);
#296=ORIENTED_EDGE($,*,*,#254,.T.);
#297=ORIENTED_EDGE($,*,*,#255,.F.);
#298=ORIENTED_EDGE($,*,*,#238,.T.);
#299=ORIENTED_EDGE($,*,*,#256,.F.);
#300=ORIENTED_EDGE($,*,*,#257,.F.);
#301=ORIENTED_EDGE($,*,*,#252,.F.);
#302=ORIENTED_EDGE($,*,*,#258,.F.);
#303=ORIENTED_EDGE($,*,*,#259,.T.);
#304=ORIENTED_EDGE($,*,*,#256,.T.);
#305=ORIENTED_EDGE($,*,*,#259,.F.);
#306=ORIENTED_EDGE($,*,*,#254,.F.);
#307=ORIENTED_EDGE($,*,*,#258,.T.);
#308=ORIENTED_EDGE($,*,*,#250,.F.);
#309=ORIENTED_EDGE($,*,*,#253,.T.);
#310=ORIENTED_EDGE($,*,*,#248,.F.);
#311=ORIENTED_EDGE($,*,*,#251,.T.);
#312=ORIENTED_EDGE($,*,*,#246,.F.);
#313=ORIENTED_EDGE($,*,*,#249,.T.);
#314=ORIENTED_EDGE($,*,*,#247,.T.);
#315=ORIENTED_EDGE($,*,*,#245,.F.);
#316=ORIENTED_EDGE($,*,*,#241,.F.);
#317=ORIENTED_EDGE($,*,*,#244,.T.);
#318=ORIENTED_EDGE($,*,*,#239,.F.);
#319=ORIENTED_EDGE($,*,*,#242,.T.);
#320=ORIENTED_EDGE($,*,*,#237,.F.);
#321=ORIENTED_EDGE($,*,*,#240,.T.);
#322=ORIENTED_EDGE($,*,*,#260,.F.);
#323=ORIENTED_EDGE($,*,*,#261,.F.);
#324=ORIENTED_EDGE($,*,*,#262,.F.);
#325=ORIENTED_EDGE($,*,*,#263,.F.);
#326=ORIENTED_EDGE($,*,*,#264,.F.);
#327=ORIENTED_EDGE($,*,*,#265,.F.);
#328=ORIENTED_EDGE($,*,*,#257,.T.);
#329=ORIENTED_EDGE($,*,*,#266,.F.);
#330=ORIENTED_EDGE($,*,*,#267,.F.);
#331=ORIENTED_EDGE($,*,*,#268,.F.);
#332=ORIENTED_EDGE($,*,*,#269,.F.);
#333=ORIENTED_EDGE($,*,*,#270,.F.);
#334=ORIENTED_EDGE($,*,*,#271,.F.);
#335=ORIENTED_EDGE($,*,*,#255,.T.);
#336=ORIENTED_EDGE($,*,*,#260,.T.);
#337=ORIENTED_EDGE($,*,*,#272,.F.);
#338=ORIENTED_EDGE($,*,*,#267,.T.);
#339=ORIENTED_EDGE($,*,*,#273,.T.);
#340=ORIENTED_EDGE($,*,*,#265,.T.);
#341=ORIENTED_EDGE($,*,*,#274,.F.);
#342=ORIENTED_EDGE($,*,*,#268,.T.);
#343=ORIENTED_EDGE($,*,*,#272,.T.);
#344=ORIENTED_EDGE($,*,*,#264,.T.);
#345=ORIENTED_EDGE($,*,*,#275,.F.);
#346=ORIENTED_EDGE($,*,*,#269,.T.);
#347=ORIENTED_EDGE($,*,*,#274,.T.);
#348=ORIENTED_EDGE($,*,*,#263,.T.);
#349=ORIENTED_EDGE($,*,*,#276,.F.);
#350=ORIENTED_EDGE($,*,*,#270,.T.);
#351=ORIENTED_EDGE($,*,*,#275,.T.);
#352=ORIENTED_EDGE($,*,*,#262,.T.);
#353=ORIENTED_EDGE($,*,*,#277,.F.);
#354=ORIENTED_EDGE($,*,*,#271,.T.);
#355=ORIENTED_EDGE($,*,*,#276,.T.);
#356=ORIENTED_EDGE($,*,*,#261,.T.);
#357=ORIENTED_EDGE($,*,*,#273,.F.);
#358=ORIENTED_EDGE($,*,*,#266,.T.);
#359=ORIENTED_EDGE($,*,*,#277,.T.);
#360=CONICAL_SURFACE($,#401,9.76428184467761,10.0000000000013);
#361=CONICAL_SURFACE($,#404,9.69142778376013,10.0000000000008);
#362=CONICAL_SURFACE($,#407,9.69142778376013,9.99999999999935);
#363=CONICAL_SURFACE($,#410,9.6914277837601,10.000000000001);
#364=CONICAL_SURFACE($,#415,10.6914277837602,10.0000000000012);
#365=CONICAL_SURFACE($,#418,10.6914277837601,10.0000000000003);
#366=CONICAL_SURFACE($,#421,10.6914277837602,9.99999999999943);
#367=CONICAL_SURFACE($,#424,10.6914277837602,9.99999999999948);
#368=ADVANCED_FACE($,(#95,#71),#360,.T.);
#369=ADVANCED_FACE($,(#96,#72),#361,.T.);
#370=ADVANCED_FACE($,(#97,#73),#362,.T.);
#371=ADVANCED_FACE($,(#98,#74),#363,.T.);
#372=ADVANCED_FACE($,(#99,#75),#67,.T.);
#373=ADVANCED_FACE($,(#100,#76),#364,.T.);
#374=ADVANCED_FACE($,(#101,#77),#365,.T.);
#375=ADVANCED_FACE($,(#102,#78),#366,.T.);
#376=ADVANCED_FACE($,(#103,#79),#367,.T.);
#377=ADVANCED_FACE($,(#104,#80),#68,.T.);
#378=ADVANCED_FACE($,(#105,#81),#66,.T.);
#379=ADVANCED_FACE($,(#106,#82),#69,.T.);
#380=ADVANCED_FACE($,(#107,#83),#70,.F.);
#381=ADVANCED_FACE($,(#108,#84),#49,.T.);
#382=ADVANCED_FACE($,(#109,#85),#50,.T.);
#383=ADVANCED_FACE($,(#110,#86),#51,.T.);
#384=ADVANCED_FACE($,(#111,#87),#52,.T.);
#385=ADVANCED_FACE($,(#112,#88),#53,.T.);
#386=ADVANCED_FACE($,(#113,#89),#54,.T.);
#387=ADVANCED_FACE($,(#114,#90),#55,.T.);
#388=ADVANCED_FACE($,(#115,#91),#56,.T.);
#389=ADVANCED_FACE($,(#116,#92),#57,.T.);
#390=ADVANCED_FACE($,(#117,#93),#58,.T.);
#391=ADVANCED_FACE($,(#118,#94),#59,.F.);
#392=ADVANCED_FACE($,(#119),#60,.T.);
#393=ADVANCED_FACE($,(#120),#61,.T.);
#394=ADVANCED_FACE($,(#121),#62,.T.);
#395=ADVANCED_FACE($,(#122),#63,.T.);
#396=ADVANCED_FACE($,(#123),#64,.T.);
#397=ADVANCED_FACE($,(#124),#65,.T.);
#398=CLOSED_SHELL($,(#368,#369,#370,#371,#372,#373,#374,#375,#376,#377,
#378,#379,#380,#381,#382,#383,#384,#385,#386,#387,#388,#389,#390,#391,#392,
#393,#394,#395,#396,#397));
#399=MANIFOLD_SOLID_BREP('149',#398);
#400=AXIS2_PLACEMENT_3D('placement',#580,#454,#455);
#401=AXIS2_PLACEMENT_3D($,#581,#456,#457);
#402=AXIS2_PLACEMENT_3D($,#583,#458,#459);
#403=AXIS2_PLACEMENT_3D($,#585,#460,#461);
#404=AXIS2_PLACEMENT_3D($,#586,#462,#463);
#405=AXIS2_PLACEMENT_3D($,#588,#464,#465);
#406=AXIS2_PLACEMENT_3D($,#590,#466,#467);
#407=AXIS2_PLACEMENT_3D($,#591,#468,#469);
#408=AXIS2_PLACEMENT_3D($,#593,#470,#471);
#409=AXIS2_PLACEMENT_3D($,#595,#472,#473);
#410=AXIS2_PLACEMENT_3D($,#596,#474,#475);
#411=AXIS2_PLACEMENT_3D($,#598,#476,#477);
#412=AXIS2_PLACEMENT_3D($,#600,#478,#479);
#413=AXIS2_PLACEMENT_3D($,#601,#480,#481);
#414=AXIS2_PLACEMENT_3D($,#603,#482,#483);
#415=AXIS2_PLACEMENT_3D($,#604,#484,#485);
#416=AXIS2_PLACEMENT_3D($,#606,#486,#487);
#417=AXIS2_PLACEMENT_3D($,#608,#488,#489);
#418=AXIS2_PLACEMENT_3D($,#609,#490,#491);
#419=AXIS2_PLACEMENT_3D($,#611,#492,#493);
#420=AXIS2_PLACEMENT_3D($,#613,#494,#495);
#421=AXIS2_PLACEMENT_3D($,#614,#496,#497);
#422=AXIS2_PLACEMENT_3D($,#616,#498,#499);
#423=AXIS2_PLACEMENT_3D($,#618,#500,#501);
#424=AXIS2_PLACEMENT_3D($,#619,#502,#503);
#425=AXIS2_PLACEMENT_3D($,#621,#504,#505);
#426=AXIS2_PLACEMENT_3D($,#623,#506,#507);
#427=AXIS2_PLACEMENT_3D($,#624,#508,#509);
#428=AXIS2_PLACEMENT_3D($,#626,#510,#511);
#429=AXIS2_PLACEMENT_3D($,#628,#512,#513);
#430=AXIS2_PLACEMENT_3D($,#629,#514,#515);
#431=AXIS2_PLACEMENT_3D($,#631,#516,#517);
#432=AXIS2_PLACEMENT_3D($,#632,#518,#519);
#433=AXIS2_PLACEMENT_3D($,#634,#520,#521);
#434=AXIS2_PLACEMENT_3D($,#635,#522,#523);
#435=AXIS2_PLACEMENT_3D($,#637,#524,#525);
#436=AXIS2_PLACEMENT_3D($,#639,#526,#527);
#437=AXIS2_PLACEMENT_3D($,#640,#528,#529);
#438=AXIS2_PLACEMENT_3D($,#641,#530,#531);
#439=AXIS2_PLACEMENT_3D($,#642,#532,#533);
#440=AXIS2_PLACEMENT_3D($,#643,#534,#535);
#441=AXIS2_PLACEMENT_3D($,#644,#536,#537);
#442=AXIS2_PLACEMENT_3D($,#645,#538,#539);
#443=AXIS2_PLACEMENT_3D($,#646,#540,#541);
#444=AXIS2_PLACEMENT_3D($,#647,#542,#543);
#445=AXIS2_PLACEMENT_3D($,#648,#544,#545);
#446=AXIS2_PLACEMENT_3D($,#649,#546,#547);
#447=AXIS2_PLACEMENT_3D($,#662,#554,#555);
#448=AXIS2_PLACEMENT_3D($,#675,#562,#563);
#449=AXIS2_PLACEMENT_3D($,#678,#566,#567);
#450=AXIS2_PLACEMENT_3D($,#680,#569,#570);
#451=AXIS2_PLACEMENT_3D($,#682,#572,#573);
#452=AXIS2_PLACEMENT_3D($,#684,#575,#576);
#453=AXIS2_PLACEMENT_3D($,#686,#578,#579);
#454=DIRECTION('axis',(0.,0.,1.));
#455=DIRECTION('refdir',(1.,0.,0.));
#456=DIRECTION('center_axis',(-1.,0.,0.));
#457=DIRECTION('ref_axis',(0.,1.,0.));
#458=DIRECTION('center_axis',(1.,0.,0.));
#459=DIRECTION('ref_axis',(0.,1.,0.));
#460=DIRECTION('center_axis',(1.,0.,0.));
#461=DIRECTION('ref_axis',(0.,1.,0.));
#462=DIRECTION('center_axis',(-1.,0.,0.));
#463=DIRECTION('ref_axis',(0.,1.,0.));
#464=DIRECTION('center_axis',(1.,0.,0.));
#465=DIRECTION('ref_axis',(0.,1.,0.));
#466=DIRECTION('center_axis',(1.,0.,0.));
#467=DIRECTION('ref_axis',(0.,1.,0.));
#468=DIRECTION('center_axis',(-1.,0.,0.));
#469=DIRECTION('ref_axis',(0.,1.,0.));
#470=DIRECTION('center_axis',(1.,0.,0.));
#471=DIRECTION('ref_axis',(0.,1.,0.));
#472=DIRECTION('center_axis',(1.,0.,0.));
#473=DIRECTION('ref_axis',(0.,1.,0.));
#474=DIRECTION('center_axis',(-1.,0.,0.));
#475=DIRECTION('ref_axis',(0.,1.,0.));
#476=DIRECTION('center_axis',(1.,0.,0.));
#477=DIRECTION('ref_axis',(0.,1.,0.));
#478=DIRECTION('center_axis',(1.,0.,0.));
#479=DIRECTION('ref_axis',(0.,1.,0.));
#480=DIRECTION('center_axis',(1.,0.,0.));
#481=DIRECTION('ref_axis',(0.,1.,0.));
#482=DIRECTION('center_axis',(1.,0.,0.));
#483=DIRECTION('ref_axis',(0.,1.,0.));
#484=DIRECTION('center_axis',(-1.,0.,0.));
#485=DIRECTION('ref_axis',(0.,1.,0.));
#486=DIRECTION('center_axis',(1.,0.,0.));
#487=DIRECTION('ref_axis',(0.,1.,0.));
#488=DIRECTION('center_axis',(1.,0.,0.));
#489=DIRECTION('ref_axis',(0.,1.,0.));
#490=DIRECTION('center_axis',(-1.,0.,0.));
#491=DIRECTION('ref_axis',(0.,1.,0.));
#492=DIRECTION('center_axis',(1.,0.,0.));
#493=DIRECTION('ref_axis',(0.,1.,0.));
#494=DIRECTION('center_axis',(1.,0.,0.));
#495=DIRECTION('ref_axis',(0.,1.,0.));
#496=DIRECTION('center_axis',(-1.,0.,0.));
#497=DIRECTION('ref_axis',(0.,1.,0.));
#498=DIRECTION('center_axis',(1.,0.,0.));
#499=DIRECTION('ref_axis',(0.,1.,0.));
#500=DIRECTION('center_axis',(1.,0.,0.));
#501=DIRECTION('ref_axis',(0.,1.,0.));
#502=DIRECTION('center_axis',(-1.,0.,0.));
#503=DIRECTION('ref_axis',(0.,1.,0.));
#504=DIRECTION('center_axis',(1.,0.,0.));
#505=DIRECTION('ref_axis',(0.,1.,0.));
#506=DIRECTION('center_axis',(1.,0.,0.));
#507=DIRECTION('ref_axis',(0.,1.,0.));
#508=DIRECTION('center_axis',(1.,0.,0.));
#509=DIRECTION('ref_axis',(0.,1.,0.));
#510=DIRECTION('center_axis',(1.,0.,0.));
#511=DIRECTION('ref_axis',(0.,1.,0.));
#512=DIRECTION('center_axis',(1.,0.,0.));
#513=DIRECTION('ref_axis',(0.,1.,0.));
#514=DIRECTION('center_axis',(1.,0.,0.));
#515=DIRECTION('ref_axis',(0.,0.,-1.));
#516=DIRECTION('center_axis',(1.,0.,0.));
#517=DIRECTION('ref_axis',(0.,1.,0.));
#518=DIRECTION('center_axis',(1.,0.,0.));
#519=DIRECTION('ref_axis',(0.,1.,0.));
#520=DIRECTION('center_axis',(-1.,0.,0.));
#521=DIRECTION('ref_axis',(0.,1.,0.));
#522=DIRECTION('center_axis',(1.,0.,0.));
#523=DIRECTION('ref_axis',(0.,1.,0.));
#524=DIRECTION('center_axis',(1.,0.,0.));
#525=DIRECTION('ref_axis',(0.,1.,0.));
#526=DIRECTION('center_axis',(1.,0.,0.));
#527=DIRECTION('ref_axis',(0.,1.,0.));
#528=DIRECTION('center_axis',(1.,0.,0.));
#529=DIRECTION('ref_axis',(0.,0.,-1.));
#530=DIRECTION('center_axis',(-1.,0.,0.));
#531=DIRECTION('ref_axis',(0.,0.,1.));
#532=DIRECTION('center_axis',(-1.,0.,0.));
#533=DIRECTION('ref_axis',(0.,0.,1.));
#534=DIRECTION('center_axis',(-1.,0.,0.));
#535=DIRECTION('ref_axis',(0.,0.,1.));
#536=DIRECTION('center_axis',(-1.,0.,0.));
#537=DIRECTION('ref_axis',(0.,0.,1.));
#538=DIRECTION('center_axis',(1.,0.,0.));
#539=DIRECTION('ref_axis',(0.,0.,-1.));
#540=DIRECTION('center_axis',(-1.,0.,0.));
#541=DIRECTION('ref_axis',(0.,0.,1.));
#542=DIRECTION('center_axis',(-1.,0.,0.));
#543=DIRECTION('ref_axis',(0.,0.,1.));
#544=DIRECTION('center_axis',(-1.,0.,0.));
#545=DIRECTION('ref_axis',(0.,0.,1.));
#546=DIRECTION('center_axis',(1.,0.,0.));
#547=DIRECTION('ref_axis',(0.,0.,-1.));
#548=DIRECTION($,(0.,1.,0.));
#549=DIRECTION($,(0.,0.5,0.866025403784439));
#550=DIRECTION($,(0.,-0.5,0.866025403784439));
#551=DIRECTION($,(0.,-1.,0.));
#552=DIRECTION($,(0.,-0.500000000000001,-0.866025403784438));
#553=DIRECTION($,(0.,0.499999999999999,-0.866025403784439));
#554=DIRECTION('center_axis',(1.,0.,0.));
#555=DIRECTION('ref_axis',(0.,0.,-1.));
#556=DIRECTION($,(0.,-0.5,-0.866025403784439));
#557=DIRECTION($,(0.,-1.,0.));
#558=DIRECTION($,(0.,-0.499999999999999,0.866025403784439));
#559=DIRECTION($,(0.,0.500000000000001,0.866025403784438));
#560=DIRECTION($,(0.,1.,0.));
#561=DIRECTION($,(0.,0.5,-0.866025403784439));
#562=DIRECTION('center_axis',(0.,0.,1.));
#563=DIRECTION('ref_axis',(1.,0.,0.));
#564=DIRECTION($,(1.,0.,0.));
#565=DIRECTION($,(1.,0.,0.));
#566=DIRECTION('center_axis',(0.,0.866025403784439,0.499999999999999));
#567=DIRECTION('ref_axis',(0.,-0.499999999999999,0.866025403784439));
#568=DIRECTION($,(1.,0.,0.));
#569=DIRECTION('center_axis',(0.,0.866025403784438,-0.500000000000001));
#570=DIRECTION('ref_axis',(-1.,0.,0.));
#571=DIRECTION($,(1.,0.,0.));
#572=DIRECTION('center_axis',(0.,0.,-1.));
#573=DIRECTION('ref_axis',(-1.,0.,0.));
#574=DIRECTION($,(1.,0.,0.));
#575=DIRECTION('center_axis',(0.,-0.866025403784439,-0.5));
#576=DIRECTION('ref_axis',(0.,0.5,-0.866025403784439));
#577=DIRECTION($,(1.,0.,0.));
#578=DIRECTION('center_axis',(0.,-0.866025403784439,0.5));
#579=DIRECTION('ref_axis',(1.,0.,0.));
#580=CARTESIAN_POINT('',(0.,0.,0.));
#581=CARTESIAN_POINT('Origin',(63.8368240888335,0.,0.));
#582=CARTESIAN_POINT('',(62.5,-10.,-1.224606E-015));
#583=CARTESIAN_POINT('Origin',(62.5,0.,0.));
#584=CARTESIAN_POINT('',(65.173648177667,-1.166874E-015,9.52856368935522));
#585=CARTESIAN_POINT('Origin',(65.173648177667,0.,0.));
#586=CARTESIAN_POINT('Origin',(60.75,0.,0.));
#587=CARTESIAN_POINT('',(59.,-9.99999999999997,-1.224606E-015));
#588=CARTESIAN_POINT('Origin',(59.,0.,0.));
#589=CARTESIAN_POINT('',(62.5,-9.38285556752029,-1.14903E-015));
#590=CARTESIAN_POINT('Origin',(62.5,0.,0.));
#591=CARTESIAN_POINT('Origin',(57.2499999999999,0.,0.));
#592=CARTESIAN_POINT('',(55.4999999999999,-9.99999999999993,-1.224606E-015));
#593=CARTESIAN_POINT('Origin',(55.4999999999999,0.,0.));
#594=CARTESIAN_POINT('',(59.,-9.38285556752033,-1.14903E-015));
#595=CARTESIAN_POINT('Origin',(59.,0.,0.));
#596=CARTESIAN_POINT('Origin',(53.7499999999999,0.,0.));
#597=CARTESIAN_POINT('',(51.9999999999997,-9.99999999999997,-1.224606E-015));
#598=CARTESIAN_POINT('Origin',(51.9999999999997,0.,0.));
#599=CARTESIAN_POINT('',(55.5,-9.38285556752024,-1.14903E-015));
#600=CARTESIAN_POINT('Origin',(55.5,0.,0.));
#601=CARTESIAN_POINT('Origin',(48.4999999999999,0.,0.));
#602=CARTESIAN_POINT('',(45.,-9.99999999999997,-1.224606E-015));
#603=CARTESIAN_POINT('Origin',(45.,0.,0.));
#604=CARTESIAN_POINT('Origin',(43.25,0.,0.));
#605=CARTESIAN_POINT('',(41.5,-11.,-1.347067E-015));
#606=CARTESIAN_POINT('Origin',(41.5,0.,0.));
#607=CARTESIAN_POINT('',(45.,-10.3828555675203,-1.271491E-015));
#608=CARTESIAN_POINT('Origin',(45.,0.,0.));
#609=CARTESIAN_POINT('Origin',(39.75,0.,0.));
#610=CARTESIAN_POINT('',(38.,-11.,-1.347067E-015));
#611=CARTESIAN_POINT('Origin',(38.,0.,0.));
#612=CARTESIAN_POINT('',(41.5,-10.3828555675203,-1.271491E-015));
#613=CARTESIAN_POINT('Origin',(41.5,0.,0.));
#614=CARTESIAN_POINT('Origin',(36.25,0.,0.));
#615=CARTESIAN_POINT('',(34.5,-11.,-1.347067E-015));
#616=CARTESIAN_POINT('Origin',(34.5,0.,0.));
#617=CARTESIAN_POINT('',(38.,-10.3828555675204,-1.271491E-015));
#618=CARTESIAN_POINT('Origin',(38.,0.,0.));
#619=CARTESIAN_POINT('Origin',(32.7499999999999,0.,0.));
#620=CARTESIAN_POINT('',(30.9999999999999,-11.,-1.347067E-015));
#621=CARTESIAN_POINT('Origin',(30.9999999999999,0.,0.));
#622=CARTESIAN_POINT('',(34.5,-10.3828555675204,-1.271491E-015));
#623=CARTESIAN_POINT('Origin',(34.5,0.,0.));
#624=CARTESIAN_POINT('Origin',(7.5,0.,0.));
#625=CARTESIAN_POINT('',(8.881784E-016,-10.5,-1.285837E-015));
#626=CARTESIAN_POINT('Origin',(0.,0.,0.));
#627=CARTESIAN_POINT('',(15.,-10.5,-1.285837E-015));
#628=CARTESIAN_POINT('Origin',(15.,0.,0.));
#629=CARTESIAN_POINT('Origin',(65.0000000000001,0.,0.));
#630=CARTESIAN_POINT('',(66.0000000000001,8.54375593634302,0.));
#631=CARTESIAN_POINT('Origin',(66.0000000000001,0.,0.));
#632=CARTESIAN_POINT('Origin',(25.7499999999999,0.,0.));
#633=CARTESIAN_POINT('',(20.,-11.,1.347067E-015));
#634=CARTESIAN_POINT('Origin',(20.,0.,0.));
#635=CARTESIAN_POINT('Origin',(33.0000000000001,0.,0.));
#636=CARTESIAN_POINT('',(0.,-7.,-8.572244E-016));
#637=CARTESIAN_POINT('Origin',(0.,0.,0.));
#638=CARTESIAN_POINT('',(66.0000000000001,-7.,-8.572244E-016));
#639=CARTESIAN_POINT('Origin',(66.0000000000001,0.,0.));
#640=CARTESIAN_POINT('Origin',(66.0000000000001,7.77187796817151,0.));
#641=CARTESIAN_POINT('Origin',(0.,8.75000000000003,0.));
#642=CARTESIAN_POINT('Origin',(34.5,10.6914277837602,0.));
#643=CARTESIAN_POINT('Origin',(38.,10.6914277837602,0.));
#644=CARTESIAN_POINT('Origin',(41.5,10.6914277837602,0.));
#645=CARTESIAN_POINT('Origin',(45.,10.1914277837602,0.));
#646=CARTESIAN_POINT('Origin',(55.5,9.69142778376008,0.));
#647=CARTESIAN_POINT('Origin',(59.,9.69142778376013,0.));
#648=CARTESIAN_POINT('Origin',(62.5,9.69142778376013,0.));
#649=CARTESIAN_POINT('Origin',(20.,-3.552714E-015,3.767359E-015));
#650=CARTESIAN_POINT('',(20.,-6.92820323027551,12.));
#651=CARTESIAN_POINT('',(20.,6.92820323027552,12.));
#652=CARTESIAN_POINT($,(20.,-6.92820323027551,12.));
#653=CARTESIAN_POINT('',(20.,-13.856406460551,5.814958E-015));
#654=CARTESIAN_POINT($,(20.,-13.856406460551,5.814958E-015));
#655=CARTESIAN_POINT('',(20.,-6.92820323027552,-12.));
#656=CARTESIAN_POINT($,(20.,-6.92820323027552,-12.));
#657=CARTESIAN_POINT('',(20.,6.92820323027549,-12.));
#658=CARTESIAN_POINT($,(20.,6.92820323027549,-12.));
#659=CARTESIAN_POINT('',(20.,13.856406460551,-1.15826E-014));
#660=CARTESIAN_POINT($,(20.,13.856406460551,-1.15826E-014));
#661=CARTESIAN_POINT($,(20.,6.92820323027552,12.));
#662=CARTESIAN_POINT('Origin',(15.,-3.552714E-015,3.767359E-015));
#663=CARTESIAN_POINT('',(15.,-6.92820323027551,12.));
#664=CARTESIAN_POINT('',(15.,-13.856406460551,5.814958E-015));
#665=CARTESIAN_POINT($,(15.,-6.92820323027551,12.));
#666=CARTESIAN_POINT('',(15.,6.92820323027552,12.));
#667=CARTESIAN_POINT($,(15.,6.92820323027552,12.));
#668=CARTESIAN_POINT('',(15.,13.856406460551,-1.15826E-014));
#669=CARTESIAN_POINT($,(15.,13.856406460551,-1.15826E-014));
#670=CARTESIAN_POINT('',(15.,6.92820323027549,-12.));
#671=CARTESIAN_POINT($,(15.,6.92820323027549,-12.));
#672=CARTESIAN_POINT('',(15.,-6.92820323027552,-12.));
#673=CARTESIAN_POINT($,(15.,-6.92820323027552,-12.));
#674=CARTESIAN_POINT($,(15.,-13.856406460551,5.814958E-015));
#675=CARTESIAN_POINT('Origin',(15.,-6.92820323027551,12.));
#676=CARTESIAN_POINT($,(15.,6.92820323027552,12.));
#677=CARTESIAN_POINT($,(15.,-6.92820323027551,12.));
#678=CARTESIAN_POINT('Origin',(15.,6.92820323027552,12.));
#679=CARTESIAN_POINT($,(15.,13.856406460551,-1.15826E-014));
#680=CARTESIAN_POINT('Origin',(15.,13.856406460551,-1.15826E-014));
#681=CARTESIAN_POINT($,(15.,6.92820323027549,-12.));
#682=CARTESIAN_POINT('Origin',(15.,6.92820323027549,-12.));
#683=CARTESIAN_POINT($,(15.,-6.92820323027552,-12.));
#684=CARTESIAN_POINT('Origin',(15.,-6.92820323027552,-12.));
#685=CARTESIAN_POINT($,(15.,-13.856406460551,5.814958E-015));
#686=CARTESIAN_POINT('Origin',(15.,-13.856406460551,5.814958E-015));
#687=UNCERTAINTY_MEASURE_WITH_UNIT(LENGTH_MEASURE(0.01),#689,
'DISTANCE_ACCURACY_VALUE',
'Maximum model space distance between geometric entities at asserted c
onnectivities');
#688=(
GEOMETRIC_REPRESENTATION_CONTEXT(3)
GLOBAL_UNCERTAINTY_ASSIGNED_CONTEXT((#687))
GLOBAL_UNIT_ASSIGNED_CONTEXT((#689,#692,#690))
REPRESENTATION_CONTEXT('','3D')
);
#689=(
LENGTH_UNIT()
NAMED_UNIT(*)
SI_UNIT(.MILLI.,.METRE.)
);
#690=(
NAMED_UNIT(*)
SI_UNIT($,.STERADIAN.)
SOLID_ANGLE_UNIT()
);
#691=DIMENSIONAL_EXPONENTS(0.,0.,0.,0.,0.,0.,0.);
#692=(
CONVERSION_BASED_UNIT('degree',#694)
NAMED_UNIT(#691)
PLANE_ANGLE_UNIT()
);
#693=(
NAMED_UNIT(*)
PLANE_ANGLE_UNIT()
SI_UNIT($,.RADIAN.)
);
#694=PLANE_ANGLE_MEASURE_WITH_UNIT(PLANE_ANGLE_MEASURE(0.01745329252),#693);
#695=SHAPE_DEFINITION_REPRESENTATION(#696,#697);
#696=PRODUCT_DEFINITION_SHAPE('',$,#699);
#697=SHAPE_REPRESENTATION('',(#400),#688);
#698=PRODUCT_DEFINITION_CONTEXT('3D Mechanical Parts',#702,'design');
#699=PRODUCT_DEFINITION('AFV012020022','AFV012020022',#700,#698);
#700=PRODUCT_DEFINITION_FORMATION('',$,#704);
#701=APPLICATION_PROTOCOL_DEFINITION('international standard',
'automotive_design',2009,#702);
#702=APPLICATION_CONTEXT(
'Core Data for Automotive Mechanical Design Process');
#703=PRODUCT_CONTEXT('3D Mechanical Parts',#702,'mechanical');
#704=PRODUCT('AFV012020022','AFV012020022',$,(#703));
#705=PRESENTATION_STYLE_ASSIGNMENT((#706));
#706=SURFACE_STYLE_USAGE(.BOTH.,#707);
#707=SURFACE_SIDE_STYLE($,(#708));
#708=SURFACE_STYLE_FILL_AREA(#709);
#709=FILL_AREA_STYLE($,(#710));
#710=FILL_AREA_STYLE_COLOUR($,#711);
#711=COLOUR_RGB('',0.509803921568627,0.509803921568627,0.588235294117647);
ENDSEC;
END-ISO-10303-21;
