ISO-10303-21;
HEADER;
FILE_DESCRIPTION( ( '' ), '1' );
FILE_NAME( '//se01002/users/anro/AGRU_12705031526_PPH_grau_Rohr__5m_315X12_1__SDR26__ISO_S-12_5_10.stp', '2018-02-07T07:52:45', ( '' ), ( '' ), ' ', ' ', ' ' );
FILE_SCHEMA( ( 'automotive_design' ) );
ENDSEC;
DATA;
#1 = MECHANICAL_DESIGN_GEOMETRIC_PRESENTATION_REPRESENTATION( ' ', ( #10, #11, #12, #13, #14, #15, #16, #17, #18, #19, #20, #21, #22, #23, #24, #25, #26, #27, #28, #29, #30, #31, #32, #33, #34, #35, #36 ), #6 );
#2 = PRODUCT_DEFINITION_CONTEXT( '', #37, 'design' );
#3 = APPLICATION_PROTOCOL_DEFINITION( 'INTERNATIONAL STANDARD', 'automotive_design', 1994, #37 );
#4 = PRODUCT_CATEGORY_RELATIONSHIP( 'NONE', 'NONE', #38, #39 );
#5 = SHAPE_DEFINITION_REPRESENTATION( #40, #41 );
#6 =  ( GEOMETRIC_REPRESENTATION_CONTEXT( 3 )GLOBAL_UNCERTAINTY_ASSIGNED_CONTEXT( ( #44 ) )GLOBAL_UNIT_ASSIGNED_CONTEXT( ( #46, #47, #48 ) )REPRESENTATION_CONTEXT( 'NONE', 'WORKSPACE' ) );
#10 = STYLED_ITEM( '', ( #50 ), #51 );
#11 = STYLED_ITEM( '', ( #52 ), #53 );
#12 = STYLED_ITEM( '', ( #54 ), #55 );
#13 = STYLED_ITEM( '', ( #56 ), #57 );
#14 = STYLED_ITEM( '', ( #58 ), #59 );
#15 = STYLED_ITEM( '', ( #60 ), #61 );
#16 = STYLED_ITEM( '', ( #62 ), #63 );
#17 = STYLED_ITEM( '', ( #64 ), #65 );
#18 = STYLED_ITEM( '', ( #66 ), #67 );
#19 = STYLED_ITEM( '', ( #68 ), #69 );
#20 = STYLED_ITEM( '', ( #70 ), #71 );
#21 = STYLED_ITEM( '', ( #72 ), #73 );
#22 = STYLED_ITEM( '', ( #74 ), #75 );
#23 = STYLED_ITEM( '', ( #76 ), #77 );
#24 = STYLED_ITEM( '', ( #78 ), #79 );
#25 = STYLED_ITEM( '', ( #80 ), #81 );
#26 = STYLED_ITEM( '', ( #82 ), #83 );
#27 = STYLED_ITEM( '', ( #84 ), #85 );
#28 = STYLED_ITEM( '', ( #86 ), #87 );
#29 = STYLED_ITEM( '', ( #88 ), #89 );
#30 = STYLED_ITEM( '', ( #90 ), #91 );
#31 = STYLED_ITEM( '', ( #92 ), #93 );
#32 = STYLED_ITEM( '', ( #94 ), #95 );
#33 = STYLED_ITEM( '', ( #96 ), #97 );
#34 = STYLED_ITEM( '', ( #98 ), #99 );
#35 = STYLED_ITEM( '', ( #100 ), #101 );
#36 = STYLED_ITEM( '', ( #102 ), #103 );
#37 = APPLICATION_CONTEXT( ' ' );
#38 = PRODUCT_CATEGORY( 'part', 'NONE' );
#39 = PRODUCT_RELATED_PRODUCT_CATEGORY( 'detail', ' ', ( #104 ) );
#40 = PRODUCT_DEFINITION_SHAPE( 'NONE', 'NONE', #105 );
#41 = ADVANCED_BREP_SHAPE_REPRESENTATION( '1', ( #77, #106 ), #6 );
#44 = UNCERTAINTY_MEASURE_WITH_UNIT( LENGTH_MEASURE( 1.00000000000000E-006 ), #46, '', '' );
#46 =  ( CONVERSION_BASED_UNIT( 'MILLIMETRE', #109 )LENGTH_UNIT(  )NAMED_UNIT( #112 ) );
#47 =  ( NAMED_UNIT( #114 )PLANE_ANGLE_UNIT(  )SI_UNIT( $, .RADIAN. ) );
#48 =  ( NAMED_UNIT( #114 )SOLID_ANGLE_UNIT(  )SI_UNIT( $, .STERADIAN. ) );
#50 = PRESENTATION_STYLE_ASSIGNMENT( ( #120 ) );
#51 = ADVANCED_FACE( '', ( #121, #122 ), #123, .T. );
#52 = PRESENTATION_STYLE_ASSIGNMENT( ( #124 ) );
#53 = VERTEX_POINT( '', #125 );
#54 = PRESENTATION_STYLE_ASSIGNMENT( ( #126 ) );
#55 = VERTEX_POINT( '', #127 );
#56 = PRESENTATION_STYLE_ASSIGNMENT( ( #128 ) );
#57 = VERTEX_POINT( '', #129 );
#58 = PRESENTATION_STYLE_ASSIGNMENT( ( #130 ) );
#59 = EDGE_CURVE( '', #57, #89, #131, .T. );
#60 = PRESENTATION_STYLE_ASSIGNMENT( ( #132 ) );
#61 = EDGE_CURVE( '', #67, #57, #133, .T. );
#62 = PRESENTATION_STYLE_ASSIGNMENT( ( #134 ) );
#63 = EDGE_CURVE( '', #65, #89, #135, .T. );
#64 = PRESENTATION_STYLE_ASSIGNMENT( ( #136 ) );
#65 = VERTEX_POINT( '', #137 );
#66 = PRESENTATION_STYLE_ASSIGNMENT( ( #138 ) );
#67 = VERTEX_POINT( '', #139 );
#68 = PRESENTATION_STYLE_ASSIGNMENT( ( #140 ) );
#69 = EDGE_CURVE( '', #93, #53, #141, .T. );
#70 = PRESENTATION_STYLE_ASSIGNMENT( ( #142 ) );
#71 = ADVANCED_FACE( '', ( #143, #144 ), #145, .F. );
#72 = PRESENTATION_STYLE_ASSIGNMENT( ( #146 ) );
#73 = ADVANCED_FACE( '', ( #147 ), #148, .F. );
#74 = PRESENTATION_STYLE_ASSIGNMENT( ( #149 ) );
#75 = EDGE_CURVE( '', #65, #67, #150, .T. );
#76 = PRESENTATION_STYLE_ASSIGNMENT( ( #151 ) );
#77 = MANIFOLD_SOLID_BREP( '1', #152 );
#78 = PRESENTATION_STYLE_ASSIGNMENT( ( #153 ) );
#79 = ADVANCED_FACE( '', ( #154 ), #155, .T. );
#80 = PRESENTATION_STYLE_ASSIGNMENT( ( #156 ) );
#81 = EDGE_CURVE( '', #93, #55, #157, .T. );
#82 = PRESENTATION_STYLE_ASSIGNMENT( ( #158 ) );
#83 = EDGE_CURVE( '', #97, #53, #159, .T. );
#84 = PRESENTATION_STYLE_ASSIGNMENT( ( #160 ) );
#85 = ADVANCED_FACE( '', ( #161 ), #162, .F. );
#86 = PRESENTATION_STYLE_ASSIGNMENT( ( #163 ) );
#87 = EDGE_CURVE( '', #89, #65, #164, .T. );
#88 = PRESENTATION_STYLE_ASSIGNMENT( ( #165 ) );
#89 = VERTEX_POINT( '', #166 );
#90 = PRESENTATION_STYLE_ASSIGNMENT( ( #167 ) );
#91 = ADVANCED_FACE( '', ( #168 ), #169, .T. );
#92 = PRESENTATION_STYLE_ASSIGNMENT( ( #170 ) );
#93 = VERTEX_POINT( '', #171 );
#94 = PRESENTATION_STYLE_ASSIGNMENT( ( #172 ) );
#95 = EDGE_CURVE( '', #97, #55, #173, .T. );
#96 = PRESENTATION_STYLE_ASSIGNMENT( ( #174 ) );
#97 = VERTEX_POINT( '', #175 );
#98 = PRESENTATION_STYLE_ASSIGNMENT( ( #176 ) );
#99 = EDGE_CURVE( '', #57, #67, #177, .T. );
#100 = PRESENTATION_STYLE_ASSIGNMENT( ( #178 ) );
#101 = EDGE_CURVE( '', #55, #97, #179, .T. );
#102 = PRESENTATION_STYLE_ASSIGNMENT( ( #180 ) );
#103 = EDGE_CURVE( '', #53, #93, #181, .T. );
#104 = PRODUCT( '1', '1', 'PART-1-DESC', ( #182 ) );
#105 = PRODUCT_DEFINITION( 'NONE', 'NONE', #183, #2 );
#106 = AXIS2_PLACEMENT_3D( '', #184, #185, #186 );
#109 = LENGTH_MEASURE_WITH_UNIT( LENGTH_MEASURE( 1.00000000000000 ), #187 );
#112 = DIMENSIONAL_EXPONENTS( 1.00000000000000, 0.000000000000000, 0.000000000000000, 0.000000000000000, 0.000000000000000, 0.000000000000000, 0.000000000000000 );
#114 = DIMENSIONAL_EXPONENTS( 0.000000000000000, 0.000000000000000, 0.000000000000000, 0.000000000000000, 0.000000000000000, 0.000000000000000, 0.000000000000000 );
#120 = SURFACE_STYLE_USAGE( .BOTH., #188 );
#121 = FACE_OUTER_BOUND( '', #189, .T. );
#122 = FACE_BOUND( '', #190, .T. );
#123 = PLANE( '', #191 );
#124 = POINT_STYLE( ' ', #192, POSITIVE_LENGTH_MEASURE( 1.00000000000000E-006 ), #193 );
#125 = CARTESIAN_POINT( '', ( 5000.00000000000, 0.000000000000000, -157.500000000000 ) );
#126 = POINT_STYLE( ' ', #194, POSITIVE_LENGTH_MEASURE( 1.00000000000000E-006 ), #195 );
#127 = CARTESIAN_POINT( '', ( 0.000000000000000, 1.92875500727024E-014, 157.500000000000 ) );
#128 = POINT_STYLE( ' ', #196, POSITIVE_LENGTH_MEASURE( 1.00000000000000E-006 ), #197 );
#129 = CARTESIAN_POINT( '', ( 5000.00000000000, 1.78057763845774E-014, 145.400000000000 ) );
#130 = CURVE_STYLE( '', #198, POSITIVE_LENGTH_MEASURE( 1.00000000000000E-006 ), #199 );
#131 = LINE( '', #200, #201 );
#132 = CURVE_STYLE( '', #202, POSITIVE_LENGTH_MEASURE( 1.00000000000000E-006 ), #203 );
#133 = CIRCLE( '', #204, 145.400000000000 );
#134 = CURVE_STYLE( '', #205, POSITIVE_LENGTH_MEASURE( 1.00000000000000E-006 ), #206 );
#135 = CIRCLE( '', #207, 145.400000000000 );
#136 = POINT_STYLE( ' ', #208, POSITIVE_LENGTH_MEASURE( 1.00000000000000E-006 ), #209 );
#137 = CARTESIAN_POINT( '', ( 0.000000000000000, 0.000000000000000, -145.400000000000 ) );
#138 = POINT_STYLE( ' ', #210, POSITIVE_LENGTH_MEASURE( 1.00000000000000E-006 ), #211 );
#139 = CARTESIAN_POINT( '', ( 5000.00000000000, 0.000000000000000, -145.400000000000 ) );
#140 = CURVE_STYLE( '', #212, POSITIVE_LENGTH_MEASURE( 1.00000000000000E-006 ), #213 );
#141 = CIRCLE( '', #214, 157.500000000000 );
#142 = SURFACE_STYLE_USAGE( .BOTH., #215 );
#143 = FACE_OUTER_BOUND( '', #216, .T. );
#144 = FACE_BOUND( '', #217, .T. );
#145 = PLANE( '', #218 );
#146 = SURFACE_STYLE_USAGE( .BOTH., #219 );
#147 = FACE_OUTER_BOUND( '', #220, .T. );
#148 = CYLINDRICAL_SURFACE( '', #221, 145.400000000000 );
#149 = CURVE_STYLE( '', #222, POSITIVE_LENGTH_MEASURE( 1.00000000000000E-006 ), #223 );
#150 = LINE( '', #224, #225 );
#151 = SURFACE_STYLE_USAGE( .BOTH., #226 );
#152 = CLOSED_SHELL( '', ( #91, #73, #85, #79, #51, #71 ) );
#153 = SURFACE_STYLE_USAGE( .BOTH., #227 );
#154 = FACE_OUTER_BOUND( '', #228, .T. );
#155 = CYLINDRICAL_SURFACE( '', #229, 157.500000000000 );
#156 = CURVE_STYLE( '', #230, POSITIVE_LENGTH_MEASURE( 1.00000000000000E-006 ), #231 );
#157 = LINE( '', #232, #233 );
#158 = CURVE_STYLE( '', #234, POSITIVE_LENGTH_MEASURE( 1.00000000000000E-006 ), #235 );
#159 = LINE( '', #236, #237 );
#160 = SURFACE_STYLE_USAGE( .BOTH., #238 );
#161 = FACE_OUTER_BOUND( '', #239, .T. );
#162 = CYLINDRICAL_SURFACE( '', #240, 145.400000000000 );
#163 = CURVE_STYLE( '', #241, POSITIVE_LENGTH_MEASURE( 1.00000000000000E-006 ), #242 );
#164 = CIRCLE( '', #243, 145.400000000000 );
#165 = POINT_STYLE( ' ', #244, POSITIVE_LENGTH_MEASURE( 1.00000000000000E-006 ), #245 );
#166 = CARTESIAN_POINT( '', ( 0.000000000000000, 1.78057763845774E-014, 145.400000000000 ) );
#167 = SURFACE_STYLE_USAGE( .BOTH., #246 );
#168 = FACE_OUTER_BOUND( '', #247, .T. );
#169 = CYLINDRICAL_SURFACE( '', #248, 157.500000000000 );
#170 = POINT_STYLE( ' ', #249, POSITIVE_LENGTH_MEASURE( 1.00000000000000E-006 ), #250 );
#171 = CARTESIAN_POINT( '', ( 5000.00000000000, 1.92875500727024E-014, 157.500000000000 ) );
#172 = CURVE_STYLE( '', #251, POSITIVE_LENGTH_MEASURE( 1.00000000000000E-006 ), #252 );
#173 = CIRCLE( '', #253, 157.500000000000 );
#174 = POINT_STYLE( ' ', #254, POSITIVE_LENGTH_MEASURE( 1.00000000000000E-006 ), #255 );
#175 = CARTESIAN_POINT( '', ( 0.000000000000000, 0.000000000000000, -157.500000000000 ) );
#176 = CURVE_STYLE( '', #256, POSITIVE_LENGTH_MEASURE( 1.00000000000000E-006 ), #257 );
#177 = CIRCLE( '', #258, 145.400000000000 );
#178 = CURVE_STYLE( '', #259, POSITIVE_LENGTH_MEASURE( 1.00000000000000E-006 ), #260 );
#179 = CIRCLE( '', #261, 157.500000000000 );
#180 = CURVE_STYLE( '', #262, POSITIVE_LENGTH_MEASURE( 1.00000000000000E-006 ), #263 );
#181 = CIRCLE( '', #264, 157.500000000000 );
#182 = PRODUCT_CONTEXT( '', #37, 'mechanical' );
#183 = PRODUCT_DEFINITION_FORMATION_WITH_SPECIFIED_SOURCE( ' ', 'NONE', #104, .NOT_KNOWN. );
#184 = CARTESIAN_POINT( '', ( 0.000000000000000, 0.000000000000000, 0.000000000000000 ) );
#185 = DIRECTION( '', ( 0.000000000000000, 0.000000000000000, 1.00000000000000 ) );
#186 = DIRECTION( '', ( 1.00000000000000, 0.000000000000000, 0.000000000000000 ) );
#187 =  ( NAMED_UNIT( #112 )LENGTH_UNIT(  )SI_UNIT( .MILLI., .METRE. ) );
#188 = SURFACE_SIDE_STYLE( '', ( #266 ) );
#189 = EDGE_LOOP( '', ( #267, #268 ) );
#190 = EDGE_LOOP( '', ( #269, #270 ) );
#191 = AXIS2_PLACEMENT_3D( '', #271, #272, #273 );
#192 = PRE_DEFINED_MARKER( '' );
#193 = COLOUR_RGB( '', 0.689999997615810, 0.689999997615810, 0.689999997615810 );
#194 = PRE_DEFINED_MARKER( '' );
#195 = COLOUR_RGB( '', 0.689999997615810, 0.689999997615810, 0.689999997615810 );
#196 = PRE_DEFINED_MARKER( '' );
#197 = COLOUR_RGB( '', 0.689999997615810, 0.689999997615810, 0.689999997615810 );
#198 = DRAUGHTING_PRE_DEFINED_CURVE_FONT( 'continuous' );
#199 = COLOUR_RGB( '', 0.689999997615810, 0.689999997615810, 0.689999997615810 );
#200 = CARTESIAN_POINT( '', ( 0.000000000000000, 1.78057763845774E-014, 145.400000000000 ) );
#201 = VECTOR( '', #274, 1.00000000000000 );
#202 = DRAUGHTING_PRE_DEFINED_CURVE_FONT( 'continuous' );
#203 = COLOUR_RGB( '', 0.689999997615810, 0.689999997615810, 0.689999997615810 );
#204 = AXIS2_PLACEMENT_3D( '', #275, #276, #277 );
#205 = DRAUGHTING_PRE_DEFINED_CURVE_FONT( 'continuous' );
#206 = COLOUR_RGB( '', 0.689999997615810, 0.689999997615810, 0.689999997615810 );
#207 = AXIS2_PLACEMENT_3D( '', #278, #279, #280 );
#208 = PRE_DEFINED_MARKER( '' );
#209 = COLOUR_RGB( '', 0.689999997615810, 0.689999997615810, 0.689999997615810 );
#210 = PRE_DEFINED_MARKER( '' );
#211 = COLOUR_RGB( '', 0.689999997615810, 0.689999997615810, 0.689999997615810 );
#212 = DRAUGHTING_PRE_DEFINED_CURVE_FONT( 'continuous' );
#213 = COLOUR_RGB( '', 0.689999997615810, 0.689999997615810, 0.689999997615810 );
#214 = AXIS2_PLACEMENT_3D( '', #281, #282, #283 );
#215 = SURFACE_SIDE_STYLE( '', ( #284 ) );
#216 = EDGE_LOOP( '', ( #285, #286 ) );
#217 = EDGE_LOOP( '', ( #287, #288 ) );
#218 = AXIS2_PLACEMENT_3D( '', #289, #290, #291 );
#219 = SURFACE_SIDE_STYLE( '', ( #292 ) );
#220 = EDGE_LOOP( '', ( #293, #294, #295, #296 ) );
#221 = AXIS2_PLACEMENT_3D( '', #297, #298, #299 );
#222 = DRAUGHTING_PRE_DEFINED_CURVE_FONT( 'continuous' );
#223 = COLOUR_RGB( '', 0.689999997615810, 0.689999997615810, 0.689999997615810 );
#224 = CARTESIAN_POINT( '', ( 0.000000000000000, -1.78057763845774E-014, -145.400000000000 ) );
#225 = VECTOR( '', #300, 1.00000000000000 );
#226 = SURFACE_SIDE_STYLE( '', ( #301 ) );
#227 = SURFACE_SIDE_STYLE( '', ( #302 ) );
#228 = EDGE_LOOP( '', ( #303, #304, #305, #306 ) );
#229 = AXIS2_PLACEMENT_3D( '', #307, #308, #309 );
#230 = DRAUGHTING_PRE_DEFINED_CURVE_FONT( 'continuous' );
#231 = COLOUR_RGB( '', 0.689999997615810, 0.689999997615810, 0.689999997615810 );
#232 = CARTESIAN_POINT( '', ( 0.000000000000000, 1.92875500727024E-014, 157.500000000000 ) );
#233 = VECTOR( '', #310, 1.00000000000000 );
#234 = DRAUGHTING_PRE_DEFINED_CURVE_FONT( 'continuous' );
#235 = COLOUR_RGB( '', 0.689999997615810, 0.689999997615810, 0.689999997615810 );
#236 = CARTESIAN_POINT( '', ( 0.000000000000000, -1.92875500727024E-014, -157.500000000000 ) );
#237 = VECTOR( '', #311, 1.00000000000000 );
#238 = SURFACE_SIDE_STYLE( '', ( #312 ) );
#239 = EDGE_LOOP( '', ( #313, #314, #315, #316 ) );
#240 = AXIS2_PLACEMENT_3D( '', #317, #318, #319 );
#241 = DRAUGHTING_PRE_DEFINED_CURVE_FONT( 'continuous' );
#242 = COLOUR_RGB( '', 0.689999997615810, 0.689999997615810, 0.689999997615810 );
#243 = AXIS2_PLACEMENT_3D( '', #320, #321, #322 );
#244 = PRE_DEFINED_MARKER( '' );
#245 = COLOUR_RGB( '', 0.689999997615810, 0.689999997615810, 0.689999997615810 );
#246 = SURFACE_SIDE_STYLE( '', ( #323 ) );
#247 = EDGE_LOOP( '', ( #324, #325, #326, #327 ) );
#248 = AXIS2_PLACEMENT_3D( '', #328, #329, #330 );
#249 = PRE_DEFINED_MARKER( '' );
#250 = COLOUR_RGB( '', 0.689999997615810, 0.689999997615810, 0.689999997615810 );
#251 = DRAUGHTING_PRE_DEFINED_CURVE_FONT( 'continuous' );
#252 = COLOUR_RGB( '', 0.689999997615810, 0.689999997615810, 0.689999997615810 );
#253 = AXIS2_PLACEMENT_3D( '', #331, #332, #333 );
#254 = PRE_DEFINED_MARKER( '' );
#255 = COLOUR_RGB( '', 0.689999997615810, 0.689999997615810, 0.689999997615810 );
#256 = DRAUGHTING_PRE_DEFINED_CURVE_FONT( 'continuous' );
#257 = COLOUR_RGB( '', 0.689999997615810, 0.689999997615810, 0.689999997615810 );
#258 = AXIS2_PLACEMENT_3D( '', #334, #335, #336 );
#259 = DRAUGHTING_PRE_DEFINED_CURVE_FONT( 'continuous' );
#260 = COLOUR_RGB( '', 0.689999997615810, 0.689999997615810, 0.689999997615810 );
#261 = AXIS2_PLACEMENT_3D( '', #337, #338, #339 );
#262 = DRAUGHTING_PRE_DEFINED_CURVE_FONT( 'continuous' );
#263 = COLOUR_RGB( '', 0.689999997615810, 0.689999997615810, 0.689999997615810 );
#264 = AXIS2_PLACEMENT_3D( '', #340, #341, #342 );
#266 = SURFACE_STYLE_FILL_AREA( #343 );
#267 = ORIENTED_EDGE( '', *, *, #103, .F. );
#268 = ORIENTED_EDGE( '', *, *, #69, .F. );
#269 = ORIENTED_EDGE( '', *, *, #61, .F. );
#270 = ORIENTED_EDGE( '', *, *, #99, .F. );
#271 = CARTESIAN_POINT( '', ( 5000.00000000000, 0.000000000000000, 0.000000000000000 ) );
#272 = DIRECTION( '', ( 1.00000000000000, 0.000000000000000, 0.000000000000000 ) );
#273 = DIRECTION( '', ( 0.000000000000000, 0.000000000000000, -1.00000000000000 ) );
#274 = DIRECTION( '', ( -1.00000000000000, 0.000000000000000, 0.000000000000000 ) );
#275 = CARTESIAN_POINT( '', ( 5000.00000000000, 0.000000000000000, 0.000000000000000 ) );
#276 = DIRECTION( '', ( 1.00000000000000, 0.000000000000000, 0.000000000000000 ) );
#277 = DIRECTION( '', ( 0.000000000000000, 0.000000000000000, -1.00000000000000 ) );
#278 = CARTESIAN_POINT( '', ( 0.000000000000000, 0.000000000000000, 0.000000000000000 ) );
#279 = DIRECTION( '', ( 1.00000000000000, -0.000000000000000, 0.000000000000000 ) );
#280 = DIRECTION( '', ( 0.000000000000000, 0.000000000000000, -1.00000000000000 ) );
#281 = CARTESIAN_POINT( '', ( 5000.00000000000, 0.000000000000000, 0.000000000000000 ) );
#282 = DIRECTION( '', ( -1.00000000000000, 0.000000000000000, 0.000000000000000 ) );
#283 = DIRECTION( '', ( 0.000000000000000, 0.000000000000000, -1.00000000000000 ) );
#284 = SURFACE_STYLE_FILL_AREA( #344 );
#285 = ORIENTED_EDGE( '', *, *, #95, .F. );
#286 = ORIENTED_EDGE( '', *, *, #101, .F. );
#287 = ORIENTED_EDGE( '', *, *, #63, .T. );
#288 = ORIENTED_EDGE( '', *, *, #87, .T. );
#289 = CARTESIAN_POINT( '', ( 0.000000000000000, 0.000000000000000, 0.000000000000000 ) );
#290 = DIRECTION( '', ( 1.00000000000000, 0.000000000000000, 0.000000000000000 ) );
#291 = DIRECTION( '', ( 0.000000000000000, 0.000000000000000, -1.00000000000000 ) );
#292 = SURFACE_STYLE_FILL_AREA( #345 );
#293 = ORIENTED_EDGE( '', *, *, #75, .F. );
#294 = ORIENTED_EDGE( '', *, *, #87, .F. );
#295 = ORIENTED_EDGE( '', *, *, #59, .F. );
#296 = ORIENTED_EDGE( '', *, *, #99, .T. );
#297 = CARTESIAN_POINT( '', ( 0.000000000000000, 0.000000000000000, 0.000000000000000 ) );
#298 = DIRECTION( '', ( -1.00000000000000, -0.000000000000000, -0.000000000000000 ) );
#299 = DIRECTION( '', ( 0.000000000000000, 0.000000000000000, -1.00000000000000 ) );
#300 = DIRECTION( '', ( 1.00000000000000, 0.000000000000000, 0.000000000000000 ) );
#301 = SURFACE_STYLE_FILL_AREA( #346 );
#302 = SURFACE_STYLE_FILL_AREA( #347 );
#303 = ORIENTED_EDGE( '', *, *, #83, .T. );
#304 = ORIENTED_EDGE( '', *, *, #103, .T. );
#305 = ORIENTED_EDGE( '', *, *, #81, .T. );
#306 = ORIENTED_EDGE( '', *, *, #101, .T. );
#307 = CARTESIAN_POINT( '', ( 0.000000000000000, 0.000000000000000, 0.000000000000000 ) );
#308 = DIRECTION( '', ( -1.00000000000000, -0.000000000000000, -0.000000000000000 ) );
#309 = DIRECTION( '', ( 0.000000000000000, 0.000000000000000, -1.00000000000000 ) );
#310 = DIRECTION( '', ( -1.00000000000000, -0.000000000000000, -0.000000000000000 ) );
#311 = DIRECTION( '', ( 1.00000000000000, 0.000000000000000, 0.000000000000000 ) );
#312 = SURFACE_STYLE_FILL_AREA( #348 );
#313 = ORIENTED_EDGE( '', *, *, #75, .T. );
#314 = ORIENTED_EDGE( '', *, *, #61, .T. );
#315 = ORIENTED_EDGE( '', *, *, #59, .T. );
#316 = ORIENTED_EDGE( '', *, *, #63, .F. );
#317 = CARTESIAN_POINT( '', ( 0.000000000000000, 0.000000000000000, 0.000000000000000 ) );
#318 = DIRECTION( '', ( -1.00000000000000, -0.000000000000000, -0.000000000000000 ) );
#319 = DIRECTION( '', ( 0.000000000000000, 0.000000000000000, -1.00000000000000 ) );
#320 = CARTESIAN_POINT( '', ( 0.000000000000000, 0.000000000000000, 0.000000000000000 ) );
#321 = DIRECTION( '', ( 1.00000000000000, -0.000000000000000, 0.000000000000000 ) );
#322 = DIRECTION( '', ( 0.000000000000000, 0.000000000000000, -1.00000000000000 ) );
#323 = SURFACE_STYLE_FILL_AREA( #349 );
#324 = ORIENTED_EDGE( '', *, *, #83, .F. );
#325 = ORIENTED_EDGE( '', *, *, #95, .T. );
#326 = ORIENTED_EDGE( '', *, *, #81, .F. );
#327 = ORIENTED_EDGE( '', *, *, #69, .T. );
#328 = CARTESIAN_POINT( '', ( 0.000000000000000, 0.000000000000000, 0.000000000000000 ) );
#329 = DIRECTION( '', ( -1.00000000000000, -0.000000000000000, -0.000000000000000 ) );
#330 = DIRECTION( '', ( 0.000000000000000, 0.000000000000000, -1.00000000000000 ) );
#331 = CARTESIAN_POINT( '', ( 0.000000000000000, 0.000000000000000, 0.000000000000000 ) );
#332 = DIRECTION( '', ( 1.00000000000000, -0.000000000000000, 0.000000000000000 ) );
#333 = DIRECTION( '', ( 0.000000000000000, 0.000000000000000, -1.00000000000000 ) );
#334 = CARTESIAN_POINT( '', ( 5000.00000000000, 0.000000000000000, 0.000000000000000 ) );
#335 = DIRECTION( '', ( 1.00000000000000, 0.000000000000000, 0.000000000000000 ) );
#336 = DIRECTION( '', ( 0.000000000000000, 0.000000000000000, -1.00000000000000 ) );
#337 = CARTESIAN_POINT( '', ( 0.000000000000000, 0.000000000000000, 0.000000000000000 ) );
#338 = DIRECTION( '', ( 1.00000000000000, -0.000000000000000, 0.000000000000000 ) );
#339 = DIRECTION( '', ( 0.000000000000000, 0.000000000000000, -1.00000000000000 ) );
#340 = CARTESIAN_POINT( '', ( 5000.00000000000, 0.000000000000000, 0.000000000000000 ) );
#341 = DIRECTION( '', ( -1.00000000000000, 0.000000000000000, 0.000000000000000 ) );
#342 = DIRECTION( '', ( 0.000000000000000, 0.000000000000000, -1.00000000000000 ) );
#343 = FILL_AREA_STYLE( '', ( #350 ) );
#344 = FILL_AREA_STYLE( '', ( #351 ) );
#345 = FILL_AREA_STYLE( '', ( #352 ) );
#346 = FILL_AREA_STYLE( '', ( #353 ) );
#347 = FILL_AREA_STYLE( '', ( #354 ) );
#348 = FILL_AREA_STYLE( '', ( #355 ) );
#349 = FILL_AREA_STYLE( '', ( #356 ) );
#350 = FILL_AREA_STYLE_COLOUR( '', #357 );
#351 = FILL_AREA_STYLE_COLOUR( '', #358 );
#352 = FILL_AREA_STYLE_COLOUR( '', #359 );
#353 = FILL_AREA_STYLE_COLOUR( '', #360 );
#354 = FILL_AREA_STYLE_COLOUR( '', #361 );
#355 = FILL_AREA_STYLE_COLOUR( '', #362 );
#356 = FILL_AREA_STYLE_COLOUR( '', #363 );
#357 = COLOUR_RGB( '', 0.689999997615810, 0.689999997615810, 0.689999997615810 );
#358 = COLOUR_RGB( '', 0.689999997615810, 0.689999997615810, 0.689999997615810 );
#359 = COLOUR_RGB( '', 0.689999997615810, 0.689999997615810, 0.689999997615810 );
#360 = COLOUR_RGB( '', 0.689999997615810, 0.689999997615810, 0.689999997615810 );
#361 = COLOUR_RGB( '', 0.689999997615810, 0.689999997615810, 0.689999997615810 );
#362 = COLOUR_RGB( '', 0.689999997615810, 0.689999997615810, 0.689999997615810 );
#363 = COLOUR_RGB( '', 0.689999997615810, 0.689999997615810, 0.689999997615810 );
ENDSEC;
END-ISO-10303-21;
