ISO-10303-21;
HEADER;
/****************************************************************
 * Generated by software with PDE/Lib inside                    *
 * PDElib Version v51a, created Mon 03/22/2010                  *
 * International Technegroup Inc. (www.iti-oh.com)              *
 ****************************************************************/
FILE_DESCRIPTION((''),'2;1');
FILE_NAME('R:\\Neue Zeichnungdateien ab Januar 2010\\Edelstahlprodukte\\Montagewinkel\\Step\\Montagewinkel V2A kurz 118854.stp','2010-07-13T10:30:51',('DMK009'),(''),'Autodesk Inventor 2010','Autodesk Inventor 2010','');
FILE_SCHEMA(('AUTOMOTIVE_DESIGN { 1 0 10303 214 1 1 1 1 }'));
ENDSEC;
DATA;
#5=APPLICATION_CONTEXT('automotive design');
#6=APPLICATION_PROTOCOL_DEFINITION('International Standard','automotive_design',2001,#5);
#7=PRODUCT_CONTEXT('',#5,'mechanical');
#8=PRODUCT('Montagewinkel V2A kurz 118854','Montagewinkel V2A kurz 118854',$,(#7));
#9=PRODUCT_RELATED_PRODUCT_CATEGORY('part',$,(#8));
#10=PRODUCT_DEFINITION_FORMATION('',$,#8);
#11=PRODUCT_DEFINITION_CONTEXT('part definition',#5,'design');
#12=PRODUCT_DEFINITION('',$,#10,#11);
#18=(NAMED_UNIT(*)PLANE_ANGLE_UNIT()SI_UNIT($,.RADIAN.));
#19=DIMENSIONAL_EXPONENTS(0.0,0.0,0.0,0.0,0.0,0.0,0.0);
#20=PLANE_ANGLE_MEASURE_WITH_UNIT(PLANE_ANGLE_MEASURE(0.017453292500000),#18);
#24=(CONVERSION_BASED_UNIT('DEGREE',#20)NAMED_UNIT(#19)PLANE_ANGLE_UNIT());
#28=(NAMED_UNIT(*)SI_UNIT($,.STERADIAN.)SOLID_ANGLE_UNIT());
#32=(LENGTH_UNIT()NAMED_UNIT(*)SI_UNIT(.MILLI.,.METRE.));
#34=UNCERTAINTY_MEASURE_WITH_UNIT(LENGTH_MEASURE(0.010000000000000),#32,'DISTANCE_ACCURACY_VALUE','');
#36=(GEOMETRIC_REPRESENTATION_CONTEXT(3)GLOBAL_UNCERTAINTY_ASSIGNED_CONTEXT((#34))GLOBAL_UNIT_ASSIGNED_CONTEXT((#24,#28,#32))REPRESENTATION_CONTEXT('None','None'));
#37=AXIS2_PLACEMENT_3D('',#38,#39,#40);
#38=CARTESIAN_POINT('',(0.0,0.0,0.0));
#39=DIRECTION('',(0.0,0.0,1.0));
#40=DIRECTION('',(1.0,0.0,0.0));
#41=SHAPE_REPRESENTATION('',(#37),#36);
#42=PRODUCT_DEFINITION_SHAPE('','',#12);
#43=SHAPE_DEFINITION_REPRESENTATION(#42,#41);
#49=(NAMED_UNIT(*)PLANE_ANGLE_UNIT()SI_UNIT($,.RADIAN.));
#50=DIMENSIONAL_EXPONENTS(0.0,0.0,0.0,0.0,0.0,0.0,0.0);
#51=PLANE_ANGLE_MEASURE_WITH_UNIT(PLANE_ANGLE_MEASURE(0.017453292500000),#49);
#55=(CONVERSION_BASED_UNIT('DEGREE',#51)NAMED_UNIT(#50)PLANE_ANGLE_UNIT());
#59=(NAMED_UNIT(*)SI_UNIT($,.STERADIAN.)SOLID_ANGLE_UNIT());
#63=(LENGTH_UNIT()NAMED_UNIT(*)SI_UNIT(.MILLI.,.METRE.));
#65=UNCERTAINTY_MEASURE_WITH_UNIT(LENGTH_MEASURE(0.000001000000000),#63,'DISTANCE_ACCURACY_VALUE','');
#67=(GEOMETRIC_REPRESENTATION_CONTEXT(3)GLOBAL_UNCERTAINTY_ASSIGNED_CONTEXT((#65))GLOBAL_UNIT_ASSIGNED_CONTEXT((#55,#59,#63))REPRESENTATION_CONTEXT('','3D'));
#68=CARTESIAN_POINT('',(1.421085E-014,-14.500000000000012,9.918010E-016));
#69=CARTESIAN_POINT('',(4.000000000000014,-14.500000000000011,9.920488E-016));
#70=CARTESIAN_POINT('',(1.421120E-014,-14.500000000000012,-5.499999999999996));
#71=CARTESIAN_POINT('',(4.000000000000014,-14.500000000000011,-5.499999999999998));
#72=CARTESIAN_POINT('',(1.421120E-014,-20.000000000000011,-5.499999999999996));
#73=CARTESIAN_POINT('',(4.000000000000014,-20.000000000000011,-5.499999999999998));
#74=CARTESIAN_POINT('',(1.421120E-014,-25.500000000000007,-5.499999999999995));
#75=CARTESIAN_POINT('',(4.000000000000014,-25.500000000000007,-5.499999999999996));
#76=CARTESIAN_POINT('',(1.421085E-014,-25.500000000000007,2.338868E-015));
#77=CARTESIAN_POINT('',(4.000000000000014,-25.500000000000011,2.339116E-015));
#78=CARTESIAN_POINT('',(1.421051E-014,-25.500000000000007,5.500000000000000));
#79=CARTESIAN_POINT('',(4.000000000000014,-25.500000000000007,5.500000000000002));
#80=CARTESIAN_POINT('',(1.421051E-014,-20.000000000000011,5.500000000000000));
#81=CARTESIAN_POINT('',(4.000000000000014,-20.000000000000011,5.500000000000002));
#82=CARTESIAN_POINT('',(1.421051E-014,-14.500000000000012,5.499999999999998));
#83=CARTESIAN_POINT('',(4.000000000000014,-14.500000000000011,5.500000000000000));
#84=CARTESIAN_POINT('',(1.421085E-014,-14.500000000000012,9.918010E-016));
#85=CARTESIAN_POINT('',(4.000000000000014,-14.500000000000011,9.920488E-016));
#93=(BOUNDED_SURFACE()B_SPLINE_SURFACE(1,2,((#68,#70,#72,#74,#76,#78,#80,#82,#84),(#69,#71,#73,#75,#77,#79,#81,#83,#85)),.UNSPECIFIED.,.F.,.T.,.U.)B_SPLINE_SURFACE_WITH_KNOTS((2,2),(3,2,2,2,3),(-11.966896488657698,-11.239623761384969),(0.0,8.639379797371930,17.278759594743860,25.918139392115794,34.557519189487721),.UNSPECIFIED.)GEOMETRIC_REPRESENTATION_ITEM()RATIONAL_B_SPLINE_SURFACE(((1.0,0.707106781186548,1.0,0.707106781186548,1.0,0.707106781186548,1.0,0.707106781186548,1.0),(1.0,0.707106781186548,1.0,0.707106781186548,1.0,0.707106781186548,1.0,0.707106781186548,1.0)))REPRESENTATION_ITEM('')SURFACE());
#94=CARTESIAN_POINT('',(4.000000000000010,-14.500000000000012,9.920488E-016));
#95=VERTEX_POINT('',#94);
#96=CARTESIAN_POINT('',(4.000000000000012,-20.000000000000014,1.665582E-015));
#97=DIRECTION('',(-1.0,0.0,0.0));
#98=DIRECTION('',(0.0,-1.0,0.0));
#99=AXIS2_PLACEMENT_3D('',#96,#97,#98);
#100=CIRCLE('',#99,5.500000000000000);
#101=EDGE_CURVE('',#95,#95,#100,.T.);
#102=ORIENTED_EDGE('',*,*,#101,.F.);
#103=EDGE_LOOP('',(#102));
#104=FACE_OUTER_BOUND('',#103,.T.);
#105=CARTESIAN_POINT('',(1.245248E-014,-25.500000000000014,1.665335E-015));
#106=VERTEX_POINT('',#105);
#107=CARTESIAN_POINT('',(8.881784E-015,-20.000000000000014,1.665335E-015));
#108=DIRECTION('',(1.0,0.0,0.0));
#109=DIRECTION('',(0.0,-1.0,0.0));
#110=AXIS2_PLACEMENT_3D('',#107,#108,#109);
#111=CIRCLE('',#110,5.500000000000000);
#112=EDGE_CURVE('',#106,#106,#111,.T.);
#113=ORIENTED_EDGE('',*,*,#112,.F.);
#114=EDGE_LOOP('',(#113));
#115=FACE_BOUND('',#114,.T.);
#116=ADVANCED_FACE('',(#104,#115),#93,.F.);
#117=CARTESIAN_POINT('',(25.499999999999996,0.0,-1.228645E-015));
#118=CARTESIAN_POINT('',(25.499999999999996,-4.000000000000007,-1.228397E-015));
#119=CARTESIAN_POINT('',(25.499999999999996,-3.406070E-019,-5.500000000000001));
#120=CARTESIAN_POINT('',(25.499999999999996,-4.000000000000007,-5.500000000000001));
#121=CARTESIAN_POINT('',(19.999999999999996,-3.406070E-019,-5.500000000000001));
#122=CARTESIAN_POINT('',(19.999999999999996,-4.000000000000007,-5.500000000000001));
#123=CARTESIAN_POINT('',(14.499999999999995,-3.406070E-019,-5.499999999999999));
#124=CARTESIAN_POINT('',(14.499999999999995,-4.000000000000007,-5.499999999999999));
#125=CARTESIAN_POINT('',(14.499999999999996,0.0,1.184220E-016));
#126=CARTESIAN_POINT('',(14.499999999999996,-4.000000000000007,1.186697E-016));
#127=CARTESIAN_POINT('',(14.499999999999995,3.406070E-019,5.499999999999999));
#128=CARTESIAN_POINT('',(14.499999999999995,-4.000000000000007,5.499999999999999));
#129=CARTESIAN_POINT('',(19.999999999999996,3.406070E-019,5.499999999999999));
#130=CARTESIAN_POINT('',(19.999999999999996,-4.000000000000007,5.499999999999999));
#131=CARTESIAN_POINT('',(25.499999999999996,3.406070E-019,5.499999999999997));
#132=CARTESIAN_POINT('',(25.499999999999996,-4.000000000000007,5.499999999999997));
#133=CARTESIAN_POINT('',(25.499999999999996,0.0,-1.228645E-015));
#134=CARTESIAN_POINT('',(25.499999999999996,-4.000000000000007,-1.228397E-015));
#142=(BOUNDED_SURFACE()B_SPLINE_SURFACE(1,2,((#117,#119,#121,#123,#125,#127,#129,#131,#133),(#118,#120,#122,#124,#126,#128,#130,#132,#134)),.UNSPECIFIED.,.F.,.T.,.U.)B_SPLINE_SURFACE_WITH_KNOTS((2,2),(3,2,2,2,3),(-11.966896488657699,-11.239623761384971),(0.0,8.639379797371930,17.278759594743860,25.918139392115794,34.557519189487721),.UNSPECIFIED.)GEOMETRIC_REPRESENTATION_ITEM()RATIONAL_B_SPLINE_SURFACE(((1.0,0.707106781186548,1.0,0.707106781186548,1.0,0.707106781186548,1.0,0.707106781186548,1.0),(1.0,0.707106781186548,1.0,0.707106781186548,1.0,0.707106781186548,1.0,0.707106781186548,1.0)))REPRESENTATION_ITEM('')SURFACE());
#143=CARTESIAN_POINT('',(25.500000000000000,-4.000000000000003,-1.228397E-015));
#144=VERTEX_POINT('',#143);
#145=CARTESIAN_POINT('',(19.999999999999996,-4.000000000000004,-5.548638E-016));
#146=DIRECTION('',(0.0,1.0,0.0));
#147=DIRECTION('',(-1.0,0.0,0.0));
#148=AXIS2_PLACEMENT_3D('',#145,#146,#147);
#149=CIRCLE('',#148,5.500000000000000);
#150=EDGE_CURVE('',#144,#144,#149,.T.);
#151=ORIENTED_EDGE('',*,*,#150,.F.);
#152=EDGE_LOOP('',(#151));
#153=FACE_OUTER_BOUND('',#152,.T.);
#154=CARTESIAN_POINT('',(14.499999999999995,-3.005551E-015,-5.551115E-016));
#155=VERTEX_POINT('',#154);
#156=CARTESIAN_POINT('',(19.999999999999996,0.0,-5.551115E-016));
#157=DIRECTION('',(0.0,-1.0,0.0));
#158=DIRECTION('',(-1.0,0.0,0.0));
#159=AXIS2_PLACEMENT_3D('',#156,#157,#158);
#160=CIRCLE('',#159,5.500000000000000);
#161=EDGE_CURVE('',#155,#155,#160,.T.);
#162=ORIENTED_EDGE('',*,*,#161,.F.);
#163=EDGE_LOOP('',(#162));
#164=FACE_BOUND('',#163,.T.);
#165=ADVANCED_FACE('',(#153,#164),#142,.F.);
#166=CARTESIAN_POINT('',(3.649941E-015,-8.000000000000009,-19.0));
#167=DIRECTION('',(0.0,0.0,-1.0));
#168=DIRECTION('',(0.0,-1.0,0.0));
#169=AXIS2_PLACEMENT_3D('',#166,#167,#168);
#170=PLANE('',#169);
#171=CARTESIAN_POINT('',(3.240239E-015,-8.000000000000007,-19.0));
#172=VERTEX_POINT('',#171);
#173=CARTESIAN_POINT('',(4.000000000000004,-8.000000000000005,-19.0));
#174=VERTEX_POINT('',#173);
#175=CARTESIAN_POINT('',(3.330669E-015,-8.000000000000009,-19.0));
#176=DIRECTION('',(1.0,0.0,0.0));
#177=VECTOR('',#176,4.0);
#178=LINE('',#175,#177);
#179=EDGE_CURVE('',#172,#174,#178,.T.);
#180=ORIENTED_EDGE('',*,*,#179,.T.);
#181=CARTESIAN_POINT('',(4.000000000000020,-38.000000000000014,-19.0));
#182=VERTEX_POINT('',#181);
#183=CARTESIAN_POINT('',(4.000000000000004,-8.000000000000007,-19.0));
#184=DIRECTION('',(0.0,-1.0,0.0));
#185=VECTOR('',#184,30.0);
#186=LINE('',#183,#185);
#187=EDGE_CURVE('',#174,#182,#186,.T.);
#188=ORIENTED_EDGE('',*,*,#187,.T.);
#189=CARTESIAN_POINT('',(1.880965E-014,-38.000000000000014,-19.0));
#190=VERTEX_POINT('',#189);
#191=CARTESIAN_POINT('',(1.880965E-014,-38.000000000000014,-19.0));
#192=DIRECTION('',(1.0,0.0,0.0));
#193=VECTOR('',#192,4.0);
#194=LINE('',#191,#193);
#195=EDGE_CURVE('',#190,#182,#194,.T.);
#196=ORIENTED_EDGE('',*,*,#195,.F.);
#197=CARTESIAN_POINT('',(3.240239E-015,-8.000000000000007,-19.0));
#198=DIRECTION('',(0.0,-1.0,0.0));
#199=VECTOR('',#198,29.999999999999993);
#200=LINE('',#197,#199);
#201=EDGE_CURVE('',#172,#190,#200,.T.);
#202=ORIENTED_EDGE('',*,*,#201,.F.);
#203=EDGE_LOOP('',(#180,#188,#196,#202));
#204=FACE_OUTER_BOUND('',#203,.T.);
#205=ADVANCED_FACE('',(#204),#170,.T.);
#206=CARTESIAN_POINT('',(8.000000000000004,-8.000000000000004,19.0));
#207=DIRECTION('',(0.0,0.0,1.0));
#208=DIRECTION('',(-1.0,0.0,0.0));
#209=AXIS2_PLACEMENT_3D('',#206,#207,#208);
#210=CYLINDRICAL_SURFACE('',#209,8.0);
#211=CARTESIAN_POINT('',(3.240239E-015,-8.000000000000007,19.0));
#212=VERTEX_POINT('',#211);
#213=CARTESIAN_POINT('',(3.453091E-015,-8.000000000000009,19.0));
#214=DIRECTION('',(0.0,0.0,-1.0));
#215=VECTOR('',#214,38.0);
#216=LINE('',#213,#215);
#217=EDGE_CURVE('',#212,#172,#216,.T.);
#218=ORIENTED_EDGE('',*,*,#217,.F.);
#219=CARTESIAN_POINT('',(8.000000000000004,-3.673940E-015,19.0));
#220=VERTEX_POINT('',#219);
#221=CARTESIAN_POINT('',(8.000000000000004,-8.000000000000004,19.0));
#222=DIRECTION('',(0.0,0.0,1.0));
#223=DIRECTION('',(0.0,1.0,0.0));
#224=AXIS2_PLACEMENT_3D('',#221,#222,#223);
#225=CIRCLE('',#224,8.0);
#226=EDGE_CURVE('',#220,#212,#225,.T.);
#227=ORIENTED_EDGE('',*,*,#226,.F.);
#228=CARTESIAN_POINT('',(8.000000000000004,-3.673940E-015,-19.0));
#229=VERTEX_POINT('',#228);
#230=CARTESIAN_POINT('',(8.000000000000004,-3.884604E-015,19.0));
#231=DIRECTION('',(0.0,0.0,-1.0));
#232=VECTOR('',#231,38.0);
#233=LINE('',#230,#232);
#234=EDGE_CURVE('',#220,#229,#233,.T.);
#235=ORIENTED_EDGE('',*,*,#234,.T.);
#236=CARTESIAN_POINT('',(8.000000000000004,-8.000000000000004,-19.0));
#237=DIRECTION('',(0.0,0.0,1.0));
#238=DIRECTION('',(0.0,1.0,0.0));
#239=AXIS2_PLACEMENT_3D('',#236,#237,#238);
#240=CIRCLE('',#239,8.0);
#241=EDGE_CURVE('',#229,#172,#240,.T.);
#242=ORIENTED_EDGE('',*,*,#241,.T.);
#243=EDGE_LOOP('',(#218,#227,#235,#242));
#244=FACE_OUTER_BOUND('',#243,.T.);
#245=ADVANCED_FACE('',(#244),#210,.T.);
#246=CARTESIAN_POINT('',(4.000000000000002,-3.476106578830707,5.551115E-016));
#247=DIRECTION('',(-1.0,0.0,0.0));
#248=DIRECTION('',(0.0,0.0,1.0));
#249=AXIS2_PLACEMENT_3D('',#246,#247,#248);
#250=PLANE('',#249);
#251=CARTESIAN_POINT('',(4.000000000000004,-8.000000000000005,19.0));
#252=VERTEX_POINT('',#251);
#253=CARTESIAN_POINT('',(4.000000000000004,-8.000000000000007,-19.0));
#254=DIRECTION('',(0.0,0.0,1.0));
#255=VECTOR('',#254,38.0);
#256=LINE('',#253,#255);
#257=EDGE_CURVE('',#174,#252,#256,.T.);
#258=ORIENTED_EDGE('',*,*,#257,.T.);
#259=CARTESIAN_POINT('',(4.000000000000020,-38.000000000000014,19.0));
#260=VERTEX_POINT('',#259);
#261=CARTESIAN_POINT('',(4.000000000000019,-38.0,19.0));
#262=DIRECTION('',(0.0,1.0,0.0));
#263=VECTOR('',#262,29.999999999999993);
#264=LINE('',#261,#263);
#265=EDGE_CURVE('',#260,#252,#264,.T.);
#266=ORIENTED_EDGE('',*,*,#265,.F.);
#267=CARTESIAN_POINT('',(4.000000000000020,-38.000000000000014,-19.0));
#268=DIRECTION('',(0.0,0.0,1.0));
#269=VECTOR('',#268,38.0);
#270=LINE('',#267,#269);
#271=EDGE_CURVE('',#182,#260,#270,.T.);
#272=ORIENTED_EDGE('',*,*,#271,.F.);
#273=ORIENTED_EDGE('',*,*,#187,.F.);
#274=EDGE_LOOP('',(#258,#266,#272,#273));
#275=FACE_OUTER_BOUND('',#274,.T.);
#276=ORIENTED_EDGE('',*,*,#101,.T.);
#277=EDGE_LOOP('',(#276));
#278=FACE_BOUND('',#277,.T.);
#279=ADVANCED_FACE('',(#275,#278),#250,.F.);
#280=CARTESIAN_POINT('',(4.000000000000004,-8.000000000000005,19.0));
#281=DIRECTION('',(0.0,0.0,1.0));
#282=DIRECTION('',(1.0,0.0,0.0));
#283=AXIS2_PLACEMENT_3D('',#280,#281,#282);
#284=PLANE('',#283);
#285=CARTESIAN_POINT('',(4.000000000000004,-8.000000000000007,19.0));
#286=DIRECTION('',(-1.0,0.0,0.0));
#287=VECTOR('',#286,4.0);
#288=LINE('',#285,#287);
#289=EDGE_CURVE('',#252,#212,#288,.T.);
#290=ORIENTED_EDGE('',*,*,#289,.F.);
#291=CARTESIAN_POINT('',(8.000000000000004,-4.000000000000004,19.0));
#292=VERTEX_POINT('',#291);
#293=CARTESIAN_POINT('',(8.000000000000004,-8.000000000000004,19.0));
#294=DIRECTION('',(0.0,0.0,-1.0));
#295=DIRECTION('',(-1.0,0.0,0.0));
#296=AXIS2_PLACEMENT_3D('',#293,#294,#295);
#297=CIRCLE('',#296,4.000000000000000);
#298=EDGE_CURVE('',#252,#292,#297,.T.);
#299=ORIENTED_EDGE('',*,*,#298,.T.);
#300=CARTESIAN_POINT('',(8.000000000000004,-4.000000000000004,19.0));
#301=DIRECTION('',(0.0,1.0,0.0));
#302=VECTOR('',#301,4.0);
#303=LINE('',#300,#302);
#304=EDGE_CURVE('',#292,#220,#303,.T.);
#305=ORIENTED_EDGE('',*,*,#304,.T.);
#306=ORIENTED_EDGE('',*,*,#226,.T.);
#307=EDGE_LOOP('',(#290,#299,#305,#306));
#308=FACE_OUTER_BOUND('',#307,.T.);
#309=ADVANCED_FACE('',(#308),#284,.T.);
#310=CARTESIAN_POINT('',(3.476106578830696,-4.000000000000004,5.551115E-016));
#311=DIRECTION('',(0.0,1.0,0.0));
#312=DIRECTION('',(0.0,0.0,1.0));
#313=AXIS2_PLACEMENT_3D('',#310,#311,#312);
#314=PLANE('',#313);
#315=CARTESIAN_POINT('',(8.000000000000004,-4.000000000000004,-19.0));
#316=VERTEX_POINT('',#315);
#317=CARTESIAN_POINT('',(8.000000000000004,-4.000000000000004,-19.0));
#318=DIRECTION('',(0.0,0.0,1.0));
#319=VECTOR('',#318,38.0);
#320=LINE('',#317,#319);
#321=EDGE_CURVE('',#316,#292,#320,.T.);
#322=ORIENTED_EDGE('',*,*,#321,.F.);
#323=CARTESIAN_POINT('',(38.0,-4.0,-19.0));
#324=VERTEX_POINT('',#323);
#325=CARTESIAN_POINT('',(38.0,-4.000000000000001,-19.0));
#326=DIRECTION('',(-1.0,0.0,0.0));
#327=VECTOR('',#326,29.999999999999996);
#328=LINE('',#325,#327);
#329=EDGE_CURVE('',#324,#316,#328,.T.);
#330=ORIENTED_EDGE('',*,*,#329,.F.);
#331=CARTESIAN_POINT('',(38.0,-4.0,19.0));
#332=VERTEX_POINT('',#331);
#333=CARTESIAN_POINT('',(38.0,-4.0,19.0));
#334=DIRECTION('',(0.0,0.0,-1.0));
#335=VECTOR('',#334,38.0);
#336=LINE('',#333,#335);
#337=EDGE_CURVE('',#332,#324,#336,.T.);
#338=ORIENTED_EDGE('',*,*,#337,.F.);
#339=CARTESIAN_POINT('',(8.000000000000004,-4.000000000000004,19.0));
#340=DIRECTION('',(1.0,0.0,0.0));
#341=VECTOR('',#340,29.999999999999996);
#342=LINE('',#339,#341);
#343=EDGE_CURVE('',#292,#332,#342,.T.);
#344=ORIENTED_EDGE('',*,*,#343,.F.);
#345=EDGE_LOOP('',(#322,#330,#338,#344));
#346=FACE_OUTER_BOUND('',#345,.T.);
#347=ORIENTED_EDGE('',*,*,#150,.T.);
#348=EDGE_LOOP('',(#347));
#349=FACE_BOUND('',#348,.T.);
#350=ADVANCED_FACE('',(#346,#349),#314,.F.);
#351=CARTESIAN_POINT('',(-1.331821E-015,1.047786842338598,19.0));
#352=DIRECTION('',(0.0,0.0,1.0));
#353=DIRECTION('',(0.0,1.0,0.0));
#354=AXIS2_PLACEMENT_3D('',#351,#352,#353);
#355=PLANE('',#354);
#356=ORIENTED_EDGE('',*,*,#289,.T.);
#357=CARTESIAN_POINT('',(1.880965E-014,-38.000000000000014,19.0));
#358=VERTEX_POINT('',#357);
#359=CARTESIAN_POINT('',(3.240239E-015,-8.000000000000007,19.0));
#360=DIRECTION('',(0.0,-1.0,0.0));
#361=VECTOR('',#360,29.999999999999993);
#362=LINE('',#359,#361);
#363=EDGE_CURVE('',#212,#358,#362,.T.);
#364=ORIENTED_EDGE('',*,*,#363,.T.);
#365=CARTESIAN_POINT('',(1.880965E-014,-38.000000000000014,19.0));
#366=DIRECTION('',(1.0,0.0,0.0));
#367=VECTOR('',#366,4.0);
#368=LINE('',#365,#367);
#369=EDGE_CURVE('',#358,#260,#368,.T.);
#370=ORIENTED_EDGE('',*,*,#369,.T.);
#371=ORIENTED_EDGE('',*,*,#265,.T.);
#372=EDGE_LOOP('',(#356,#364,#370,#371));
#373=FACE_OUTER_BOUND('',#372,.T.);
#374=ADVANCED_FACE('',(#373),#355,.T.);
#375=CARTESIAN_POINT('',(1.162382E-015,-3.476106578830708,-5.551115E-016));
#376=DIRECTION('',(-1.0,0.0,0.0));
#377=DIRECTION('',(0.0,0.0,1.0));
#378=AXIS2_PLACEMENT_3D('',#375,#376,#377);
#379=PLANE('',#378);
#380=ORIENTED_EDGE('',*,*,#217,.T.);
#381=ORIENTED_EDGE('',*,*,#201,.T.);
#382=CARTESIAN_POINT('',(1.880965E-014,-38.000000000000014,-19.0));
#383=DIRECTION('',(0.0,0.0,1.0));
#384=VECTOR('',#383,38.0);
#385=LINE('',#382,#384);
#386=EDGE_CURVE('',#190,#358,#385,.T.);
#387=ORIENTED_EDGE('',*,*,#386,.T.);
#388=ORIENTED_EDGE('',*,*,#363,.F.);
#389=EDGE_LOOP('',(#380,#381,#387,#388));
#390=FACE_OUTER_BOUND('',#389,.T.);
#391=ORIENTED_EDGE('',*,*,#112,.T.);
#392=EDGE_LOOP('',(#391));
#393=FACE_BOUND('',#392,.T.);
#394=ADVANCED_FACE('',(#390,#393),#379,.T.);
#395=CARTESIAN_POINT('',(-1.047786842338604,-5.191677E-015,-19.0));
#396=DIRECTION('',(0.0,0.0,-1.0));
#397=DIRECTION('',(-1.0,0.0,0.0));
#398=AXIS2_PLACEMENT_3D('',#395,#396,#397);
#399=PLANE('',#398);
#400=CARTESIAN_POINT('',(8.000000000000004,-3.552714E-015,-19.0));
#401=DIRECTION('',(0.0,-1.0,0.0));
#402=VECTOR('',#401,4.0);
#403=LINE('',#400,#402);
#404=EDGE_CURVE('',#229,#316,#403,.T.);
#405=ORIENTED_EDGE('',*,*,#404,.F.);
#406=CARTESIAN_POINT('',(38.0,9.860761E-031,-19.0));
#407=VERTEX_POINT('',#406);
#408=CARTESIAN_POINT('',(38.0,9.860761E-031,-19.0));
#409=DIRECTION('',(-1.0,0.0,0.0));
#410=VECTOR('',#409,29.999999999999996);
#411=LINE('',#408,#410);
#412=EDGE_CURVE('',#407,#229,#411,.T.);
#413=ORIENTED_EDGE('',*,*,#412,.F.);
#414=CARTESIAN_POINT('',(38.0,9.860761E-031,-19.0));
#415=DIRECTION('',(0.0,-1.0,0.0));
#416=VECTOR('',#415,4.0);
#417=LINE('',#414,#416);
#418=EDGE_CURVE('',#407,#324,#417,.T.);
#419=ORIENTED_EDGE('',*,*,#418,.T.);
#420=ORIENTED_EDGE('',*,*,#329,.T.);
#421=EDGE_LOOP('',(#405,#413,#419,#420));
#422=FACE_OUTER_BOUND('',#421,.T.);
#423=ADVANCED_FACE('',(#422),#399,.T.);
#424=CARTESIAN_POINT('',(8.000000000000004,-3.673940E-015,19.0));
#425=DIRECTION('',(0.0,0.0,1.0));
#426=DIRECTION('',(1.0,0.0,0.0));
#427=AXIS2_PLACEMENT_3D('',#424,#425,#426);
#428=PLANE('',#427);
#429=ORIENTED_EDGE('',*,*,#304,.F.);
#430=ORIENTED_EDGE('',*,*,#343,.T.);
#431=CARTESIAN_POINT('',(38.0,9.860761E-031,19.0));
#432=VERTEX_POINT('',#431);
#433=CARTESIAN_POINT('',(38.0,9.860761E-031,19.0));
#434=DIRECTION('',(0.0,-1.0,0.0));
#435=VECTOR('',#434,4.0);
#436=LINE('',#433,#435);
#437=EDGE_CURVE('',#432,#332,#436,.T.);
#438=ORIENTED_EDGE('',*,*,#437,.F.);
#439=CARTESIAN_POINT('',(38.0,9.860761E-031,19.0));
#440=DIRECTION('',(-1.0,0.0,0.0));
#441=VECTOR('',#440,29.999999999999996);
#442=LINE('',#439,#441);
#443=EDGE_CURVE('',#432,#220,#442,.T.);
#444=ORIENTED_EDGE('',*,*,#443,.T.);
#445=EDGE_LOOP('',(#429,#430,#438,#444));
#446=FACE_OUTER_BOUND('',#445,.T.);
#447=ADVANCED_FACE('',(#446),#428,.T.);
#448=CARTESIAN_POINT('',(38.0,9.860761E-031,19.0));
#449=DIRECTION('',(1.0,0.0,0.0));
#450=DIRECTION('',(0.0,0.0,-1.0));
#451=AXIS2_PLACEMENT_3D('',#448,#449,#450);
#452=PLANE('',#451);
#453=ORIENTED_EDGE('',*,*,#337,.T.);
#454=ORIENTED_EDGE('',*,*,#418,.F.);
#455=CARTESIAN_POINT('',(38.0,9.860761E-031,-19.0));
#456=DIRECTION('',(0.0,0.0,1.0));
#457=VECTOR('',#456,38.0);
#458=LINE('',#455,#457);
#459=EDGE_CURVE('',#407,#432,#458,.T.);
#460=ORIENTED_EDGE('',*,*,#459,.T.);
#461=ORIENTED_EDGE('',*,*,#437,.T.);
#462=EDGE_LOOP('',(#453,#454,#460,#461));
#463=FACE_OUTER_BOUND('',#462,.T.);
#464=ADVANCED_FACE('',(#463),#452,.T.);
#465=CARTESIAN_POINT('',(3.330669E-015,-8.000000000000005,-19.0));
#466=DIRECTION('',(0.0,0.0,-1.0));
#467=DIRECTION('',(-1.0,0.0,0.0));
#468=AXIS2_PLACEMENT_3D('',#465,#466,#467);
#469=PLANE('',#468);
#470=ORIENTED_EDGE('',*,*,#179,.F.);
#471=ORIENTED_EDGE('',*,*,#241,.F.);
#472=ORIENTED_EDGE('',*,*,#404,.T.);
#473=CARTESIAN_POINT('',(8.000000000000004,-8.000000000000004,-19.0));
#474=DIRECTION('',(0.0,0.0,1.0));
#475=DIRECTION('',(0.0,1.0,0.0));
#476=AXIS2_PLACEMENT_3D('',#473,#474,#475);
#477=CIRCLE('',#476,4.000000000000000);
#478=EDGE_CURVE('',#316,#174,#477,.T.);
#479=ORIENTED_EDGE('',*,*,#478,.T.);
#480=EDGE_LOOP('',(#470,#471,#472,#479));
#481=FACE_OUTER_BOUND('',#480,.T.);
#482=ADVANCED_FACE('',(#481),#469,.T.);
#483=CARTESIAN_POINT('',(1.880965E-014,-38.000000000000014,-19.0));
#484=DIRECTION('',(0.0,-1.0,0.0));
#485=DIRECTION('',(0.0,0.0,1.0));
#486=AXIS2_PLACEMENT_3D('',#483,#484,#485);
#487=PLANE('',#486);
#488=ORIENTED_EDGE('',*,*,#271,.T.);
#489=ORIENTED_EDGE('',*,*,#369,.F.);
#490=ORIENTED_EDGE('',*,*,#386,.F.);
#491=ORIENTED_EDGE('',*,*,#195,.T.);
#492=EDGE_LOOP('',(#488,#489,#490,#491));
#493=FACE_OUTER_BOUND('',#492,.T.);
#494=ADVANCED_FACE('',(#493),#487,.T.);
#495=CARTESIAN_POINT('',(8.000000000000004,-8.000000000000004,-19.0));
#496=DIRECTION('',(0.0,0.0,1.0));
#497=DIRECTION('',(-1.0,0.0,0.0));
#498=AXIS2_PLACEMENT_3D('',#495,#496,#497);
#499=CYLINDRICAL_SURFACE('',#498,4.000000000000000);
#500=ORIENTED_EDGE('',*,*,#257,.F.);
#501=ORIENTED_EDGE('',*,*,#478,.F.);
#502=ORIENTED_EDGE('',*,*,#321,.T.);
#503=ORIENTED_EDGE('',*,*,#298,.F.);
#504=EDGE_LOOP('',(#500,#501,#502,#503));
#505=FACE_OUTER_BOUND('',#504,.T.);
#506=ADVANCED_FACE('',(#505),#499,.F.);
#507=CARTESIAN_POINT('',(3.476106578830696,-4.436130E-015,-5.551115E-016));
#508=DIRECTION('',(0.0,1.0,0.0));
#509=DIRECTION('',(0.0,0.0,1.0));
#510=AXIS2_PLACEMENT_3D('',#507,#508,#509);
#511=PLANE('',#510);
#512=ORIENTED_EDGE('',*,*,#234,.F.);
#513=ORIENTED_EDGE('',*,*,#443,.F.);
#514=ORIENTED_EDGE('',*,*,#459,.F.);
#515=ORIENTED_EDGE('',*,*,#412,.T.);
#516=EDGE_LOOP('',(#512,#513,#514,#515));
#517=FACE_OUTER_BOUND('',#516,.T.);
#518=ORIENTED_EDGE('',*,*,#161,.T.);
#519=EDGE_LOOP('',(#518));
#520=FACE_BOUND('',#519,.T.);
#521=ADVANCED_FACE('',(#517,#520),#511,.T.);
#522=CLOSED_SHELL('',(#116,#165,#205,#245,#279,#309,#350,#374,#394,#423,#447,#464,#482,#494,#506,#521));
#523=MANIFOLD_SOLID_BREP('Volumenk\S\vrper1',#522);
#524=COLOUR_RGB('Metall-AL-6061 (maschin.)',0.941175997257233,0.941175997257233,0.941175997257233);
#525=FILL_AREA_STYLE_COLOUR('Metall-AL-6061 (maschin.)',#524);
#526=FILL_AREA_STYLE('Metall-AL-6061 (maschin.)',(#525));
#527=SURFACE_STYLE_FILL_AREA(#526);
#528=SURFACE_SIDE_STYLE('Metall-AL-6061 (maschin.)',(#527));
#529=SURFACE_STYLE_USAGE(.BOTH.,#528);
#530=PRESENTATION_STYLE_ASSIGNMENT((#529));
#531=STYLED_ITEM('',(#530),#523);
#532=MECHANICAL_DESIGN_GEOMETRIC_PRESENTATION_REPRESENTATION('',(#531),#36);
#533=ADVANCED_BREP_SHAPE_REPRESENTATION('ABSR',(#523),#36);
#534=SHAPE_REPRESENTATION_RELATIONSHIP('SRR','None',#533,#41);
ENDSEC;
END-ISO-10303-21;
