ISO-10303-21;
HEADER;
/* Generated by software containing ST-Developer
 * from STEP Tools, Inc. (www.steptools.com) 
 */

FILE_DESCRIPTION(
/* description */ (''),
/* implementation_level */ '2;1');

FILE_NAME(
/* name */ 'C:\\Users\\Gabriele\\Desktop\\catalogo\\TR40\\TR40140L.stp',

/* time_stamp */ '2016-10-17T15:16:42+02:00',
/* author */ ('Gabriele'),
/* organization */ (''),
/* preprocessor_version */ 'ST-DEVELOPER v16.5',
/* originating_system */ 'Autodesk Inventor 2017',
/* authorisation */ '');

FILE_SCHEMA (('AUTOMOTIVE_DESIGN { 1 0 10303 214 3 1 1 }'));
ENDSEC;

DATA;
#10=MECHANICAL_DESIGN_GEOMETRIC_PRESENTATION_REPRESENTATION('',(#13),#481);
#11=SHAPE_REPRESENTATION_RELATIONSHIP('SRR','None',#490,#12);
#12=ADVANCED_BREP_SHAPE_REPRESENTATION('',(#14),#480);
#13=STYLED_ITEM('',(#499),#14);
#14=MANIFOLD_SOLID_BREP('Solido1',#200);
#15=B_SPLINE_CURVE_WITH_KNOTS('',3,(#333,#334,#335,#336,#337,#338,#339,
#340,#341,#342,#343,#344,#345,#346,#347,#348,#349,#350,#351,#352,#353,#354,
#355,#356,#357,#358,#359,#360,#361,#362,#363,#364,#365,#366,#367,#368,#369,
#370,#371,#372,#373,#374,#375,#376,#377,#378,#379,#380,#381,#382,#383,#384,
#385,#386,#387,#388,#389,#390,#391,#392,#393,#394,#395,#396,#397,#398),
 .UNSPECIFIED.,.T.,.F.,(4,2,2,2,2,2,2,2,2,2,2,2,2,2,2,2,2,2,2,2,2,2,2,2,
2,2,2,2,2,2,2,2,4),(0.,1.0998833323402,2.19976666468041,3.29964999702061,
4.39953332936081,5.46958778061419,6.53964223186757,7.60969668312094,8.67975113437432,
9.7498055856277,10.8198600368811,11.8899144881345,12.9599689393878,14.059852271728,
15.1597356040682,16.2596189364084,17.3595022687486,18.4593856010888,19.559268933429,
20.6591522657693,21.7590355981095,22.8290900493628,23.8991445006162,24.9691989518696,
26.039253403123,27.1093078543763,28.1793623056297,29.2494167568831,30.3194712081365,
31.4193545404767,32.5192378728169,33.6191212051571,34.7190045374973),
 .UNSPECIFIED.);
#16=B_SPLINE_CURVE_WITH_KNOTS('',3,(#409,#410,#411,#412,#413,#414,#415,
#416,#417,#418,#419,#420,#421,#422,#423,#424,#425,#426,#427,#428,#429,#430,
#431,#432,#433,#434,#435,#436,#437,#438,#439,#440,#441,#442,#443,#444,#445,
#446,#447,#448,#449,#450,#451,#452,#453,#454,#455,#456,#457,#458,#459,#460,
#461,#462,#463,#464,#465,#466,#467,#468,#469,#470,#471,#472,#473,#474),
 .UNSPECIFIED.,.T.,.F.,(4,2,2,2,2,2,2,2,2,2,2,2,2,2,2,2,2,2,2,2,2,2,2,2,
2,2,2,2,2,2,2,2,4),(0.,1.31816447172918,2.63632894345836,3.95449341518755,
5.27265788691673,6.55251344345016,7.83236899998358,9.11222455651701,10.3920801130504,
11.6719356695839,12.9517912261173,14.2316467826507,15.5115023391842,16.8296668109133,
18.1478312826425,19.4659957543717,20.7841602261009,22.1023246978301,23.4204891695592,
24.7386536412884,26.0568181130176,27.336673669551,28.6165292260845,29.8963847826179,
31.1762403391513,32.4560958956847,33.7359514522182,35.0158070087516,36.295662565285,
37.6138270370142,38.9319915087434,40.2501559804726,41.5683204522018),
 .UNSPECIFIED.);
#17=PLANE('',#207);
#18=PLANE('',#214);
#19=PLANE('',#221);
#20=PLANE('',#228);
#21=PLANE('',#231);
#22=PLANE('',#232);
#23=CYLINDRICAL_SURFACE('',#205,70.);
#24=CYLINDRICAL_SURFACE('',#212,70.);
#25=CYLINDRICAL_SURFACE('',#219,55.);
#26=CYLINDRICAL_SURFACE('',#223,54.);
#27=CYLINDRICAL_SURFACE('',#225,69.);
#28=CYLINDRICAL_SURFACE('',#229,64.5);
#29=CYLINDRICAL_SURFACE('',#230,81.5);
#30=FACE_BOUND('',#65,.T.);
#31=FACE_BOUND('',#67,.T.);
#32=FACE_BOUND('',#69,.T.);
#33=FACE_BOUND('',#71,.T.);
#34=FACE_BOUND('',#73,.T.);
#35=FACE_BOUND('',#75,.T.);
#36=FACE_BOUND('',#77,.T.);
#37=FACE_BOUND('',#79,.T.);
#38=FACE_BOUND('',#81,.T.);
#39=FACE_BOUND('',#83,.T.);
#40=FACE_BOUND('',#85,.T.);
#41=FACE_BOUND('',#86,.T.);
#42=FACE_BOUND('',#88,.T.);
#43=FACE_BOUND('',#90,.T.);
#44=FACE_BOUND('',#92,.T.);
#45=FACE_BOUND('',#93,.T.);
#46=FACE_BOUND('',#95,.T.);
#47=FACE_BOUND('',#97,.T.);
#48=FACE_OUTER_BOUND('',#64,.T.);
#49=FACE_OUTER_BOUND('',#66,.T.);
#50=FACE_OUTER_BOUND('',#68,.T.);
#51=FACE_OUTER_BOUND('',#70,.T.);
#52=FACE_OUTER_BOUND('',#72,.T.);
#53=FACE_OUTER_BOUND('',#74,.T.);
#54=FACE_OUTER_BOUND('',#76,.T.);
#55=FACE_OUTER_BOUND('',#78,.T.);
#56=FACE_OUTER_BOUND('',#80,.T.);
#57=FACE_OUTER_BOUND('',#82,.T.);
#58=FACE_OUTER_BOUND('',#84,.T.);
#59=FACE_OUTER_BOUND('',#87,.T.);
#60=FACE_OUTER_BOUND('',#89,.T.);
#61=FACE_OUTER_BOUND('',#91,.T.);
#62=FACE_OUTER_BOUND('',#94,.T.);
#63=FACE_OUTER_BOUND('',#96,.T.);
#64=EDGE_LOOP('',(#147));
#65=EDGE_LOOP('',(#148));
#66=EDGE_LOOP('',(#149));
#67=EDGE_LOOP('',(#150));
#68=EDGE_LOOP('',(#151));
#69=EDGE_LOOP('',(#152));
#70=EDGE_LOOP('',(#153));
#71=EDGE_LOOP('',(#154));
#72=EDGE_LOOP('',(#155));
#73=EDGE_LOOP('',(#156));
#74=EDGE_LOOP('',(#157));
#75=EDGE_LOOP('',(#158));
#76=EDGE_LOOP('',(#159));
#77=EDGE_LOOP('',(#160));
#78=EDGE_LOOP('',(#161));
#79=EDGE_LOOP('',(#162));
#80=EDGE_LOOP('',(#163));
#81=EDGE_LOOP('',(#164));
#82=EDGE_LOOP('',(#165));
#83=EDGE_LOOP('',(#166));
#84=EDGE_LOOP('',(#167));
#85=EDGE_LOOP('',(#168));
#86=EDGE_LOOP('',(#169));
#87=EDGE_LOOP('',(#170));
#88=EDGE_LOOP('',(#171));
#89=EDGE_LOOP('',(#172));
#90=EDGE_LOOP('',(#173));
#91=EDGE_LOOP('',(#174));
#92=EDGE_LOOP('',(#175));
#93=EDGE_LOOP('',(#176));
#94=EDGE_LOOP('',(#177));
#95=EDGE_LOOP('',(#178));
#96=EDGE_LOOP('',(#179));
#97=EDGE_LOOP('',(#180));
#98=CIRCLE('',#203,70.);
#99=CIRCLE('',#204,70.5);
#100=CIRCLE('',#206,70.);
#101=CIRCLE('',#208,81.5);
#102=CIRCLE('',#210,70.);
#103=CIRCLE('',#211,70.5);
#104=CIRCLE('',#213,70.);
#105=CIRCLE('',#215,81.5);
#106=CIRCLE('',#217,55.);
#107=CIRCLE('',#218,55.5);
#108=CIRCLE('',#220,55.);
#109=CIRCLE('',#222,64.5);
#110=CIRCLE('',#224,54.);
#111=CIRCLE('',#226,69.);
#112=CIRCLE('',#227,69.);
#113=VERTEX_POINT('',#299);
#114=VERTEX_POINT('',#301);
#115=VERTEX_POINT('',#304);
#116=VERTEX_POINT('',#307);
#117=VERTEX_POINT('',#310);
#118=VERTEX_POINT('',#312);
#119=VERTEX_POINT('',#315);
#120=VERTEX_POINT('',#318);
#121=VERTEX_POINT('',#321);
#122=VERTEX_POINT('',#323);
#123=VERTEX_POINT('',#326);
#124=VERTEX_POINT('',#329);
#125=VERTEX_POINT('',#332);
#126=VERTEX_POINT('',#399);
#127=VERTEX_POINT('',#402);
#128=VERTEX_POINT('',#404);
#129=VERTEX_POINT('',#408);
#130=EDGE_CURVE('',#113,#113,#98,.T.);
#131=EDGE_CURVE('',#114,#114,#99,.T.);
#132=EDGE_CURVE('',#115,#115,#100,.T.);
#133=EDGE_CURVE('',#116,#116,#101,.T.);
#134=EDGE_CURVE('',#117,#117,#102,.T.);
#135=EDGE_CURVE('',#118,#118,#103,.T.);
#136=EDGE_CURVE('',#119,#119,#104,.T.);
#137=EDGE_CURVE('',#120,#120,#105,.T.);
#138=EDGE_CURVE('',#121,#121,#106,.T.);
#139=EDGE_CURVE('',#122,#122,#107,.T.);
#140=EDGE_CURVE('',#123,#123,#108,.T.);
#141=EDGE_CURVE('',#124,#124,#109,.T.);
#142=EDGE_CURVE('',#125,#125,#15,.T.);
#143=EDGE_CURVE('',#126,#126,#110,.T.);
#144=EDGE_CURVE('',#127,#127,#111,.T.);
#145=EDGE_CURVE('',#128,#128,#112,.T.);
#146=EDGE_CURVE('',#129,#129,#16,.T.);
#147=ORIENTED_EDGE('',*,*,#130,.T.);
#148=ORIENTED_EDGE('',*,*,#131,.T.);
#149=ORIENTED_EDGE('',*,*,#132,.T.);
#150=ORIENTED_EDGE('',*,*,#130,.F.);
#151=ORIENTED_EDGE('',*,*,#133,.T.);
#152=ORIENTED_EDGE('',*,*,#131,.F.);
#153=ORIENTED_EDGE('',*,*,#134,.T.);
#154=ORIENTED_EDGE('',*,*,#135,.T.);
#155=ORIENTED_EDGE('',*,*,#136,.F.);
#156=ORIENTED_EDGE('',*,*,#134,.F.);
#157=ORIENTED_EDGE('',*,*,#137,.T.);
#158=ORIENTED_EDGE('',*,*,#135,.F.);
#159=ORIENTED_EDGE('',*,*,#138,.T.);
#160=ORIENTED_EDGE('',*,*,#139,.T.);
#161=ORIENTED_EDGE('',*,*,#140,.T.);
#162=ORIENTED_EDGE('',*,*,#138,.F.);
#163=ORIENTED_EDGE('',*,*,#141,.F.);
#164=ORIENTED_EDGE('',*,*,#139,.F.);
#165=ORIENTED_EDGE('',*,*,#142,.F.);
#166=ORIENTED_EDGE('',*,*,#143,.F.);
#167=ORIENTED_EDGE('',*,*,#144,.F.);
#168=ORIENTED_EDGE('',*,*,#142,.T.);
#169=ORIENTED_EDGE('',*,*,#145,.F.);
#170=ORIENTED_EDGE('',*,*,#140,.F.);
#171=ORIENTED_EDGE('',*,*,#143,.T.);
#172=ORIENTED_EDGE('',*,*,#141,.T.);
#173=ORIENTED_EDGE('',*,*,#146,.F.);
#174=ORIENTED_EDGE('',*,*,#133,.F.);
#175=ORIENTED_EDGE('',*,*,#137,.F.);
#176=ORIENTED_EDGE('',*,*,#146,.T.);
#177=ORIENTED_EDGE('',*,*,#136,.T.);
#178=ORIENTED_EDGE('',*,*,#145,.T.);
#179=ORIENTED_EDGE('',*,*,#132,.F.);
#180=ORIENTED_EDGE('',*,*,#144,.T.);
#181=TOROIDAL_SURFACE('',#202,70.5,0.5);
#182=TOROIDAL_SURFACE('',#209,70.5,0.5);
#183=TOROIDAL_SURFACE('',#216,55.5,0.5);
#184=ADVANCED_FACE('',(#48,#30),#181,.T.);
#185=ADVANCED_FACE('',(#49,#31),#23,.F.);
#186=ADVANCED_FACE('',(#50,#32),#17,.T.);
#187=ADVANCED_FACE('',(#51,#33),#182,.T.);
#188=ADVANCED_FACE('',(#52,#34),#24,.F.);
#189=ADVANCED_FACE('',(#53,#35),#18,.F.);
#190=ADVANCED_FACE('',(#54,#36),#183,.T.);
#191=ADVANCED_FACE('',(#55,#37),#25,.F.);
#192=ADVANCED_FACE('',(#56,#38),#19,.T.);
#193=ADVANCED_FACE('',(#57,#39),#26,.F.);
#194=ADVANCED_FACE('',(#58,#40,#41),#27,.F.);
#195=ADVANCED_FACE('',(#59,#42),#20,.T.);
#196=ADVANCED_FACE('',(#60,#43),#28,.T.);
#197=ADVANCED_FACE('',(#61,#44,#45),#29,.T.);
#198=ADVANCED_FACE('',(#62,#46),#21,.F.);
#199=ADVANCED_FACE('',(#63,#47),#22,.T.);
#200=CLOSED_SHELL('',(#184,#185,#186,#187,#188,#189,#190,#191,#192,#193,
#194,#195,#196,#197,#198,#199));
#201=AXIS2_PLACEMENT_3D('placement',#297,#233,#234);
#202=AXIS2_PLACEMENT_3D('',#298,#235,#236);
#203=AXIS2_PLACEMENT_3D('',#300,#237,#238);
#204=AXIS2_PLACEMENT_3D('',#302,#239,#240);
#205=AXIS2_PLACEMENT_3D('',#303,#241,#242);
#206=AXIS2_PLACEMENT_3D('',#305,#243,#244);
#207=AXIS2_PLACEMENT_3D('',#306,#245,#246);
#208=AXIS2_PLACEMENT_3D('',#308,#247,#248);
#209=AXIS2_PLACEMENT_3D('',#309,#249,#250);
#210=AXIS2_PLACEMENT_3D('',#311,#251,#252);
#211=AXIS2_PLACEMENT_3D('',#313,#253,#254);
#212=AXIS2_PLACEMENT_3D('',#314,#255,#256);
#213=AXIS2_PLACEMENT_3D('',#316,#257,#258);
#214=AXIS2_PLACEMENT_3D('',#317,#259,#260);
#215=AXIS2_PLACEMENT_3D('',#319,#261,#262);
#216=AXIS2_PLACEMENT_3D('',#320,#263,#264);
#217=AXIS2_PLACEMENT_3D('',#322,#265,#266);
#218=AXIS2_PLACEMENT_3D('',#324,#267,#268);
#219=AXIS2_PLACEMENT_3D('',#325,#269,#270);
#220=AXIS2_PLACEMENT_3D('',#327,#271,#272);
#221=AXIS2_PLACEMENT_3D('',#328,#273,#274);
#222=AXIS2_PLACEMENT_3D('',#330,#275,#276);
#223=AXIS2_PLACEMENT_3D('',#331,#277,#278);
#224=AXIS2_PLACEMENT_3D('',#400,#279,#280);
#225=AXIS2_PLACEMENT_3D('',#401,#281,#282);
#226=AXIS2_PLACEMENT_3D('',#403,#283,#284);
#227=AXIS2_PLACEMENT_3D('',#405,#285,#286);
#228=AXIS2_PLACEMENT_3D('',#406,#287,#288);
#229=AXIS2_PLACEMENT_3D('',#407,#289,#290);
#230=AXIS2_PLACEMENT_3D('',#475,#291,#292);
#231=AXIS2_PLACEMENT_3D('',#476,#293,#294);
#232=AXIS2_PLACEMENT_3D('',#477,#295,#296);
#233=DIRECTION('axis',(0.,0.,1.));
#234=DIRECTION('refdir',(1.,0.,0.));
#235=DIRECTION('center_axis',(0.,0.,-1.));
#236=DIRECTION('ref_axis',(-1.,0.,0.));
#237=DIRECTION('center_axis',(0.,0.,-1.));
#238=DIRECTION('ref_axis',(-1.,0.,0.));
#239=DIRECTION('center_axis',(0.,0.,1.));
#240=DIRECTION('ref_axis',(-1.,0.,0.));
#241=DIRECTION('center_axis',(0.,0.,-1.));
#242=DIRECTION('ref_axis',(-1.,0.,0.));
#243=DIRECTION('center_axis',(0.,0.,-1.));
#244=DIRECTION('ref_axis',(-1.,0.,0.));
#245=DIRECTION('center_axis',(0.,0.,1.));
#246=DIRECTION('ref_axis',(1.,0.,0.));
#247=DIRECTION('center_axis',(0.,0.,1.));
#248=DIRECTION('ref_axis',(-1.,0.,0.));
#249=DIRECTION('center_axis',(0.,0.,1.));
#250=DIRECTION('ref_axis',(1.,0.,0.));
#251=DIRECTION('center_axis',(0.,0.,1.));
#252=DIRECTION('ref_axis',(-1.,0.,0.));
#253=DIRECTION('center_axis',(0.,0.,-1.));
#254=DIRECTION('ref_axis',(-1.,0.,0.));
#255=DIRECTION('center_axis',(0.,0.,-1.));
#256=DIRECTION('ref_axis',(-1.,0.,0.));
#257=DIRECTION('center_axis',(0.,0.,-1.));
#258=DIRECTION('ref_axis',(-1.,0.,0.));
#259=DIRECTION('center_axis',(0.,0.,1.));
#260=DIRECTION('ref_axis',(1.,0.,0.));
#261=DIRECTION('center_axis',(0.,0.,-1.));
#262=DIRECTION('ref_axis',(-1.,0.,0.));
#263=DIRECTION('center_axis',(0.,-1.,0.));
#264=DIRECTION('ref_axis',(0.,0.,-1.));
#265=DIRECTION('center_axis',(0.,-1.,0.));
#266=DIRECTION('ref_axis',(-1.,0.,0.));
#267=DIRECTION('center_axis',(0.,1.,0.));
#268=DIRECTION('ref_axis',(-1.,0.,0.));
#269=DIRECTION('center_axis',(0.,-1.,0.));
#270=DIRECTION('ref_axis',(-1.,0.,0.));
#271=DIRECTION('center_axis',(0.,-1.,0.));
#272=DIRECTION('ref_axis',(-1.,0.,0.));
#273=DIRECTION('center_axis',(0.,1.,0.));
#274=DIRECTION('ref_axis',(0.,0.,1.));
#275=DIRECTION('center_axis',(0.,-1.,0.));
#276=DIRECTION('ref_axis',(1.,0.,0.));
#277=DIRECTION('center_axis',(0.,-1.,0.));
#278=DIRECTION('ref_axis',(-1.,0.,0.));
#279=DIRECTION('center_axis',(0.,-1.,0.));
#280=DIRECTION('ref_axis',(-1.,0.,0.));
#281=DIRECTION('center_axis',(0.,0.,1.));
#282=DIRECTION('ref_axis',(1.,0.,0.));
#283=DIRECTION('center_axis',(0.,0.,-1.));
#284=DIRECTION('ref_axis',(1.,0.,0.));
#285=DIRECTION('center_axis',(0.,0.,1.));
#286=DIRECTION('ref_axis',(1.,0.,0.));
#287=DIRECTION('center_axis',(0.,1.,0.));
#288=DIRECTION('ref_axis',(0.,0.,1.));
#289=DIRECTION('center_axis',(0.,-1.,0.));
#290=DIRECTION('ref_axis',(1.,0.,0.));
#291=DIRECTION('center_axis',(0.,0.,1.));
#292=DIRECTION('ref_axis',(-1.,0.,0.));
#293=DIRECTION('center_axis',(0.,0.,1.));
#294=DIRECTION('ref_axis',(1.,0.,0.));
#295=DIRECTION('center_axis',(0.,0.,1.));
#296=DIRECTION('ref_axis',(1.,0.,0.));
#297=CARTESIAN_POINT('',(0.,0.,0.));
#298=CARTESIAN_POINT('Origin',(0.,0.,147.5));
#299=CARTESIAN_POINT('',(70.,-8.57252759403147E-15,147.5));
#300=CARTESIAN_POINT('Origin',(0.,0.,147.5));
#301=CARTESIAN_POINT('',(70.5,8.63375993398884E-15,148.));
#302=CARTESIAN_POINT('Origin',(0.,0.,148.));
#303=CARTESIAN_POINT('Origin',(0.,0.,148.));
#304=CARTESIAN_POINT('',(70.,8.57252759403147E-15,72.));
#305=CARTESIAN_POINT('Origin',(0.,0.,72.));
#306=CARTESIAN_POINT('Origin',(-6.64394980188594E-15,-1.45305262936626E-15,
148.));
#307=CARTESIAN_POINT('',(81.5,9.98087141305093E-15,148.));
#308=CARTESIAN_POINT('Origin',(0.,0.,148.));
#309=CARTESIAN_POINT('Origin',(0.,0.,-147.5));
#310=CARTESIAN_POINT('',(70.,8.57252759403147E-15,-147.5));
#311=CARTESIAN_POINT('Origin',(0.,0.,-147.5));
#312=CARTESIAN_POINT('',(70.5,-8.63375993398884E-15,-148.));
#313=CARTESIAN_POINT('Origin',(0.,0.,-148.));
#314=CARTESIAN_POINT('Origin',(0.,0.,-148.));
#315=CARTESIAN_POINT('',(70.,8.57252759403147E-15,-72.));
#316=CARTESIAN_POINT('Origin',(0.,0.,-72.));
#317=CARTESIAN_POINT('Origin',(-6.64394980188594E-15,-1.45305262936626E-15,
-148.));
#318=CARTESIAN_POINT('',(81.5,9.98087141305093E-15,-148.));
#319=CARTESIAN_POINT('Origin',(0.,0.,-148.));
#320=CARTESIAN_POINT('Origin',(0.,132.5,0.));
#321=CARTESIAN_POINT('',(55.,132.5,6.73555739531044E-15));
#322=CARTESIAN_POINT('Origin',(0.,132.5,0.));
#323=CARTESIAN_POINT('',(55.5,133.,-6.79678973526781E-15));
#324=CARTESIAN_POINT('Origin',(0.,133.,0.));
#325=CARTESIAN_POINT('Origin',(0.,133.,0.));
#326=CARTESIAN_POINT('',(55.,72.,-6.73555739531044E-15));
#327=CARTESIAN_POINT('Origin',(0.,72.,0.));
#328=CARTESIAN_POINT('Origin',(6.16633087748822E-15,133.,9.18013870491085E-16));
#329=CARTESIAN_POINT('',(-64.5,133.,7.89897185450043E-15));
#330=CARTESIAN_POINT('Origin',(0.,133.,0.));
#331=CARTESIAN_POINT('Origin',(0.,72.,0.));
#332=CARTESIAN_POINT('',(54.,42.9534631898291,8.88178419700125E-15));
#333=CARTESIAN_POINT('Ctrl Pts',(54.,42.9534631898291,8.88178419700125E-15));
#334=CARTESIAN_POINT('Ctrl Pts',(54.,42.9534631898291,-3.66627777446733));
#335=CARTESIAN_POINT('Ctrl Pts',(53.6239165132644,43.4368711543439,-7.31953672029299));
#336=CARTESIAN_POINT('Ctrl Pts',(52.1674548212288,45.1756886279319,-14.4102987868474));
#337=CARTESIAN_POINT('Ctrl Pts',(51.0877345340664,46.4224218783394,-17.8500618139461));
#338=CARTESIAN_POINT('Ctrl Pts',(48.3138637279765,49.3028217251862,-24.3793386429954));
#339=CARTESIAN_POINT('Ctrl Pts',(46.6170777650888,50.9349052253567,-27.4743412580157));
#340=CARTESIAN_POINT('Ctrl Pts',(42.7259839751559,54.2402692165183,-33.203639252865));
#341=CARTESIAN_POINT('Ctrl Pts',(40.5301788449423,55.9127940917055,-35.8373535232049));
#342=CARTESIAN_POINT('Ctrl Pts',(35.9009883308101,58.9883918073509,-40.466544037337));
#343=CARTESIAN_POINT('Ctrl Pts',(33.3047999949552,60.5141195115157,-42.6473276125117));
#344=CARTESIAN_POINT('Ctrl Pts',(27.5815252915171,63.3279387445949,-46.5538797397988));
#345=CARTESIAN_POINT('Ctrl Pts',(24.4539576510492,64.6149085696013,-48.2797510526039));
#346=CARTESIAN_POINT('Ctrl Pts',(17.8364660802881,66.7453596267759,-51.0959001936862));
#347=CARTESIAN_POINT('Ctrl Pts',(14.338922231905,67.5902297899341,-52.1885871304516));
#348=CARTESIAN_POINT('Ctrl Pts',(7.20422622534845,68.7178505081492,-53.6409586237883));
#349=CARTESIAN_POINT('Ctrl Pts',(3.5668481708446,69.,-54.));
#350=CARTESIAN_POINT('Ctrl Pts',(-3.56684817084458,69.,-54.));
#351=CARTESIAN_POINT('Ctrl Pts',(-7.20422622534844,68.7178505081492,-53.6409586237883));
#352=CARTESIAN_POINT('Ctrl Pts',(-14.338922231905,67.5902297899341,-52.1885871304516));
#353=CARTESIAN_POINT('Ctrl Pts',(-17.8364660802881,66.7453596267759,-51.0959001936862));
#354=CARTESIAN_POINT('Ctrl Pts',(-24.4539576510492,64.6149085696013,-48.2797510526039));
#355=CARTESIAN_POINT('Ctrl Pts',(-27.581525291517,63.327938744595,-46.5538797397988));
#356=CARTESIAN_POINT('Ctrl Pts',(-33.3047999949551,60.5141195115157,-42.6473276125117));
#357=CARTESIAN_POINT('Ctrl Pts',(-35.9009883308101,58.9883918073509,-40.466544037337));
#358=CARTESIAN_POINT('Ctrl Pts',(-40.5301788449422,55.9127940917056,-35.8373535232049));
#359=CARTESIAN_POINT('Ctrl Pts',(-42.7259839751559,54.2402692165183,-33.2036392528651));
#360=CARTESIAN_POINT('Ctrl Pts',(-46.6170777650888,50.9349052253567,-27.4743412580157));
#361=CARTESIAN_POINT('Ctrl Pts',(-48.3138637279765,49.3028217251862,-24.3793386429954));
#362=CARTESIAN_POINT('Ctrl Pts',(-51.0877345340664,46.4224218783394,-17.8500618139461));
#363=CARTESIAN_POINT('Ctrl Pts',(-52.1674548212288,45.1756886279319,-14.4102987868474));
#364=CARTESIAN_POINT('Ctrl Pts',(-53.6239165132644,43.4368711543439,-7.319536720293));
#365=CARTESIAN_POINT('Ctrl Pts',(-54.,42.9534631898291,-3.66627777446734));
#366=CARTESIAN_POINT('Ctrl Pts',(-54.,42.9534631898291,3.66627777446735));
#367=CARTESIAN_POINT('Ctrl Pts',(-53.6239165132644,43.4368711543439,7.319536720293));
#368=CARTESIAN_POINT('Ctrl Pts',(-52.1674548212288,45.1756886279319,14.4102987868474));
#369=CARTESIAN_POINT('Ctrl Pts',(-51.0877345340664,46.4224218783394,17.8500618139461));
#370=CARTESIAN_POINT('Ctrl Pts',(-48.3138637279765,49.3028217251863,24.3793386429954));
#371=CARTESIAN_POINT('Ctrl Pts',(-46.6170777650888,50.9349052253567,27.4743412580157));
#372=CARTESIAN_POINT('Ctrl Pts',(-42.7259839751559,54.2402692165183,33.2036392528651));
#373=CARTESIAN_POINT('Ctrl Pts',(-40.5301788449423,55.9127940917056,35.8373535232049));
#374=CARTESIAN_POINT('Ctrl Pts',(-35.9009883308101,58.9883918073509,40.466544037337));
#375=CARTESIAN_POINT('Ctrl Pts',(-33.3047999949552,60.5141195115157,42.6473276125117));
#376=CARTESIAN_POINT('Ctrl Pts',(-27.5815252915171,63.3279387445949,46.5538797397988));
#377=CARTESIAN_POINT('Ctrl Pts',(-24.4539576510492,64.6149085696014,48.2797510526039));
#378=CARTESIAN_POINT('Ctrl Pts',(-17.8364660802881,66.7453596267759,51.0959001936862));
#379=CARTESIAN_POINT('Ctrl Pts',(-14.338922231905,67.5902297899341,52.1885871304516));
#380=CARTESIAN_POINT('Ctrl Pts',(-7.20422622534846,68.7178505081492,53.6409586237883));
#381=CARTESIAN_POINT('Ctrl Pts',(-3.5668481708446,69.,54.));
#382=CARTESIAN_POINT('Ctrl Pts',(3.56684817084456,69.,54.));
#383=CARTESIAN_POINT('Ctrl Pts',(7.2042262253484,68.7178505081492,53.6409586237883));
#384=CARTESIAN_POINT('Ctrl Pts',(14.3389222319049,67.5902297899342,52.1885871304516));
#385=CARTESIAN_POINT('Ctrl Pts',(17.836466080288,66.7453596267759,51.0959001936863));
#386=CARTESIAN_POINT('Ctrl Pts',(24.4539576510491,64.6149085696014,48.2797510526039));
#387=CARTESIAN_POINT('Ctrl Pts',(27.581525291517,63.327938744595,46.5538797397988));
#388=CARTESIAN_POINT('Ctrl Pts',(33.3047999949551,60.5141195115157,42.6473276125118));
#389=CARTESIAN_POINT('Ctrl Pts',(35.9009883308101,58.9883918073509,40.4665440373371));
#390=CARTESIAN_POINT('Ctrl Pts',(40.5301788449422,55.9127940917056,35.8373535232049));
#391=CARTESIAN_POINT('Ctrl Pts',(42.7259839751559,54.2402692165183,33.2036392528651));
#392=CARTESIAN_POINT('Ctrl Pts',(46.6170777650888,50.9349052253567,27.4743412580158));
#393=CARTESIAN_POINT('Ctrl Pts',(48.3138637279764,49.3028217251863,24.3793386429954));
#394=CARTESIAN_POINT('Ctrl Pts',(51.0877345340664,46.4224218783394,17.8500618139461));
#395=CARTESIAN_POINT('Ctrl Pts',(52.1674548212288,45.1756886279319,14.4102987868474));
#396=CARTESIAN_POINT('Ctrl Pts',(53.6239165132644,43.4368711543439,7.31953672029301));
#397=CARTESIAN_POINT('Ctrl Pts',(54.,42.9534631898291,3.66627777446736));
#398=CARTESIAN_POINT('Ctrl Pts',(54.,42.9534631898291,1.4432899320127E-14));
#399=CARTESIAN_POINT('',(54.,72.,-6.61309271539571E-15));
#400=CARTESIAN_POINT('Origin',(0.,72.,0.));
#401=CARTESIAN_POINT('Origin',(0.,0.,-71.9999999999999));
#402=CARTESIAN_POINT('',(-69.,8.45006291411674E-15,71.9999999999999));
#403=CARTESIAN_POINT('Origin',(0.,0.,71.9999999999999));
#404=CARTESIAN_POINT('',(-69.,8.45006291411674E-15,-71.9999999999999));
#405=CARTESIAN_POINT('Origin',(0.,0.,-71.9999999999999));
#406=CARTESIAN_POINT('Origin',(-4.86761606027648E-15,72.,0.));
#407=CARTESIAN_POINT('Origin',(0.,133.,0.));
#408=CARTESIAN_POINT('',(64.5,49.8196748283246,1.11022302462516E-15));
#409=CARTESIAN_POINT('Ctrl Pts',(64.5,49.8196748283246,1.11022302462516E-15));
#410=CARTESIAN_POINT('Ctrl Pts',(64.5,49.8196748283246,4.39388157243061));
#411=CARTESIAN_POINT('Ctrl Pts',(64.0481881605758,50.4180628523615,8.76188232212512));
#412=CARTESIAN_POINT('Ctrl Pts',(62.3059261850211,52.5559037020053,17.2311511280097));
#413=CARTESIAN_POINT('Ctrl Pts',(61.0161542796574,54.0843652575615,21.3353293300581));
#414=CARTESIAN_POINT('Ctrl Pts',(57.7045235130448,57.6044912342263,29.1265440442253));
#415=CARTESIAN_POINT('Ctrl Pts',(55.6794988569024,59.5943349319599,32.8196982649108));
#416=CARTESIAN_POINT('Ctrl Pts',(51.0342149900774,63.6176096066476,39.6591488353633));
#417=CARTESIAN_POINT('Ctrl Pts',(48.4121298528629,65.6502925093604,42.8046449202018));
#418=CARTESIAN_POINT('Ctrl Pts',(42.8861281756505,69.3816953594574,48.3306465974141));
#419=CARTESIAN_POINT('Ctrl Pts',(39.7891056404109,71.2294984117547,50.9330867420398));
#420=CARTESIAN_POINT('Ctrl Pts',(32.9587887758349,74.6360007921446,55.5973964916466));
#421=CARTESIAN_POINT('Ctrl Pts',(29.2249120984046,76.1933869333807,57.6593722717008));
#422=CARTESIAN_POINT('Ctrl Pts',(21.3214178918823,78.7713462303729,61.0253720070544));
#423=CARTESIAN_POINT('Ctrl Pts',(17.1426473837259,79.7936382943344,62.3322871327798));
#424=CARTESIAN_POINT('Ctrl Pts',(8.61516752231143,81.1583265003407,64.0699872584127));
#425=CARTESIAN_POINT('Ctrl Pts',(4.26618518844477,81.5,64.5));
#426=CARTESIAN_POINT('Ctrl Pts',(-4.26618518844476,81.5,64.5));
#427=CARTESIAN_POINT('Ctrl Pts',(-8.61516752231142,81.1583265003407,64.0699872584127));
#428=CARTESIAN_POINT('Ctrl Pts',(-17.1426473837259,79.7936382943344,62.3322871327798));
#429=CARTESIAN_POINT('Ctrl Pts',(-21.3214178918823,78.7713462303729,61.0253720070544));
#430=CARTESIAN_POINT('Ctrl Pts',(-29.2249120984046,76.1933869333807,57.6593722717009));
#431=CARTESIAN_POINT('Ctrl Pts',(-32.9587887758349,74.6360007921446,55.5973964916467));
#432=CARTESIAN_POINT('Ctrl Pts',(-39.7891056404109,71.2294984117548,50.9330867420399));
#433=CARTESIAN_POINT('Ctrl Pts',(-42.8861281756505,69.3816953594574,48.3306465974141));
#434=CARTESIAN_POINT('Ctrl Pts',(-48.4121298528629,65.6502925093604,42.8046449202018));
#435=CARTESIAN_POINT('Ctrl Pts',(-51.0342149900774,63.6176096066476,39.6591488353633));
#436=CARTESIAN_POINT('Ctrl Pts',(-55.6794988569024,59.5943349319599,32.8196982649107));
#437=CARTESIAN_POINT('Ctrl Pts',(-57.7045235130448,57.6044912342263,29.1265440442253));
#438=CARTESIAN_POINT('Ctrl Pts',(-61.0161542796574,54.0843652575615,21.3353293300581));
#439=CARTESIAN_POINT('Ctrl Pts',(-62.3059261850211,52.5559037020053,17.2311511280097));
#440=CARTESIAN_POINT('Ctrl Pts',(-64.0481881605758,50.4180628523616,8.76188232212511));
#441=CARTESIAN_POINT('Ctrl Pts',(-64.5,49.8196748283246,4.3938815724306));
#442=CARTESIAN_POINT('Ctrl Pts',(-64.5,49.8196748283246,-4.3938815724306));
#443=CARTESIAN_POINT('Ctrl Pts',(-64.0481881605758,50.4180628523615,-8.76188232212511));
#444=CARTESIAN_POINT('Ctrl Pts',(-62.3059261850211,52.5559037020053,-17.2311511280097));
#445=CARTESIAN_POINT('Ctrl Pts',(-61.0161542796574,54.0843652575615,-21.3353293300581));
#446=CARTESIAN_POINT('Ctrl Pts',(-57.7045235130448,57.6044912342263,-29.1265440442253));
#447=CARTESIAN_POINT('Ctrl Pts',(-55.6794988569024,59.5943349319599,-32.8196982649107));
#448=CARTESIAN_POINT('Ctrl Pts',(-51.0342149900775,63.6176096066476,-39.6591488353632));
#449=CARTESIAN_POINT('Ctrl Pts',(-48.4121298528629,65.6502925093604,-42.8046449202017));
#450=CARTESIAN_POINT('Ctrl Pts',(-42.8861281756506,69.3816953594573,-48.3306465974141));
#451=CARTESIAN_POINT('Ctrl Pts',(-39.7891056404109,71.2294984117547,-50.9330867420398));
#452=CARTESIAN_POINT('Ctrl Pts',(-32.9587887758349,74.6360007921446,-55.5973964916466));
#453=CARTESIAN_POINT('Ctrl Pts',(-29.2249120984046,76.1933869333806,-57.6593722717008));
#454=CARTESIAN_POINT('Ctrl Pts',(-21.3214178918823,78.7713462303729,-61.0253720070544));
#455=CARTESIAN_POINT('Ctrl Pts',(-17.1426473837259,79.7936382943344,-62.3322871327798));
#456=CARTESIAN_POINT('Ctrl Pts',(-8.61516752231143,81.1583265003407,-64.0699872584127));
#457=CARTESIAN_POINT('Ctrl Pts',(-4.26618518844477,81.5,-64.5));
#458=CARTESIAN_POINT('Ctrl Pts',(4.26618518844474,81.5,-64.5));
#459=CARTESIAN_POINT('Ctrl Pts',(8.6151675223114,81.1583265003407,-64.0699872584127));
#460=CARTESIAN_POINT('Ctrl Pts',(17.1426473837259,79.7936382943344,-62.3322871327798));
#461=CARTESIAN_POINT('Ctrl Pts',(21.3214178918822,78.7713462303729,-61.0253720070544));
#462=CARTESIAN_POINT('Ctrl Pts',(29.2249120984045,76.1933869333807,-57.6593722717009));
#463=CARTESIAN_POINT('Ctrl Pts',(32.9587887758349,74.6360007921446,-55.5973964916467));
#464=CARTESIAN_POINT('Ctrl Pts',(39.7891056404108,71.2294984117548,-50.9330867420399));
#465=CARTESIAN_POINT('Ctrl Pts',(42.8861281756505,69.3816953594574,-48.3306465974141));
#466=CARTESIAN_POINT('Ctrl Pts',(48.4121298528628,65.6502925093604,-42.8046449202018));
#467=CARTESIAN_POINT('Ctrl Pts',(51.0342149900774,63.6176096066477,-39.6591488353633));
#468=CARTESIAN_POINT('Ctrl Pts',(55.6794988569024,59.5943349319599,-32.8196982649108));
#469=CARTESIAN_POINT('Ctrl Pts',(57.7045235130447,57.6044912342264,-29.1265440442254));
#470=CARTESIAN_POINT('Ctrl Pts',(61.0161542796573,54.0843652575616,-21.3353293300582));
#471=CARTESIAN_POINT('Ctrl Pts',(62.305926185021,52.5559037020053,-17.2311511280097));
#472=CARTESIAN_POINT('Ctrl Pts',(64.0481881605758,50.4180628523615,-8.76188232212512));
#473=CARTESIAN_POINT('Ctrl Pts',(64.5,49.8196748283246,-4.39388157243061));
#474=CARTESIAN_POINT('Ctrl Pts',(64.5,49.8196748283246,1.11022302462516E-15));
#475=CARTESIAN_POINT('Origin',(0.,0.,0.));
#476=CARTESIAN_POINT('Origin',(-7.48145097340834E-15,1.69176841847643E-15,
-71.9999999999999));
#477=CARTESIAN_POINT('Origin',(-7.48145097340834E-15,1.69176841847643E-15,
71.9999999999999));
#478=UNCERTAINTY_MEASURE_WITH_UNIT(LENGTH_MEASURE(0.01),#482,
'DISTANCE_ACCURACY_VALUE',
'Maximum model space distance between geometric entities at asserted c
onnectivities');
#479=UNCERTAINTY_MEASURE_WITH_UNIT(LENGTH_MEASURE(1.E-6),#482,
'DISTANCE_ACCURACY_VALUE',
'Maximum model space distance between geometric entities at asserted c
onnectivities');
#480=(
GEOMETRIC_REPRESENTATION_CONTEXT(3)
GLOBAL_UNCERTAINTY_ASSIGNED_CONTEXT((#478))
GLOBAL_UNIT_ASSIGNED_CONTEXT((#482,#485,#483))
REPRESENTATION_CONTEXT('','3D')
);
#481=(
GEOMETRIC_REPRESENTATION_CONTEXT(3)
GLOBAL_UNCERTAINTY_ASSIGNED_CONTEXT((#479))
GLOBAL_UNIT_ASSIGNED_CONTEXT((#482,#485,#483))
REPRESENTATION_CONTEXT('','3D')
);
#482=(
LENGTH_UNIT()
NAMED_UNIT(*)
SI_UNIT(.MILLI.,.METRE.)
);
#483=(
NAMED_UNIT(*)
SI_UNIT($,.STERADIAN.)
SOLID_ANGLE_UNIT()
);
#484=DIMENSIONAL_EXPONENTS(0.,0.,0.,0.,0.,0.,0.);
#485=(
CONVERSION_BASED_UNIT('degree',#487)
NAMED_UNIT(#484)
PLANE_ANGLE_UNIT()
);
#486=(
NAMED_UNIT(*)
PLANE_ANGLE_UNIT()
SI_UNIT($,.RADIAN.)
);
#487=PLANE_ANGLE_MEASURE_WITH_UNIT(PLANE_ANGLE_MEASURE(0.01745329252),#486);
#488=SHAPE_DEFINITION_REPRESENTATION(#489,#490);
#489=PRODUCT_DEFINITION_SHAPE('',$,#492);
#490=SHAPE_REPRESENTATION('',(#201),#480);
#491=PRODUCT_DEFINITION_CONTEXT('part definition',#496,'design');
#492=PRODUCT_DEFINITION('TR40140L','TR40140L',#493,#491);
#493=PRODUCT_DEFINITION_FORMATION('',$,#498);
#494=PRODUCT_RELATED_PRODUCT_CATEGORY('TR40140L','TR40140L',(#498));
#495=APPLICATION_PROTOCOL_DEFINITION('international standard',
'automotive_design',2009,#496);
#496=APPLICATION_CONTEXT(
'Core Data for Automotive Mechanical Design Process');
#497=PRODUCT_CONTEXT('part definition',#496,'mechanical');
#498=PRODUCT('TR40140L','TR40140L',$,(#497));
#499=PRESENTATION_STYLE_ASSIGNMENT((#500));
#500=SURFACE_STYLE_USAGE(.BOTH.,#501);
#501=SURFACE_SIDE_STYLE('',(#502));
#502=SURFACE_STYLE_FILL_AREA(#503);
#503=FILL_AREA_STYLE('',(#504));
#504=FILL_AREA_STYLE_COLOUR('',#505);
#505=COLOUR_RGB('',0.8,0.8,0.8);
ENDSEC;
END-ISO-10303-21;
