ISO-10303-21;
HEADER;
FILE_DESCRIPTION( ( 'STEP AP214' ), '1' );
FILE_NAME( 'p:/temp/worker_6/temp/exporttempdir_5612_551_3jemm/format_0/22056009007(architecture400).stp', '2021-11-18T07:28:55', ( 'License CC BY-ND 4.0' ), ( 'CADENAS' ), ' ', 'PARTsolutions', ' ' );
FILE_SCHEMA( ( 'AUTOMOTIVE_DESIGN { 1 0 10303 214 1 1 1 1 }' ) );
ENDSEC;
DATA;
#1 = MECHANICAL_DESIGN_GEOMETRIC_PRESENTATION_REPRESENTATION( ' ', ( #10, #11, #12, #13, #14, #15, #16, #17, #18, #19, #20, #21, #22 ), #6 );
#2 = PRODUCT_DEFINITION_CONTEXT( '', #23, 'design' );
#3 = APPLICATION_PROTOCOL_DEFINITION( 'international standard', 'automotive_design', 2001, #23 );
#4 = PRODUCT_CATEGORY_RELATIONSHIP( 'NONE', 'NONE', #24, #25 );
#5 = SHAPE_DEFINITION_REPRESENTATION( #26, #27 );
#6 =  ( GEOMETRIC_REPRESENTATION_CONTEXT( 3 )GLOBAL_UNCERTAINTY_ASSIGNED_CONTEXT( ( #30 ) )GLOBAL_UNIT_ASSIGNED_CONTEXT( ( #32, #33, #34 ) )REPRESENTATION_CONTEXT( 'NONE', 'WORKSPACE' ) );
#10 = STYLED_ITEM( '', ( #36 ), #37 );
#11 = STYLED_ITEM( '', ( #38 ), #39 );
#12 = STYLED_ITEM( '', ( #40 ), #41 );
#13 = STYLED_ITEM( '', ( #42 ), #43 );
#14 = STYLED_ITEM( '', ( #44 ), #45 );
#15 = STYLED_ITEM( '', ( #46 ), #47 );
#16 = STYLED_ITEM( '', ( #48 ), #49 );
#17 = STYLED_ITEM( '', ( #50 ), #51 );
#18 = STYLED_ITEM( '', ( #52 ), #53 );
#19 = STYLED_ITEM( '', ( #54 ), #55 );
#20 = STYLED_ITEM( '', ( #56 ), #57 );
#21 = STYLED_ITEM( '', ( #58 ), #59 );
#22 = STYLED_ITEM( '', ( #60 ), #61 );
#23 = APPLICATION_CONTEXT( 'core data for automotive mechanical design processes' );
#24 = PRODUCT_CATEGORY( 'part', 'NONE' );
#25 = PRODUCT_RELATED_PRODUCT_CATEGORY( 'detail', ' ', ( #62 ) );
#26 = PRODUCT_DEFINITION_SHAPE( 'NONE', 'NONE', #63 );
#27 = ADVANCED_BREP_SHAPE_REPRESENTATION( '_22056009007(architecture400)', ( #64, #65 ), #6 );
#30 = UNCERTAINTY_MEASURE_WITH_UNIT( LENGTH_MEASURE( 0.00100000000000000 ), #32, '', '' );
#32 =  ( CONVERSION_BASED_UNIT( 'MILLIMETRE', #68 )LENGTH_UNIT(  )NAMED_UNIT( #71 ) );
#33 =  ( NAMED_UNIT( #73 )PLANE_ANGLE_UNIT(  )SI_UNIT( $, .RADIAN. ) );
#34 =  ( NAMED_UNIT( #73 )SI_UNIT( $, .STERADIAN. )SOLID_ANGLE_UNIT(  ) );
#36 = PRESENTATION_STYLE_ASSIGNMENT( ( #79 ) );
#37 = ADVANCED_FACE( '', ( #80, #81 ), #82, .F. );
#38 = PRESENTATION_STYLE_ASSIGNMENT( ( #83 ) );
#39 = ADVANCED_FACE( '', ( #84, #85 ), #86, .F. );
#40 = PRESENTATION_STYLE_ASSIGNMENT( ( #87 ) );
#41 = ADVANCED_FACE( '', ( #88, #89 ), #90, .T. );
#42 = PRESENTATION_STYLE_ASSIGNMENT( ( #91 ) );
#43 = ADVANCED_FACE( '', ( #92, #93 ), #94, .F. );
#44 = PRESENTATION_STYLE_ASSIGNMENT( ( #95 ) );
#45 = ADVANCED_FACE( '', ( #96, #97, #98 ), #99, .F. );
#46 = PRESENTATION_STYLE_ASSIGNMENT( ( #100 ) );
#47 = ADVANCED_FACE( '', ( #101, #102 ), #103, .T. );
#48 = PRESENTATION_STYLE_ASSIGNMENT( ( #104 ) );
#49 = ADVANCED_FACE( '', ( #105, #106, #107 ), #108, .T. );
#50 = PRESENTATION_STYLE_ASSIGNMENT( ( #109 ) );
#51 = ADVANCED_FACE( '', ( #110, #111 ), #112, .F. );
#52 = PRESENTATION_STYLE_ASSIGNMENT( ( #113 ) );
#53 = ADVANCED_FACE( '', ( #114, #115 ), #116, .T. );
#54 = PRESENTATION_STYLE_ASSIGNMENT( ( #117 ) );
#55 = ADVANCED_FACE( '', ( #118, #119 ), #120, .T. );
#56 = PRESENTATION_STYLE_ASSIGNMENT( ( #121 ) );
#57 = ADVANCED_FACE( '', ( #122, #123 ), #124, .F. );
#58 = PRESENTATION_STYLE_ASSIGNMENT( ( #125 ) );
#59 = ADVANCED_FACE( '', ( #126, #127 ), #128, .T. );
#60 = PRESENTATION_STYLE_ASSIGNMENT( ( #129 ) );
#61 = ADVANCED_FACE( '', ( #130, #131 ), #132, .T. );
#62 = PRODUCT( '_22056009007(architecture400)', '_22056009007(architecture400)', 'PART-_22056009007(architecture400)-DESC', ( #133 ) );
#63 = PRODUCT_DEFINITION( 'NONE', 'NONE', #134, #2 );
#64 = MANIFOLD_SOLID_BREP( '_22056009007(architecture400)', #135 );
#65 = AXIS2_PLACEMENT_3D( '', #136, #137, #138 );
#68 = LENGTH_MEASURE_WITH_UNIT( LENGTH_MEASURE( 1.00000000000000 ), #139 );
#71 = DIMENSIONAL_EXPONENTS( 1.00000000000000, 0.000000000000000, 0.000000000000000, 0.000000000000000, 0.000000000000000, 0.000000000000000, 0.000000000000000 );
#73 = DIMENSIONAL_EXPONENTS( 0.000000000000000, 0.000000000000000, 0.000000000000000, 0.000000000000000, 0.000000000000000, 0.000000000000000, 0.000000000000000 );
#79 = SURFACE_STYLE_USAGE( .BOTH., #140 );
#80 = FACE_OUTER_BOUND( '', #141, .T. );
#81 = FACE_OUTER_BOUND( '', #142, .T. );
#82 = CYLINDRICAL_SURFACE( '', #143, 41.0000000000000 );
#83 = SURFACE_STYLE_USAGE( .BOTH., #144 );
#84 = FACE_OUTER_BOUND( '', #145, .T. );
#85 = FACE_OUTER_BOUND( '', #146, .T. );
#86 = CYLINDRICAL_SURFACE( '', #147, 45.0000000000000 );
#87 = SURFACE_STYLE_USAGE( .BOTH., #148 );
#88 = FACE_OUTER_BOUND( '', #149, .T. );
#89 = FACE_OUTER_BOUND( '', #150, .T. );
#90 = CYLINDRICAL_SURFACE( '', #151, 57.0000000000000 );
#91 = SURFACE_STYLE_USAGE( .BOTH., #152 );
#92 = FACE_OUTER_BOUND( '', #153, .T. );
#93 = FACE_OUTER_BOUND( '', #154, .T. );
#94 = CYLINDRICAL_SURFACE( '', #155, 45.0000000000000 );
#95 = SURFACE_STYLE_USAGE( .BOTH., #156 );
#96 = FACE_OUTER_BOUND( '', #157, .T. );
#97 = FACE_BOUND( '', #158, .T. );
#98 = FACE_OUTER_BOUND( '', #159, .T. );
#99 = CYLINDRICAL_SURFACE( '', #160, 41.0000000000000 );
#100 = SURFACE_STYLE_USAGE( .BOTH., #161 );
#101 = FACE_BOUND( '', #162, .T. );
#102 = FACE_OUTER_BOUND( '', #163, .T. );
#103 = PLANE( '', #164 );
#104 = SURFACE_STYLE_USAGE( .BOTH., #165 );
#105 = FACE_OUTER_BOUND( '', #166, .T. );
#106 = FACE_OUTER_BOUND( '', #167, .T. );
#107 = FACE_BOUND( '', #168, .T. );
#108 = CYLINDRICAL_SURFACE( '', #169, 57.0000000000000 );
#109 = SURFACE_STYLE_USAGE( .BOTH., #170 );
#110 = FACE_OUTER_BOUND( '', #171, .T. );
#111 = FACE_OUTER_BOUND( '', #172, .T. );
#112 = CYLINDRICAL_SURFACE( '', #173, 45.0000000000000 );
#113 = SURFACE_STYLE_USAGE( .BOTH., #174 );
#114 = FACE_BOUND( '', #175, .T. );
#115 = FACE_OUTER_BOUND( '', #176, .T. );
#116 = PLANE( '', #177 );
#117 = SURFACE_STYLE_USAGE( .BOTH., #178 );
#118 = FACE_OUTER_BOUND( '', #179, .T. );
#119 = FACE_BOUND( '', #180, .T. );
#120 = PLANE( '', #181 );
#121 = SURFACE_STYLE_USAGE( .BOTH., #182 );
#122 = FACE_BOUND( '', #183, .T. );
#123 = FACE_OUTER_BOUND( '', #184, .T. );
#124 = PLANE( '', #185 );
#125 = SURFACE_STYLE_USAGE( .BOTH., #186 );
#126 = FACE_BOUND( '', #187, .T. );
#127 = FACE_OUTER_BOUND( '', #188, .T. );
#128 = PLANE( '', #189 );
#129 = SURFACE_STYLE_USAGE( .BOTH., #190 );
#130 = FACE_BOUND( '', #191, .T. );
#131 = FACE_OUTER_BOUND( '', #192, .T. );
#132 = PLANE( '', #193 );
#133 = PRODUCT_CONTEXT( '', #23, 'mechanical' );
#134 = PRODUCT_DEFINITION_FORMATION_WITH_SPECIFIED_SOURCE( ' ', 'NONE', #62, .NOT_KNOWN. );
#135 = CLOSED_SHELL( '', ( #45, #49, #61, #57, #41, #59, #39, #47, #55, #43, #51, #53, #37 ) );
#136 = CARTESIAN_POINT( '', ( 0.000000000000000, 0.000000000000000, 0.000000000000000 ) );
#137 = DIRECTION( '', ( 0.000000000000000, 0.000000000000000, 1.00000000000000 ) );
#138 = DIRECTION( '', ( 1.00000000000000, 0.000000000000000, 0.000000000000000 ) );
#139 =  ( LENGTH_UNIT(  )NAMED_UNIT( #71 )SI_UNIT( .MILLI., .METRE. ) );
#140 = SURFACE_SIDE_STYLE( '', ( #195 ) );
#141 = EDGE_LOOP( '', ( #196, #197 ) );
#142 = EDGE_LOOP( '', ( #198 ) );
#143 = AXIS2_PLACEMENT_3D( '', #199, #200, #201 );
#144 = SURFACE_SIDE_STYLE( '', ( #202 ) );
#145 = EDGE_LOOP( '', ( #203 ) );
#146 = EDGE_LOOP( '', ( #204 ) );
#147 = AXIS2_PLACEMENT_3D( '', #205, #206, #207 );
#148 = SURFACE_SIDE_STYLE( '', ( #208 ) );
#149 = EDGE_LOOP( '', ( #209 ) );
#150 = EDGE_LOOP( '', ( #210, #211 ) );
#151 = AXIS2_PLACEMENT_3D( '', #212, #213, #214 );
#152 = SURFACE_SIDE_STYLE( '', ( #215 ) );
#153 = EDGE_LOOP( '', ( #216 ) );
#154 = EDGE_LOOP( '', ( #217 ) );
#155 = AXIS2_PLACEMENT_3D( '', #218, #219, #220 );
#156 = SURFACE_SIDE_STYLE( '', ( #221 ) );
#157 = EDGE_LOOP( '', ( #222 ) );
#158 = EDGE_LOOP( '', ( #223, #224 ) );
#159 = EDGE_LOOP( '', ( #225 ) );
#160 = AXIS2_PLACEMENT_3D( '', #226, #227, #228 );
#161 = SURFACE_SIDE_STYLE( '', ( #229 ) );
#162 = EDGE_LOOP( '', ( #230 ) );
#163 = EDGE_LOOP( '', ( #231 ) );
#164 = AXIS2_PLACEMENT_3D( '', #232, #233, #234 );
#165 = SURFACE_SIDE_STYLE( '', ( #235 ) );
#166 = EDGE_LOOP( '', ( #236 ) );
#167 = EDGE_LOOP( '', ( #237 ) );
#168 = EDGE_LOOP( '', ( #238, #239 ) );
#169 = AXIS2_PLACEMENT_3D( '', #240, #241, #242 );
#170 = SURFACE_SIDE_STYLE( '', ( #243 ) );
#171 = EDGE_LOOP( '', ( #244 ) );
#172 = EDGE_LOOP( '', ( #245 ) );
#173 = AXIS2_PLACEMENT_3D( '', #246, #247, #248 );
#174 = SURFACE_SIDE_STYLE( '', ( #249 ) );
#175 = EDGE_LOOP( '', ( #250 ) );
#176 = EDGE_LOOP( '', ( #251 ) );
#177 = AXIS2_PLACEMENT_3D( '', #252, #253, #254 );
#178 = SURFACE_SIDE_STYLE( '', ( #255 ) );
#179 = EDGE_LOOP( '', ( #256 ) );
#180 = EDGE_LOOP( '', ( #257 ) );
#181 = AXIS2_PLACEMENT_3D( '', #258, #259, #260 );
#182 = SURFACE_SIDE_STYLE( '', ( #261 ) );
#183 = EDGE_LOOP( '', ( #262 ) );
#184 = EDGE_LOOP( '', ( #263 ) );
#185 = AXIS2_PLACEMENT_3D( '', #264, #265, #266 );
#186 = SURFACE_SIDE_STYLE( '', ( #267 ) );
#187 = EDGE_LOOP( '', ( #268 ) );
#188 = EDGE_LOOP( '', ( #269 ) );
#189 = AXIS2_PLACEMENT_3D( '', #270, #271, #272 );
#190 = SURFACE_SIDE_STYLE( '', ( #273 ) );
#191 = EDGE_LOOP( '', ( #274 ) );
#192 = EDGE_LOOP( '', ( #275 ) );
#193 = AXIS2_PLACEMENT_3D( '', #276, #277, #278 );
#195 = SURFACE_STYLE_FILL_AREA( #279 );
#196 = ORIENTED_EDGE( '', *, *, #280, .F. );
#197 = ORIENTED_EDGE( '', *, *, #281, .F. );
#198 = ORIENTED_EDGE( '', *, *, #282, .F. );
#199 = CARTESIAN_POINT( '', ( -55.0000000000000, 0.000000000000000, 0.000000000000000 ) );
#200 = DIRECTION( '', ( 0.000000000000000, -0.000000000000000, 1.00000000000000 ) );
#201 = DIRECTION( '', ( -1.00000000000000, 0.000000000000000, 0.000000000000000 ) );
#202 = SURFACE_STYLE_FILL_AREA( #283 );
#203 = ORIENTED_EDGE( '', *, *, #284, .T. );
#204 = ORIENTED_EDGE( '', *, *, #285, .F. );
#205 = CARTESIAN_POINT( '', ( 36.5000000000000, 0.000000000000000, 0.000000000000000 ) );
#206 = DIRECTION( '', ( -1.00000000000000, -0.000000000000000, 0.000000000000000 ) );
#207 = DIRECTION( '', ( -0.000000000000000, 0.000000000000000, -1.00000000000000 ) );
#208 = SURFACE_STYLE_FILL_AREA( #286 );
#209 = ORIENTED_EDGE( '', *, *, #287, .F. );
#210 = ORIENTED_EDGE( '', *, *, #288, .T. );
#211 = ORIENTED_EDGE( '', *, *, #289, .T. );
#212 = CARTESIAN_POINT( '', ( -55.0000000000000, 0.000000000000000, 88.0000000000000 ) );
#213 = DIRECTION( '', ( 0.000000000000000, -0.000000000000000, 1.00000000000000 ) );
#214 = DIRECTION( '', ( -1.00000000000000, 0.000000000000000, 0.000000000000000 ) );
#215 = SURFACE_STYLE_FILL_AREA( #290 );
#216 = ORIENTED_EDGE( '', *, *, #291, .T. );
#217 = ORIENTED_EDGE( '', *, *, #292, .F. );
#218 = CARTESIAN_POINT( '', ( 36.5000000000000, 0.000000000000000, 0.000000000000000 ) );
#219 = DIRECTION( '', ( -1.00000000000000, -0.000000000000000, 0.000000000000000 ) );
#220 = DIRECTION( '', ( -0.000000000000000, 0.000000000000000, -1.00000000000000 ) );
#221 = SURFACE_STYLE_FILL_AREA( #293 );
#222 = ORIENTED_EDGE( '', *, *, #294, .T. );
#223 = ORIENTED_EDGE( '', *, *, #280, .T. );
#224 = ORIENTED_EDGE( '', *, *, #281, .T. );
#225 = ORIENTED_EDGE( '', *, *, #295, .F. );
#226 = CARTESIAN_POINT( '', ( 36.5000000000000, 0.000000000000000, 0.000000000000000 ) );
#227 = DIRECTION( '', ( -1.00000000000000, -0.000000000000000, 0.000000000000000 ) );
#228 = DIRECTION( '', ( -0.000000000000000, 0.000000000000000, -1.00000000000000 ) );
#229 = SURFACE_STYLE_FILL_AREA( #296 );
#230 = ORIENTED_EDGE( '', *, *, #295, .T. );
#231 = ORIENTED_EDGE( '', *, *, #284, .F. );
#232 = CARTESIAN_POINT( '', ( -110.000000000000, 0.000000000000000, 45.0000000000000 ) );
#233 = DIRECTION( '', ( -1.00000000000000, 0.000000000000000, 0.000000000000000 ) );
#234 = DIRECTION( '', ( 0.000000000000000, 0.000000000000000, 1.00000000000000 ) );
#235 = SURFACE_STYLE_FILL_AREA( #297 );
#236 = ORIENTED_EDGE( '', *, *, #298, .T. );
#237 = ORIENTED_EDGE( '', *, *, #299, .F. );
#238 = ORIENTED_EDGE( '', *, *, #289, .F. );
#239 = ORIENTED_EDGE( '', *, *, #288, .F. );
#240 = CARTESIAN_POINT( '', ( 36.5000000000000, 0.000000000000000, 0.000000000000000 ) );
#241 = DIRECTION( '', ( 1.00000000000000, -0.000000000000000, -0.000000000000000 ) );
#242 = DIRECTION( '', ( 0.000000000000000, 0.000000000000000, 1.00000000000000 ) );
#243 = SURFACE_STYLE_FILL_AREA( #300 );
#244 = ORIENTED_EDGE( '', *, *, #301, .T. );
#245 = ORIENTED_EDGE( '', *, *, #302, .F. );
#246 = CARTESIAN_POINT( '', ( -55.0000000000000, 0.000000000000000, 0.000000000000000 ) );
#247 = DIRECTION( '', ( 0.000000000000000, -0.000000000000000, 1.00000000000000 ) );
#248 = DIRECTION( '', ( -1.00000000000000, 0.000000000000000, 0.000000000000000 ) );
#249 = SURFACE_STYLE_FILL_AREA( #303 );
#250 = ORIENTED_EDGE( '', *, *, #282, .T. );
#251 = ORIENTED_EDGE( '', *, *, #301, .F. );
#252 = CARTESIAN_POINT( '', ( -10.0000000000000, 0.000000000000000, 51.5000000000000 ) );
#253 = DIRECTION( '', ( 0.000000000000000, 0.000000000000000, 1.00000000000000 ) );
#254 = DIRECTION( '', ( 1.00000000000000, 0.000000000000000, -0.000000000000000 ) );
#255 = SURFACE_STYLE_FILL_AREA( #304 );
#256 = ORIENTED_EDGE( '', *, *, #292, .T. );
#257 = ORIENTED_EDGE( '', *, *, #294, .F. );
#258 = CARTESIAN_POINT( '', ( 0.000000000000000, 0.000000000000000, 41.0000000000000 ) );
#259 = DIRECTION( '', ( 1.00000000000000, 0.000000000000000, -0.000000000000000 ) );
#260 = DIRECTION( '', ( -0.000000000000000, 0.000000000000000, -1.00000000000000 ) );
#261 = SURFACE_STYLE_FILL_AREA( #305 );
#262 = ORIENTED_EDGE( '', *, *, #285, .T. );
#263 = ORIENTED_EDGE( '', *, *, #298, .F. );
#264 = CARTESIAN_POINT( '', ( -146.500000000000, 0.000000000000000, 0.000000000000000 ) );
#265 = DIRECTION( '', ( 1.00000000000000, 0.000000000000000, 0.000000000000000 ) );
#266 = DIRECTION( '', ( 0.000000000000000, 0.000000000000000, -1.00000000000000 ) );
#267 = SURFACE_STYLE_FILL_AREA( #306 );
#268 = ORIENTED_EDGE( '', *, *, #302, .T. );
#269 = ORIENTED_EDGE( '', *, *, #287, .T. );
#270 = CARTESIAN_POINT( '', ( -55.0000000000000, 0.000000000000000, 88.0000000000000 ) );
#271 = DIRECTION( '', ( 0.000000000000000, 0.000000000000000, 1.00000000000000 ) );
#272 = DIRECTION( '', ( 1.00000000000000, 0.000000000000000, -0.000000000000000 ) );
#273 = SURFACE_STYLE_FILL_AREA( #307 );
#274 = ORIENTED_EDGE( '', *, *, #291, .F. );
#275 = ORIENTED_EDGE( '', *, *, #299, .T. );
#276 = CARTESIAN_POINT( '', ( 36.5000000000000, 0.000000000000000, 0.000000000000000 ) );
#277 = DIRECTION( '', ( 1.00000000000000, 0.000000000000000, 0.000000000000000 ) );
#278 = DIRECTION( '', ( 0.000000000000000, 0.000000000000000, -1.00000000000000 ) );
#279 = FILL_AREA_STYLE( '', ( #308 ) );
#280 = EDGE_CURVE( '', #309, #310, #311, .F. );
#281 = EDGE_CURVE( '', #310, #309, #312, .T. );
#282 = EDGE_CURVE( '', #313, #313, #314, .T. );
#283 = FILL_AREA_STYLE( '', ( #315 ) );
#284 = EDGE_CURVE( '', #316, #316, #317, .T. );
#285 = EDGE_CURVE( '', #318, #318, #319, .T. );
#286 = FILL_AREA_STYLE( '', ( #320 ) );
#287 = EDGE_CURVE( '', #321, #321, #322, .T. );
#288 = EDGE_CURVE( '', #323, #324, #325, .T. );
#289 = EDGE_CURVE( '', #324, #323, #326, .F. );
#290 = FILL_AREA_STYLE( '', ( #327 ) );
#291 = EDGE_CURVE( '', #328, #328, #329, .T. );
#292 = EDGE_CURVE( '', #330, #330, #331, .T. );
#293 = FILL_AREA_STYLE( '', ( #332 ) );
#294 = EDGE_CURVE( '', #333, #333, #334, .T. );
#295 = EDGE_CURVE( '', #335, #335, #336, .T. );
#296 = FILL_AREA_STYLE( '', ( #337 ) );
#297 = FILL_AREA_STYLE( '', ( #338 ) );
#298 = EDGE_CURVE( '', #339, #339, #340, .T. );
#299 = EDGE_CURVE( '', #341, #341, #342, .T. );
#300 = FILL_AREA_STYLE( '', ( #343 ) );
#301 = EDGE_CURVE( '', #344, #344, #345, .T. );
#302 = EDGE_CURVE( '', #346, #346, #347, .T. );
#303 = FILL_AREA_STYLE( '', ( #348 ) );
#304 = FILL_AREA_STYLE( '', ( #349 ) );
#305 = FILL_AREA_STYLE( '', ( #350 ) );
#306 = FILL_AREA_STYLE( '', ( #351 ) );
#307 = FILL_AREA_STYLE( '', ( #352 ) );
#308 = FILL_AREA_STYLE_COLOUR( '', #353 );
#309 = VERTEX_POINT( '', #354 );
#310 = VERTEX_POINT( '', #355 );
#311 = ELLIPSE( '', #356, 57.9827560573000, 41.0000000000000 );
#312 = ELLIPSE( '', #357, 57.9827560573000, 41.0000000000000 );
#313 = VERTEX_POINT( '', #358 );
#314 = CIRCLE( '', #359, 41.0000000000000 );
#315 = FILL_AREA_STYLE_COLOUR( '', #360 );
#316 = VERTEX_POINT( '', #361 );
#317 = CIRCLE( '', #362, 45.0000000000000 );
#318 = VERTEX_POINT( '', #363 );
#319 = CIRCLE( '', #364, 45.0000000000000 );
#320 = FILL_AREA_STYLE_COLOUR( '', #365 );
#321 = VERTEX_POINT( '', #366 );
#322 = CIRCLE( '', #367, 57.0000000000000 );
#323 = VERTEX_POINT( '', #368 );
#324 = VERTEX_POINT( '', #369 );
#325 = ELLIPSE( '', #370, 80.6101730553000, 57.0000000000000 );
#326 = ELLIPSE( '', #371, 80.6101730553000, 57.0000000000000 );
#327 = FILL_AREA_STYLE_COLOUR( '', #372 );
#328 = VERTEX_POINT( '', #373 );
#329 = CIRCLE( '', #374, 45.0000000000000 );
#330 = VERTEX_POINT( '', #375 );
#331 = CIRCLE( '', #376, 45.0000000000000 );
#332 = FILL_AREA_STYLE_COLOUR( '', #377 );
#333 = VERTEX_POINT( '', #378 );
#334 = CIRCLE( '', #379, 41.0000000000000 );
#335 = VERTEX_POINT( '', #380 );
#336 = CIRCLE( '', #381, 41.0000000000000 );
#337 = FILL_AREA_STYLE_COLOUR( '', #382 );
#338 = FILL_AREA_STYLE_COLOUR( '', #383 );
#339 = VERTEX_POINT( '', #384 );
#340 = CIRCLE( '', #385, 57.0000000000000 );
#341 = VERTEX_POINT( '', #386 );
#342 = CIRCLE( '', #387, 57.0000000000000 );
#343 = FILL_AREA_STYLE_COLOUR( '', #388 );
#344 = VERTEX_POINT( '', #389 );
#345 = CIRCLE( '', #390, 45.0000000000000 );
#346 = VERTEX_POINT( '', #391 );
#347 = CIRCLE( '', #392, 45.0000000000000 );
#348 = FILL_AREA_STYLE_COLOUR( '', #393 );
#349 = FILL_AREA_STYLE_COLOUR( '', #394 );
#350 = FILL_AREA_STYLE_COLOUR( '', #395 );
#351 = FILL_AREA_STYLE_COLOUR( '', #396 );
#352 = FILL_AREA_STYLE_COLOUR( '', #397 );
#353 = COLOUR_RGB( '', 0.689999997600000, 0.689999997600000, 0.689999997600000 );
#354 = CARTESIAN_POINT( '', ( -55.0000000000000, -41.0000000000000, 0.000000000000000 ) );
#355 = CARTESIAN_POINT( '', ( -55.0000000000000, 41.0000000000000, 0.000000000000000 ) );
#356 = AXIS2_PLACEMENT_3D( '', #398, #399, #400 );
#357 = AXIS2_PLACEMENT_3D( '', #401, #402, #403 );
#358 = CARTESIAN_POINT( '', ( -96.0000000000000, 0.000000000000000, 51.5000000000000 ) );
#359 = AXIS2_PLACEMENT_3D( '', #404, #405, #406 );
#360 = COLOUR_RGB( '', 0.689999997600000, 0.689999997600000, 0.689999997600000 );
#361 = CARTESIAN_POINT( '', ( -110.000000000000, 0.000000000000000, -45.0000000000000 ) );
#362 = AXIS2_PLACEMENT_3D( '', #407, #408, #409 );
#363 = CARTESIAN_POINT( '', ( -146.500000000000, 0.000000000000000, -45.0000000000000 ) );
#364 = AXIS2_PLACEMENT_3D( '', #410, #411, #412 );
#365 = COLOUR_RGB( '', 0.689999997600000, 0.689999997600000, 0.689999997600000 );
#366 = CARTESIAN_POINT( '', ( 2.00000000000000, 0.000000000000000, 88.0000000000000 ) );
#367 = AXIS2_PLACEMENT_3D( '', #413, #414, #415 );
#368 = CARTESIAN_POINT( '', ( -55.0000000000000, -57.0000000000000, 0.000000000000000 ) );
#369 = CARTESIAN_POINT( '', ( -55.0000000000000, 57.0000000000000, 0.000000000000000 ) );
#370 = AXIS2_PLACEMENT_3D( '', #416, #417, #418 );
#371 = AXIS2_PLACEMENT_3D( '', #419, #420, #421 );
#372 = COLOUR_RGB( '', 0.689999997600000, 0.689999997600000, 0.689999997600000 );
#373 = CARTESIAN_POINT( '', ( 36.5000000000000, 0.000000000000000, -45.0000000000000 ) );
#374 = AXIS2_PLACEMENT_3D( '', #422, #423, #424 );
#375 = CARTESIAN_POINT( '', ( 0.000000000000000, 0.000000000000000, -45.0000000000000 ) );
#376 = AXIS2_PLACEMENT_3D( '', #425, #426, #427 );
#377 = COLOUR_RGB( '', 0.689999997600000, 0.689999997600000, 0.689999997600000 );
#378 = CARTESIAN_POINT( '', ( 0.000000000000000, 0.000000000000000, -41.0000000000000 ) );
#379 = AXIS2_PLACEMENT_3D( '', #428, #429, #430 );
#380 = CARTESIAN_POINT( '', ( -110.000000000000, 0.000000000000000, -41.0000000000000 ) );
#381 = AXIS2_PLACEMENT_3D( '', #431, #432, #433 );
#382 = COLOUR_RGB( '', 0.689999997600000, 0.689999997600000, 0.689999997600000 );
#383 = COLOUR_RGB( '', 0.689999997600000, 0.689999997600000, 0.689999997600000 );
#384 = CARTESIAN_POINT( '', ( -146.500000000000, 57.0000000000000, 0.000000000000000 ) );
#385 = AXIS2_PLACEMENT_3D( '', #434, #435, #436 );
#386 = CARTESIAN_POINT( '', ( 36.5000000000000, 57.0000000000000, 0.000000000000000 ) );
#387 = AXIS2_PLACEMENT_3D( '', #437, #438, #439 );
#388 = COLOUR_RGB( '', 0.689999997600000, 0.689999997600000, 0.689999997600000 );
#389 = CARTESIAN_POINT( '', ( -100.000000000000, 0.000000000000000, 51.5000000000000 ) );
#390 = AXIS2_PLACEMENT_3D( '', #440, #441, #442 );
#391 = CARTESIAN_POINT( '', ( -100.000000000000, 0.000000000000000, 88.0000000000000 ) );
#392 = AXIS2_PLACEMENT_3D( '', #443, #444, #445 );
#393 = COLOUR_RGB( '', 0.689999997600000, 0.689999997600000, 0.689999997600000 );
#394 = COLOUR_RGB( '', 0.689999997600000, 0.689999997600000, 0.689999997600000 );
#395 = COLOUR_RGB( '', 0.689999997600000, 0.689999997600000, 0.689999997600000 );
#396 = COLOUR_RGB( '', 0.689999997600000, 0.689999997600000, 0.689999997600000 );
#397 = COLOUR_RGB( '', 0.689999997600000, 0.689999997600000, 0.689999997600000 );
#398 = CARTESIAN_POINT( '', ( -55.0000000000000, 0.000000000000000, 0.000000000000000 ) );
#399 = DIRECTION( '', ( 0.707106781186548, 0.000000000000000, -0.707106781186548 ) );
#400 = DIRECTION( '', ( 0.707106781186548, 0.000000000000000, 0.707106781186548 ) );
#401 = CARTESIAN_POINT( '', ( -55.0000000000000, 0.000000000000000, 0.000000000000000 ) );
#402 = DIRECTION( '', ( 0.707106781186548, 0.000000000000000, 0.707106781186548 ) );
#403 = DIRECTION( '', ( 0.707106781186548, -0.000000000000000, -0.707106781186548 ) );
#404 = CARTESIAN_POINT( '', ( -55.0000000000000, 0.000000000000000, 51.5000000000000 ) );
#405 = DIRECTION( '', ( -0.000000000000000, 0.000000000000000, -1.00000000000000 ) );
#406 = DIRECTION( '', ( -1.00000000000000, 0.000000000000000, 0.000000000000000 ) );
#407 = CARTESIAN_POINT( '', ( -110.000000000000, 0.000000000000000, 0.000000000000000 ) );
#408 = DIRECTION( '', ( 1.00000000000000, 0.000000000000000, -0.000000000000000 ) );
#409 = DIRECTION( '', ( -0.000000000000000, 0.000000000000000, -1.00000000000000 ) );
#410 = CARTESIAN_POINT( '', ( -146.500000000000, 0.000000000000000, 0.000000000000000 ) );
#411 = DIRECTION( '', ( 1.00000000000000, 0.000000000000000, -0.000000000000000 ) );
#412 = DIRECTION( '', ( -0.000000000000000, 0.000000000000000, -1.00000000000000 ) );
#413 = CARTESIAN_POINT( '', ( -55.0000000000000, 0.000000000000000, 88.0000000000000 ) );
#414 = DIRECTION( '', ( 0.000000000000000, 0.000000000000000, 1.00000000000000 ) );
#415 = DIRECTION( '', ( 1.00000000000000, 0.000000000000000, 0.000000000000000 ) );
#416 = CARTESIAN_POINT( '', ( -55.0000000000000, 0.000000000000000, 0.000000000000000 ) );
#417 = DIRECTION( '', ( -0.707106781186548, 0.000000000000000, 0.707106781186548 ) );
#418 = DIRECTION( '', ( -0.707106781186547, -0.000000000000000, -0.707106781186547 ) );
#419 = CARTESIAN_POINT( '', ( -55.0000000000000, 0.000000000000000, 0.000000000000000 ) );
#420 = DIRECTION( '', ( -0.707106781186548, 0.000000000000000, -0.707106781186548 ) );
#421 = DIRECTION( '', ( -0.707106781186547, 0.000000000000000, 0.707106781186547 ) );
#422 = CARTESIAN_POINT( '', ( 36.5000000000000, 0.000000000000000, 0.000000000000000 ) );
#423 = DIRECTION( '', ( 1.00000000000000, 0.000000000000000, -0.000000000000000 ) );
#424 = DIRECTION( '', ( -0.000000000000000, 0.000000000000000, -1.00000000000000 ) );
#425 = CARTESIAN_POINT( '', ( 0.000000000000000, 0.000000000000000, 0.000000000000000 ) );
#426 = DIRECTION( '', ( 1.00000000000000, 0.000000000000000, -0.000000000000000 ) );
#427 = DIRECTION( '', ( -0.000000000000000, 0.000000000000000, -1.00000000000000 ) );
#428 = CARTESIAN_POINT( '', ( 0.000000000000000, 0.000000000000000, 0.000000000000000 ) );
#429 = DIRECTION( '', ( 1.00000000000000, 0.000000000000000, -0.000000000000000 ) );
#430 = DIRECTION( '', ( -0.000000000000000, 0.000000000000000, -1.00000000000000 ) );
#431 = CARTESIAN_POINT( '', ( -110.000000000000, 0.000000000000000, 0.000000000000000 ) );
#432 = DIRECTION( '', ( 1.00000000000000, 0.000000000000000, -0.000000000000000 ) );
#433 = DIRECTION( '', ( -0.000000000000000, 0.000000000000000, -1.00000000000000 ) );
#434 = CARTESIAN_POINT( '', ( -146.500000000000, 0.000000000000000, 0.000000000000000 ) );
#435 = DIRECTION( '', ( 1.00000000000000, 0.000000000000000, 0.000000000000000 ) );
#436 = DIRECTION( '', ( 0.000000000000000, 1.00000000000000, 0.000000000000000 ) );
#437 = CARTESIAN_POINT( '', ( 36.5000000000000, 0.000000000000000, 0.000000000000000 ) );
#438 = DIRECTION( '', ( 1.00000000000000, 0.000000000000000, 0.000000000000000 ) );
#439 = DIRECTION( '', ( 0.000000000000000, 1.00000000000000, 0.000000000000000 ) );
#440 = CARTESIAN_POINT( '', ( -55.0000000000000, 0.000000000000000, 51.5000000000000 ) );
#441 = DIRECTION( '', ( -0.000000000000000, 0.000000000000000, -1.00000000000000 ) );
#442 = DIRECTION( '', ( -1.00000000000000, 0.000000000000000, 0.000000000000000 ) );
#443 = CARTESIAN_POINT( '', ( -55.0000000000000, 0.000000000000000, 88.0000000000000 ) );
#444 = DIRECTION( '', ( -0.000000000000000, 0.000000000000000, -1.00000000000000 ) );
#445 = DIRECTION( '', ( -1.00000000000000, 0.000000000000000, 0.000000000000000 ) );
ENDSEC;
END-ISO-10303-21;
