ISO-10303-21;
HEADER;
/****************************************************************
 * Generated by software with PDE/Lib inside                    *
 * PDElib Version v51a, created Thu 01/14/2010                  *
 * ITI Transcendata (http://www.transcendata.com/)              *
 ****************************************************************/
FILE_DESCRIPTION((''),'2;1');
FILE_NAME('R:\\Neue Zeichnungdateien ab Januar 2010\\Konstruktionsteile\\Gewindemuffen\\Step\\113307.stp','2010-10-01T12:00:56',('DMK009'),(''),'Autodesk Inventor 2011','Autodesk Inventor 2011','');
FILE_SCHEMA(('AUTOMOTIVE_DESIGN { 1 0 10303 214 1 1 1 1 }'));
ENDSEC;
DATA;
#5=APPLICATION_CONTEXT('automotive design');
#6=APPLICATION_PROTOCOL_DEFINITION('International Standard','automotive_design',2001,#5);
#7=PRODUCT_CONTEXT('',#5,'mechanical');
#8=PRODUCT('Sechskantgewindemuffe','Sechskantgewindemuffe',$,(#7));
#9=PRODUCT_RELATED_PRODUCT_CATEGORY('part',$,(#8));
#10=PRODUCT_DEFINITION_FORMATION('',$,#8);
#11=PRODUCT_DEFINITION_CONTEXT('part definition',#5,'design');
#12=PRODUCT_DEFINITION('',$,#10,#11);
#18=(NAMED_UNIT(*)PLANE_ANGLE_UNIT()SI_UNIT($,.RADIAN.));
#19=DIMENSIONAL_EXPONENTS(0.0,0.0,0.0,0.0,0.0,0.0,0.0);
#20=PLANE_ANGLE_MEASURE_WITH_UNIT(PLANE_ANGLE_MEASURE(0.017453292500000),#18);
#24=(CONVERSION_BASED_UNIT('DEGREE',#20)NAMED_UNIT(#19)PLANE_ANGLE_UNIT());
#28=(NAMED_UNIT(*)SI_UNIT($,.STERADIAN.)SOLID_ANGLE_UNIT());
#32=(LENGTH_UNIT()NAMED_UNIT(*)SI_UNIT(.MILLI.,.METRE.));
#34=UNCERTAINTY_MEASURE_WITH_UNIT(LENGTH_MEASURE(0.010000000000000),#32,'DISTANCE_ACCURACY_VALUE','');
#36=(GEOMETRIC_REPRESENTATION_CONTEXT(3)GLOBAL_UNCERTAINTY_ASSIGNED_CONTEXT((#34))GLOBAL_UNIT_ASSIGNED_CONTEXT((#24,#28,#32))REPRESENTATION_CONTEXT('None','None'));
#37=AXIS2_PLACEMENT_3D('',#38,#39,#40);
#38=CARTESIAN_POINT('',(0.0,0.0,0.0));
#39=DIRECTION('',(0.0,0.0,1.0));
#40=DIRECTION('',(1.0,0.0,0.0));
#41=SHAPE_REPRESENTATION('',(#37),#36);
#42=PRODUCT_DEFINITION_SHAPE('','',#12);
#43=SHAPE_DEFINITION_REPRESENTATION(#42,#41);
#49=(NAMED_UNIT(*)PLANE_ANGLE_UNIT()SI_UNIT($,.RADIAN.));
#50=DIMENSIONAL_EXPONENTS(0.0,0.0,0.0,0.0,0.0,0.0,0.0);
#51=PLANE_ANGLE_MEASURE_WITH_UNIT(PLANE_ANGLE_MEASURE(0.017453292500000),#49);
#55=(CONVERSION_BASED_UNIT('DEGREE',#51)NAMED_UNIT(#50)PLANE_ANGLE_UNIT());
#59=(NAMED_UNIT(*)SI_UNIT($,.STERADIAN.)SOLID_ANGLE_UNIT());
#63=(LENGTH_UNIT()NAMED_UNIT(*)SI_UNIT(.MILLI.,.METRE.));
#65=UNCERTAINTY_MEASURE_WITH_UNIT(LENGTH_MEASURE(0.000001000000000),#63,'DISTANCE_ACCURACY_VALUE','');
#67=(GEOMETRIC_REPRESENTATION_CONTEXT(3)GLOBAL_UNCERTAINTY_ASSIGNED_CONTEXT((#65))GLOBAL_UNIT_ASSIGNED_CONTEXT((#55,#59,#63))REPRESENTATION_CONTEXT('','3D'));
#68=CARTESIAN_POINT('',(0.0,0.0,-24.500000000000000));
#69=DIRECTION('',(0.0,0.0,1.0));
#70=DIRECTION('',(-1.0,0.0,0.0));
#71=AXIS2_PLACEMENT_3D('',#68,#69,#70);
#72=CONICAL_SURFACE('',#71,12.356406460551019,71.565051177078047);
#73=CARTESIAN_POINT('',(13.856406460551018,-1.443290E-014,-24.000000000000004));
#74=VERTEX_POINT('',#73);
#75=CARTESIAN_POINT('',(6.928203230275503,12.000000000000004,-24.000000000000004));
#76=VERTEX_POINT('',#75);
#77=CARTESIAN_POINT('',(13.856406460551021,-6.224990E-015,-24.000000000000004));
#78=CARTESIAN_POINT('',(10.392304845413276,5.999999999999980,-25.154700538379249));
#79=CARTESIAN_POINT('',(6.928203230275519,11.999999999999995,-24.000000000000004));
#87=(BOUNDED_CURVE()B_SPLINE_CURVE(2,(#77,#78,#79),.UNSPECIFIED.,.F.,.U.)B_SPLINE_CURVE_WITH_KNOTS((3,3),(0.0,1.391156585078722),.UNSPECIFIED.)CURVE()GEOMETRIC_REPRESENTATION_ITEM()RATIONAL_B_SPLINE_CURVE((1.0,1.154700538379257,1.0))REPRESENTATION_ITEM(''));
#88=EDGE_CURVE('',#74,#76,#87,.T.);
#89=ORIENTED_EDGE('',*,*,#88,.F.);
#90=CARTESIAN_POINT('',(6.928203230275503,-12.000000000000002,-24.000000000000004));
#91=VERTEX_POINT('',#90);
#92=CARTESIAN_POINT('',(6.928203230275503,-12.000000000000004,-24.000000000000004));
#93=CARTESIAN_POINT('',(10.392304845413260,-6.000000000000009,-25.154700538379249));
#94=CARTESIAN_POINT('',(13.856406460551018,-1.369498E-014,-24.000000000000004));
#102=(BOUNDED_CURVE()B_SPLINE_CURVE(2,(#92,#93,#94),.UNSPECIFIED.,.F.,.U.)B_SPLINE_CURVE_WITH_KNOTS((3,3),(0.0,1.391156585078722),.UNSPECIFIED.)CURVE()GEOMETRIC_REPRESENTATION_ITEM()RATIONAL_B_SPLINE_CURVE((1.0,1.154700538379257,1.0))REPRESENTATION_ITEM(''));
#103=EDGE_CURVE('',#91,#74,#102,.T.);
#104=ORIENTED_EDGE('',*,*,#103,.F.);
#105=CARTESIAN_POINT('',(-6.928203230275520,-11.999999999999993,-24.000000000000004));
#106=VERTEX_POINT('',#105);
#107=CARTESIAN_POINT('',(-6.928203230275519,-11.999999999999995,-24.000000000000004));
#108=CARTESIAN_POINT('',(-7.771561E-015,-12.0,-25.154700538379252));
#109=CARTESIAN_POINT('',(6.928203230275503,-12.000000000000004,-24.000000000000004));
#117=(BOUNDED_CURVE()B_SPLINE_CURVE(2,(#107,#108,#109),.UNSPECIFIED.,.F.,.U.)B_SPLINE_CURVE_WITH_KNOTS((3,3),(0.0,1.391156585078722),.UNSPECIFIED.)CURVE()GEOMETRIC_REPRESENTATION_ITEM()RATIONAL_B_SPLINE_CURVE((1.0,1.154700538379247,1.0))REPRESENTATION_ITEM(''));
#118=EDGE_CURVE('',#106,#91,#117,.T.);
#119=ORIENTED_EDGE('',*,*,#118,.F.);
#120=CARTESIAN_POINT('',(-13.856406460551018,0.0,-24.000000000000004));
#121=VERTEX_POINT('',#120);
#122=CARTESIAN_POINT('',(-13.856406460551018,8.714986E-015,-24.000000000000004));
#123=CARTESIAN_POINT('',(-10.392304845413269,-5.999999999999992,-25.154700538379252));
#124=CARTESIAN_POINT('',(-6.928203230275518,-11.999999999999993,-24.000000000000004));
#132=(BOUNDED_CURVE()B_SPLINE_CURVE(2,(#122,#123,#124),.UNSPECIFIED.,.F.,.U.)B_SPLINE_CURVE_WITH_KNOTS((3,3),(0.0,1.391156585078722),.UNSPECIFIED.)CURVE()GEOMETRIC_REPRESENTATION_ITEM()RATIONAL_B_SPLINE_CURVE((1.0,1.154700538379247,1.0))REPRESENTATION_ITEM(''));
#133=EDGE_CURVE('',#121,#106,#132,.T.);
#134=ORIENTED_EDGE('',*,*,#133,.F.);
#135=CARTESIAN_POINT('',(-6.928203230275507,12.000000000000002,-24.000000000000004));
#136=VERTEX_POINT('',#135);
#137=CARTESIAN_POINT('',(-6.928203230275507,12.000000000000002,-24.000000000000004));
#138=CARTESIAN_POINT('',(-10.392304845413271,5.999999999999989,-25.154700538379252));
#139=CARTESIAN_POINT('',(-13.856406460551021,7.469988E-015,-24.000000000000004));
#147=(BOUNDED_CURVE()B_SPLINE_CURVE(2,(#137,#138,#139),.UNSPECIFIED.,.F.,.U.)B_SPLINE_CURVE_WITH_KNOTS((3,3),(0.0,1.391156585078722),.UNSPECIFIED.)CURVE()GEOMETRIC_REPRESENTATION_ITEM()RATIONAL_B_SPLINE_CURVE((1.0,1.154700538379247,1.0))REPRESENTATION_ITEM(''));
#148=EDGE_CURVE('',#136,#121,#147,.T.);
#149=ORIENTED_EDGE('',*,*,#148,.F.);
#150=CARTESIAN_POINT('',(6.928203230275500,12.000000000000002,-24.000000000000004));
#151=CARTESIAN_POINT('',(3.330669E-015,12.000000000000004,-25.154700538379249));
#152=CARTESIAN_POINT('',(-6.928203230275494,12.000000000000007,-24.000000000000004));
#160=(BOUNDED_CURVE()B_SPLINE_CURVE(2,(#150,#151,#152),.UNSPECIFIED.,.F.,.U.)B_SPLINE_CURVE_WITH_KNOTS((3,3),(0.0,1.391156585078720),.UNSPECIFIED.)CURVE()GEOMETRIC_REPRESENTATION_ITEM()RATIONAL_B_SPLINE_CURVE((1.0,1.154700538379257,1.0))REPRESENTATION_ITEM(''));
#161=EDGE_CURVE('',#76,#136,#160,.T.);
#162=ORIENTED_EDGE('',*,*,#161,.F.);
#163=EDGE_LOOP('',(#89,#104,#119,#134,#149,#162));
#164=FACE_OUTER_BOUND('',#163,.T.);
#165=CARTESIAN_POINT('',(-10.856406460551021,0.0,-25.0));
#166=VERTEX_POINT('',#165);
#167=CARTESIAN_POINT('',(0.0,0.0,-25.0));
#168=DIRECTION('',(0.0,0.0,-1.0));
#169=DIRECTION('',(-1.0,0.0,0.0));
#170=AXIS2_PLACEMENT_3D('',#167,#168,#169);
#171=CIRCLE('',#170,10.856406460551021);
#172=EDGE_CURVE('',#166,#166,#171,.T.);
#173=ORIENTED_EDGE('',*,*,#172,.F.);
#174=EDGE_LOOP('',(#173));
#175=FACE_BOUND('',#174,.T.);
#176=ADVANCED_FACE('',(#164,#175),#72,.T.);
#177=CARTESIAN_POINT('',(-6.928203230275517,-11.999999999999995,0.0));
#178=DIRECTION('',(-0.866025403784439,-0.499999999999999,0.0));
#179=DIRECTION('',(0.0,0.0,1.0));
#180=AXIS2_PLACEMENT_3D('',#177,#178,#179);
#181=PLANE('',#180);
#182=ORIENTED_EDGE('',*,*,#133,.T.);
#183=CARTESIAN_POINT('',(-6.928203230275517,-11.999999999999995,24.000000000000004));
#184=VERTEX_POINT('',#183);
#185=CARTESIAN_POINT('',(-6.928203230275517,-11.999999999999995,24.000000000000004));
#186=DIRECTION('',(0.0,0.0,-1.0));
#187=VECTOR('',#186,48.000000000000007);
#188=LINE('',#185,#187);
#189=EDGE_CURVE('',#184,#106,#188,.T.);
#190=ORIENTED_EDGE('',*,*,#189,.F.);
#191=CARTESIAN_POINT('',(-13.856406460551018,0.0,24.000000000000004));
#192=VERTEX_POINT('',#191);
#193=CARTESIAN_POINT('',(-6.928203230275518,-11.999999999999993,24.000000000000004));
#194=CARTESIAN_POINT('',(-10.392304845413269,-5.999999999999992,25.154700538379252));
#195=CARTESIAN_POINT('',(-13.856406460551018,8.714986E-015,24.000000000000004));
#203=(BOUNDED_CURVE()B_SPLINE_CURVE(2,(#193,#194,#195),.UNSPECIFIED.,.F.,.U.)B_SPLINE_CURVE_WITH_KNOTS((3,3),(0.0,1.391156585078722),.UNSPECIFIED.)CURVE()GEOMETRIC_REPRESENTATION_ITEM()RATIONAL_B_SPLINE_CURVE((1.0,1.154700538379247,1.0))REPRESENTATION_ITEM(''));
#204=EDGE_CURVE('',#184,#192,#203,.T.);
#205=ORIENTED_EDGE('',*,*,#204,.T.);
#206=CARTESIAN_POINT('',(-13.856406460551018,9.153208E-015,24.000000000000004));
#207=DIRECTION('',(0.0,0.0,-1.0));
#208=VECTOR('',#207,48.000000000000007);
#209=LINE('',#206,#208);
#210=EDGE_CURVE('',#192,#121,#209,.T.);
#211=ORIENTED_EDGE('',*,*,#210,.T.);
#212=EDGE_LOOP('',(#182,#190,#205,#211));
#213=FACE_OUTER_BOUND('',#212,.T.);
#214=ADVANCED_FACE('',(#213),#181,.T.);
#215=CARTESIAN_POINT('',(6.928203230275503,-12.000000000000004,0.0));
#216=DIRECTION('',(0.0,-1.0,0.0));
#217=DIRECTION('',(0.0,0.0,-1.0));
#218=AXIS2_PLACEMENT_3D('',#215,#216,#217);
#219=PLANE('',#218);
#220=ORIENTED_EDGE('',*,*,#118,.T.);
#221=CARTESIAN_POINT('',(6.928203230275503,-12.000000000000002,24.000000000000004));
#222=VERTEX_POINT('',#221);
#223=CARTESIAN_POINT('',(6.928203230275503,-12.000000000000004,24.000000000000004));
#224=DIRECTION('',(0.0,0.0,-1.0));
#225=VECTOR('',#224,48.000000000000007);
#226=LINE('',#223,#225);
#227=EDGE_CURVE('',#222,#91,#226,.T.);
#228=ORIENTED_EDGE('',*,*,#227,.F.);
#229=CARTESIAN_POINT('',(6.928203230275503,-12.000000000000004,24.000000000000004));
#230=CARTESIAN_POINT('',(-7.771561E-015,-12.0,25.154700538379252));
#231=CARTESIAN_POINT('',(-6.928203230275519,-11.999999999999995,24.000000000000004));
#239=(BOUNDED_CURVE()B_SPLINE_CURVE(2,(#229,#230,#231),.UNSPECIFIED.,.F.,.U.)B_SPLINE_CURVE_WITH_KNOTS((3,3),(0.0,1.391156585078722),.UNSPECIFIED.)CURVE()GEOMETRIC_REPRESENTATION_ITEM()RATIONAL_B_SPLINE_CURVE((1.0,1.154700538379247,1.0))REPRESENTATION_ITEM(''));
#240=EDGE_CURVE('',#222,#184,#239,.T.);
#241=ORIENTED_EDGE('',*,*,#240,.T.);
#242=ORIENTED_EDGE('',*,*,#189,.T.);
#243=EDGE_LOOP('',(#220,#228,#241,#242));
#244=FACE_OUTER_BOUND('',#243,.T.);
#245=ADVANCED_FACE('',(#244),#219,.T.);
#246=CARTESIAN_POINT('',(13.856406460551021,-9.099832E-015,0.0));
#247=DIRECTION('',(0.866025403784438,-0.500000000000001,0.0));
#248=DIRECTION('',(0.0,0.0,-1.0));
#249=AXIS2_PLACEMENT_3D('',#246,#247,#248);
#250=PLANE('',#249);
#251=ORIENTED_EDGE('',*,*,#103,.T.);
#252=CARTESIAN_POINT('',(13.856406460551018,-1.443290E-014,24.000000000000004));
#253=VERTEX_POINT('',#252);
#254=CARTESIAN_POINT('',(13.856406460551021,-9.099832E-015,24.000000000000004));
#255=DIRECTION('',(0.0,0.0,-1.0));
#256=VECTOR('',#255,48.000000000000007);
#257=LINE('',#254,#256);
#258=EDGE_CURVE('',#253,#74,#257,.T.);
#259=ORIENTED_EDGE('',*,*,#258,.F.);
#260=CARTESIAN_POINT('',(13.856406460551018,-1.369498E-014,24.000000000000004));
#261=CARTESIAN_POINT('',(10.392304845413260,-6.000000000000009,25.154700538379249));
#262=CARTESIAN_POINT('',(6.928203230275503,-12.000000000000004,24.000000000000004));
#270=(BOUNDED_CURVE()B_SPLINE_CURVE(2,(#260,#261,#262),.UNSPECIFIED.,.F.,.U.)B_SPLINE_CURVE_WITH_KNOTS((3,3),(0.0,1.391156585078722),.UNSPECIFIED.)CURVE()GEOMETRIC_REPRESENTATION_ITEM()RATIONAL_B_SPLINE_CURVE((1.0,1.154700538379257,1.0))REPRESENTATION_ITEM(''));
#271=EDGE_CURVE('',#253,#222,#270,.T.);
#272=ORIENTED_EDGE('',*,*,#271,.T.);
#273=ORIENTED_EDGE('',*,*,#227,.T.);
#274=EDGE_LOOP('',(#251,#259,#272,#273));
#275=FACE_OUTER_BOUND('',#274,.T.);
#276=ADVANCED_FACE('',(#275),#250,.T.);
#277=CARTESIAN_POINT('',(0.0,0.0,24.500000000000000));
#278=DIRECTION('',(0.0,0.0,-1.0));
#279=DIRECTION('',(-1.0,0.0,0.0));
#280=AXIS2_PLACEMENT_3D('',#277,#278,#279);
#281=CONICAL_SURFACE('',#280,12.356406460551019,71.565051177078047);
#282=CARTESIAN_POINT('',(6.928203230275503,12.000000000000004,24.000000000000004));
#283=VERTEX_POINT('',#282);
#284=CARTESIAN_POINT('',(6.928203230275519,11.999999999999995,24.000000000000004));
#285=CARTESIAN_POINT('',(10.392304845413276,5.999999999999980,25.154700538379249));
#286=CARTESIAN_POINT('',(13.856406460551021,-6.224990E-015,24.000000000000004));
#294=(BOUNDED_CURVE()B_SPLINE_CURVE(2,(#284,#285,#286),.UNSPECIFIED.,.F.,.U.)B_SPLINE_CURVE_WITH_KNOTS((3,3),(0.0,1.391156585078722),.UNSPECIFIED.)CURVE()GEOMETRIC_REPRESENTATION_ITEM()RATIONAL_B_SPLINE_CURVE((1.0,1.154700538379257,1.0))REPRESENTATION_ITEM(''));
#295=EDGE_CURVE('',#283,#253,#294,.T.);
#296=ORIENTED_EDGE('',*,*,#295,.F.);
#297=CARTESIAN_POINT('',(-6.928203230275507,12.000000000000002,24.000000000000004));
#298=VERTEX_POINT('',#297);
#299=CARTESIAN_POINT('',(-6.928203230275494,12.000000000000007,24.000000000000004));
#300=CARTESIAN_POINT('',(3.330669E-015,12.000000000000004,25.154700538379249));
#301=CARTESIAN_POINT('',(6.928203230275500,12.000000000000002,24.000000000000004));
#309=(BOUNDED_CURVE()B_SPLINE_CURVE(2,(#299,#300,#301),.UNSPECIFIED.,.F.,.U.)B_SPLINE_CURVE_WITH_KNOTS((3,3),(0.0,1.391156585078720),.UNSPECIFIED.)CURVE()GEOMETRIC_REPRESENTATION_ITEM()RATIONAL_B_SPLINE_CURVE((1.0,1.154700538379257,1.0))REPRESENTATION_ITEM(''));
#310=EDGE_CURVE('',#298,#283,#309,.T.);
#311=ORIENTED_EDGE('',*,*,#310,.F.);
#312=CARTESIAN_POINT('',(-13.856406460551021,7.469988E-015,24.000000000000004));
#313=CARTESIAN_POINT('',(-10.392304845413271,5.999999999999989,25.154700538379252));
#314=CARTESIAN_POINT('',(-6.928203230275507,12.000000000000002,24.000000000000004));
#322=(BOUNDED_CURVE()B_SPLINE_CURVE(2,(#312,#313,#314),.UNSPECIFIED.,.F.,.U.)B_SPLINE_CURVE_WITH_KNOTS((3,3),(0.0,1.391156585078722),.UNSPECIFIED.)CURVE()GEOMETRIC_REPRESENTATION_ITEM()RATIONAL_B_SPLINE_CURVE((1.0,1.154700538379247,1.0))REPRESENTATION_ITEM(''));
#323=EDGE_CURVE('',#192,#298,#322,.T.);
#324=ORIENTED_EDGE('',*,*,#323,.F.);
#325=ORIENTED_EDGE('',*,*,#204,.F.);
#326=ORIENTED_EDGE('',*,*,#240,.F.);
#327=ORIENTED_EDGE('',*,*,#271,.F.);
#328=EDGE_LOOP('',(#296,#311,#324,#325,#326,#327));
#329=FACE_OUTER_BOUND('',#328,.T.);
#330=CARTESIAN_POINT('',(-10.856406460551021,0.0,25.0));
#331=VERTEX_POINT('',#330);
#332=CARTESIAN_POINT('',(0.0,0.0,25.0));
#333=DIRECTION('',(0.0,0.0,1.0));
#334=DIRECTION('',(-1.0,0.0,0.0));
#335=AXIS2_PLACEMENT_3D('',#332,#333,#334);
#336=CIRCLE('',#335,10.856406460551021);
#337=EDGE_CURVE('',#331,#331,#336,.T.);
#338=ORIENTED_EDGE('',*,*,#337,.F.);
#339=EDGE_LOOP('',(#338));
#340=FACE_BOUND('',#339,.T.);
#341=ADVANCED_FACE('',(#329,#340),#281,.T.);
#342=CARTESIAN_POINT('',(-13.856406460551018,9.153208E-015,0.0));
#343=DIRECTION('',(-0.866025403784438,0.500000000000000,0.0));
#344=DIRECTION('',(0.0,0.0,1.0));
#345=AXIS2_PLACEMENT_3D('',#342,#343,#344);
#346=PLANE('',#345);
#347=ORIENTED_EDGE('',*,*,#148,.T.);
#348=ORIENTED_EDGE('',*,*,#210,.F.);
#349=ORIENTED_EDGE('',*,*,#323,.T.);
#350=CARTESIAN_POINT('',(-6.928203230275505,12.000000000000007,24.000000000000004));
#351=DIRECTION('',(0.0,0.0,-1.0));
#352=VECTOR('',#351,48.000000000000007);
#353=LINE('',#350,#352);
#354=EDGE_CURVE('',#298,#136,#353,.T.);
#355=ORIENTED_EDGE('',*,*,#354,.T.);
#356=EDGE_LOOP('',(#347,#348,#349,#355));
#357=FACE_OUTER_BOUND('',#356,.T.);
#358=ADVANCED_FACE('',(#357),#346,.T.);
#359=CARTESIAN_POINT('',(-6.928203230275505,12.000000000000007,0.0));
#360=DIRECTION('',(0.0,1.0,0.0));
#361=DIRECTION('',(0.0,0.0,1.0));
#362=AXIS2_PLACEMENT_3D('',#359,#360,#361);
#363=PLANE('',#362);
#364=ORIENTED_EDGE('',*,*,#161,.T.);
#365=ORIENTED_EDGE('',*,*,#354,.F.);
#366=ORIENTED_EDGE('',*,*,#310,.T.);
#367=CARTESIAN_POINT('',(6.928203230275514,12.000000000000002,-24.000000000000004));
#368=DIRECTION('',(0.0,0.0,1.0));
#369=VECTOR('',#368,48.000000000000007);
#370=LINE('',#367,#369);
#371=EDGE_CURVE('',#76,#283,#370,.T.);
#372=ORIENTED_EDGE('',*,*,#371,.F.);
#373=EDGE_LOOP('',(#364,#365,#366,#372));
#374=FACE_OUTER_BOUND('',#373,.T.);
#375=ADVANCED_FACE('',(#374),#363,.T.);
#376=CARTESIAN_POINT('',(0.0,0.0,-37.0));
#377=DIRECTION('',(0.0,0.0,1.0));
#378=DIRECTION('',(1.0,0.0,0.0));
#379=AXIS2_PLACEMENT_3D('',#376,#377,#378);
#380=CYLINDRICAL_SURFACE('',#379,6.917500000000000);
#381=CARTESIAN_POINT('',(-6.917500000000000,-8.471214E-016,-25.0));
#382=VERTEX_POINT('',#381);
#383=CARTESIAN_POINT('',(0.0,0.0,-25.0));
#384=DIRECTION('',(0.0,0.0,1.0));
#385=DIRECTION('',(1.0,0.0,0.0));
#386=AXIS2_PLACEMENT_3D('',#383,#384,#385);
#387=CIRCLE('',#386,6.917500000000000);
#388=EDGE_CURVE('',#382,#382,#387,.T.);
#389=ORIENTED_EDGE('',*,*,#388,.F.);
#390=EDGE_LOOP('',(#389));
#391=FACE_OUTER_BOUND('',#390,.T.);
#392=CARTESIAN_POINT('',(6.917500000000000,0.0,25.0));
#393=VERTEX_POINT('',#392);
#394=CARTESIAN_POINT('',(0.0,0.0,25.0));
#395=DIRECTION('',(0.0,0.0,-1.0));
#396=DIRECTION('',(1.0,0.0,0.0));
#397=AXIS2_PLACEMENT_3D('',#394,#395,#396);
#398=CIRCLE('',#397,6.917500000000000);
#399=EDGE_CURVE('',#393,#393,#398,.T.);
#400=ORIENTED_EDGE('',*,*,#399,.F.);
#401=EDGE_LOOP('',(#400));
#402=FACE_BOUND('',#401,.T.);
#403=ADVANCED_FACE('',(#391,#402),#380,.F.);
#404=CARTESIAN_POINT('',(-3.364312E-016,2.498002E-015,-25.0));
#405=DIRECTION('',(0.0,0.0,1.0));
#406=DIRECTION('',(1.0,0.0,0.0));
#407=AXIS2_PLACEMENT_3D('',#404,#405,#406);
#408=PLANE('',#407);
#409=ORIENTED_EDGE('',*,*,#172,.T.);
#410=EDGE_LOOP('',(#409));
#411=FACE_OUTER_BOUND('',#410,.T.);
#412=ORIENTED_EDGE('',*,*,#388,.T.);
#413=EDGE_LOOP('',(#412));
#414=FACE_BOUND('',#413,.T.);
#415=ADVANCED_FACE('',(#411,#414),#408,.F.);
#416=CARTESIAN_POINT('',(6.928203230275514,12.000000000000002,0.0));
#417=DIRECTION('',(0.866025403784439,0.500000000000000,0.0));
#418=DIRECTION('',(0.0,0.0,-1.0));
#419=AXIS2_PLACEMENT_3D('',#416,#417,#418);
#420=PLANE('',#419);
#421=ORIENTED_EDGE('',*,*,#88,.T.);
#422=ORIENTED_EDGE('',*,*,#371,.T.);
#423=ORIENTED_EDGE('',*,*,#295,.T.);
#424=ORIENTED_EDGE('',*,*,#258,.T.);
#425=EDGE_LOOP('',(#421,#422,#423,#424));
#426=FACE_OUTER_BOUND('',#425,.T.);
#427=ADVANCED_FACE('',(#426),#420,.T.);
#428=CARTESIAN_POINT('',(-2.775558E-016,3.191891E-015,25.0));
#429=DIRECTION('',(0.0,0.0,1.0));
#430=DIRECTION('',(1.0,0.0,0.0));
#431=AXIS2_PLACEMENT_3D('',#428,#429,#430);
#432=PLANE('',#431);
#433=ORIENTED_EDGE('',*,*,#337,.T.);
#434=EDGE_LOOP('',(#433));
#435=FACE_OUTER_BOUND('',#434,.T.);
#436=ORIENTED_EDGE('',*,*,#399,.T.);
#437=EDGE_LOOP('',(#436));
#438=FACE_BOUND('',#437,.T.);
#439=ADVANCED_FACE('',(#435,#438),#432,.T.);
#440=CLOSED_SHELL('',(#176,#214,#245,#276,#341,#358,#375,#403,#415,#427,#439));
#441=MANIFOLD_SOLID_BREP('Volumenk\S\vrper1',#440);
#442=COLOUR_RGB('Standard',0.752941012382507,0.752941012382507,0.752941012382507);
#443=FILL_AREA_STYLE_COLOUR('Standard',#442);
#444=FILL_AREA_STYLE('Standard',(#443));
#445=SURFACE_STYLE_FILL_AREA(#444);
#446=SURFACE_SIDE_STYLE('Standard',(#445));
#447=SURFACE_STYLE_USAGE(.BOTH.,#446);
#448=PRESENTATION_STYLE_ASSIGNMENT((#447));
#449=STYLED_ITEM('',(#448),#441);
#450=MECHANICAL_DESIGN_GEOMETRIC_PRESENTATION_REPRESENTATION('',(#449),#36);
#451=ADVANCED_BREP_SHAPE_REPRESENTATION('ABSR',(#441),#36);
#452=SHAPE_REPRESENTATION_RELATIONSHIP('SRR','None',#451,#41);
ENDSEC;
END-ISO-10303-21;
