ISO-10303-21;
HEADER;
/* Generated by software containing ST-Developer
 * from STEP Tools, Inc. (www.steptools.com) 
 */

FILE_DESCRIPTION(
/* description */ (''),
/* implementation_level */ '2;1');

FILE_NAME(
/* name */ 
'Q:\\Ric010\\FF7\\FIPlastiCAD\\FIP\\Lavoro\\PVC Fittings\\PVC Fittings
 STEP\\TRIV\\TRIV050025.ipt.stp',
/* time_stamp */ '2013-10-01T14:56:27+02:00',
/* author */ ('bfaro'),
/* organization */ (''),
/* preprocessor_version */ 'ST-DEVELOPER v15.2',
/* originating_system */ 'Autodesk Inventor 2014',
/* authorisation */ '');

FILE_SCHEMA (('AUTOMOTIVE_DESIGN { 1 0 10303 214 3 1 1 }'));
ENDSEC;

DATA;
#10=SHAPE_REPRESENTATION_RELATIONSHIP('SRR','None',#427,#11);
#11=ADVANCED_BREP_SHAPE_REPRESENTATION($,(#181),#418);
#12=STYLED_ITEM($,(#435),#181);
#13=PLANE($,#202);
#14=PLANE($,#203);
#15=PLANE($,#204);
#16=PLANE($,#205);
#17=PLANE($,#206);
#18=PLANE($,#207);
#19=FACE_BOUND($,#53,.T.);
#20=FACE_BOUND($,#55,.T.);
#21=FACE_BOUND($,#56,.T.);
#22=FACE_BOUND($,#58,.T.);
#23=FACE_BOUND($,#59,.T.);
#24=FACE_BOUND($,#61,.T.);
#25=FACE_BOUND($,#63,.T.);
#26=FACE_BOUND($,#65,.T.);
#27=FACE_BOUND($,#67,.T.);
#28=FACE_BOUND($,#69,.T.);
#29=FACE_BOUND($,#70,.T.);
#30=FACE_BOUND($,#71,.T.);
#31=FACE_BOUND($,#73,.T.);
#32=FACE_BOUND($,#75,.T.);
#33=FACE_BOUND($,#76,.T.);
#34=FACE_BOUND($,#77,.T.);
#35=FACE_BOUND($,#78,.T.);
#36=FACE_BOUND($,#79,.T.);
#37=B_SPLINE_CURVE_WITH_KNOTS($,3,(#265,#266,#267,#268,#269,#270,#271,#272,
#273,#274,#275,#276,#277,#278,#279,#280,#281,#282,#283,#284,#285,#286,#287,
#288,#289,#290,#291,#292,#293,#294,#295,#296,#297,#298,#299,#300,#301,#302,
#303,#304,#305,#306,#307,#308,#309,#310,#311,#312,#313,#314),
 .UNSPECIFIED.,.T.,.F.,(4,2,2,2,2,2,2,2,2,2,2,2,2,2,2,2,2,2,2,2,2,2,2,2,
4),(0.,0.230949120531041,0.461898241062081,0.923796482124162,1.38443556611576,
1.61475510811155,1.84507465010735,2.07539419210315,2.30571373409895,2.76635281809054,
3.22825105915262,3.45920017968366,3.6901493002147,3.92109842074216,4.15204754126961,
4.61394578232452,5.07458486631404,5.30490440830879,5.53522395030355,5.76554349229903,
5.99586303429452,6.45650211828548,6.91840035933893,7.14934947986566,7.38029860039239),
 .UNSPECIFIED.);
#38=B_SPLINE_CURVE_WITH_KNOTS($,3,(#327,#328,#329,#330,#331,#332,#333,#334,
#335,#336,#337,#338,#339,#340,#341,#342),.UNSPECIFIED.,.F.,.F.,(4,2,2,2,
2,2,2,4),(5.42305380125742,5.76287686599313,6.10269993072883,6.78234606020023,
7.12040472061381,7.45846338102739,7.79652204144098,8.13458070185456),
 .UNSPECIFIED.);
#39=B_SPLINE_CURVE_WITH_KNOTS($,3,(#344,#345,#346,#347,#348,#349,#350,#351,
#352,#353,#354,#355,#356,#357,#358,#359),.UNSPECIFIED.,.F.,.F.,(4,2,2,2,
2,2,2,4),(-5.42305380125742,-5.08323073651932,-4.74340767178121,-4.063761542305,
-3.72570288188593,-3.38764422146687,-3.0495855610478,-2.71152690062874),
 .UNSPECIFIED.);
#40=B_SPLINE_CURVE_WITH_KNOTS($,3,(#361,#362,#363,#364,#365,#366,#367,#368,
#369,#370,#371,#372,#373,#374,#375,#376),.UNSPECIFIED.,.F.,.F.,(4,2,2,2,
2,2,2,4),(8.13458070182292,8.47263936224198,8.81069802266105,9.14875668308011,
9.48681534349918,10.1664614729754,10.5062845377135,10.8461076024516),
 .UNSPECIFIED.);
#41=B_SPLINE_CURVE_WITH_KNOTS($,3,(#377,#378,#379,#380,#381,#382,#383,#384,
#385,#386,#387,#388,#389,#390,#391,#392),.UNSPECIFIED.,.F.,.F.,(4,2,2,2,
2,2,2,4),(-2.71152690059709,-2.37346824018351,-2.03540957976992,-1.69735091935634,
-1.35929225894276,-0.679646129471356,-0.339823064735654,4.70734562441066E-014),
 .UNSPECIFIED.);
#42=FACE_OUTER_BOUND($,#52,.T.);
#43=FACE_OUTER_BOUND($,#54,.T.);
#44=FACE_OUTER_BOUND($,#57,.T.);
#45=FACE_OUTER_BOUND($,#60,.T.);
#46=FACE_OUTER_BOUND($,#62,.T.);
#47=FACE_OUTER_BOUND($,#64,.T.);
#48=FACE_OUTER_BOUND($,#66,.T.);
#49=FACE_OUTER_BOUND($,#68,.T.);
#50=FACE_OUTER_BOUND($,#72,.T.);
#51=FACE_OUTER_BOUND($,#74,.T.);
#52=EDGE_LOOP($,(#126));
#53=EDGE_LOOP($,(#127));
#54=EDGE_LOOP($,(#128));
#55=EDGE_LOOP($,(#129));
#56=EDGE_LOOP($,(#130));
#57=EDGE_LOOP($,(#131));
#58=EDGE_LOOP($,(#132));
#59=EDGE_LOOP($,(#133,#134,#135,#136));
#60=EDGE_LOOP($,(#137));
#61=EDGE_LOOP($,(#138));
#62=EDGE_LOOP($,(#139,#140,#141,#142));
#63=EDGE_LOOP($,(#143));
#64=EDGE_LOOP($,(#144));
#65=EDGE_LOOP($,(#145));
#66=EDGE_LOOP($,(#146));
#67=EDGE_LOOP($,(#147));
#68=EDGE_LOOP($,(#148));
#69=EDGE_LOOP($,(#149));
#70=EDGE_LOOP($,(#150));
#71=EDGE_LOOP($,(#151));
#72=EDGE_LOOP($,(#152));
#73=EDGE_LOOP($,(#153));
#74=EDGE_LOOP($,(#154));
#75=EDGE_LOOP($,(#155));
#76=EDGE_LOOP($,(#156));
#77=EDGE_LOOP($,(#157));
#78=EDGE_LOOP($,(#158));
#79=EDGE_LOOP($,(#159));
#80=CIRCLE($,#184,12.);
#81=CIRCLE($,#186,24.);
#82=CIRCLE($,#187,24.);
#83=CIRCLE($,#189,30.5);
#84=CIRCLE($,#190,30.5);
#85=CIRCLE($,#192,25.);
#86=CIRCLE($,#193,25.);
#87=CIRCLE($,#195,17.5);
#88=CIRCLE($,#197,25.);
#89=CIRCLE($,#198,25.);
#90=CIRCLE($,#200,12.5);
#91=CIRCLE($,#201,12.5);
#92=VERTEX_POINT($,#262);
#93=VERTEX_POINT($,#264);
#94=VERTEX_POINT($,#316);
#95=VERTEX_POINT($,#318);
#96=VERTEX_POINT($,#321);
#97=VERTEX_POINT($,#323);
#98=VERTEX_POINT($,#325);
#99=VERTEX_POINT($,#326);
#100=VERTEX_POINT($,#343);
#101=VERTEX_POINT($,#360);
#102=VERTEX_POINT($,#394);
#103=VERTEX_POINT($,#396);
#104=VERTEX_POINT($,#399);
#105=VERTEX_POINT($,#402);
#106=VERTEX_POINT($,#404);
#107=VERTEX_POINT($,#407);
#108=VERTEX_POINT($,#409);
#109=EDGE_CURVE($,#92,#92,#80,.T.);
#110=EDGE_CURVE($,#93,#93,#37,.T.);
#111=EDGE_CURVE($,#94,#94,#81,.T.);
#112=EDGE_CURVE($,#95,#95,#82,.T.);
#113=EDGE_CURVE($,#96,#96,#83,.T.);
#114=EDGE_CURVE($,#97,#97,#84,.T.);
#115=EDGE_CURVE($,#98,#99,#38,.T.);
#116=EDGE_CURVE($,#98,#100,#39,.T.);
#117=EDGE_CURVE($,#100,#101,#40,.T.);
#118=EDGE_CURVE($,#99,#101,#41,.T.);
#119=EDGE_CURVE($,#102,#102,#85,.T.);
#120=EDGE_CURVE($,#103,#103,#86,.T.);
#121=EDGE_CURVE($,#104,#104,#87,.T.);
#122=EDGE_CURVE($,#105,#105,#88,.T.);
#123=EDGE_CURVE($,#106,#106,#89,.T.);
#124=EDGE_CURVE($,#107,#107,#90,.T.);
#125=EDGE_CURVE($,#108,#108,#91,.T.);
#126=ORIENTED_EDGE($,*,*,#109,.F.);
#127=ORIENTED_EDGE($,*,*,#110,.F.);
#128=ORIENTED_EDGE($,*,*,#111,.F.);
#129=ORIENTED_EDGE($,*,*,#112,.F.);
#130=ORIENTED_EDGE($,*,*,#110,.T.);
#131=ORIENTED_EDGE($,*,*,#113,.F.);
#132=ORIENTED_EDGE($,*,*,#114,.T.);
#133=ORIENTED_EDGE($,*,*,#115,.F.);
#134=ORIENTED_EDGE($,*,*,#116,.T.);
#135=ORIENTED_EDGE($,*,*,#117,.T.);
#136=ORIENTED_EDGE($,*,*,#118,.F.);
#137=ORIENTED_EDGE($,*,*,#119,.T.);
#138=ORIENTED_EDGE($,*,*,#120,.F.);
#139=ORIENTED_EDGE($,*,*,#116,.F.);
#140=ORIENTED_EDGE($,*,*,#115,.T.);
#141=ORIENTED_EDGE($,*,*,#118,.T.);
#142=ORIENTED_EDGE($,*,*,#117,.F.);
#143=ORIENTED_EDGE($,*,*,#121,.F.);
#144=ORIENTED_EDGE($,*,*,#122,.T.);
#145=ORIENTED_EDGE($,*,*,#123,.F.);
#146=ORIENTED_EDGE($,*,*,#124,.T.);
#147=ORIENTED_EDGE($,*,*,#125,.F.);
#148=ORIENTED_EDGE($,*,*,#114,.F.);
#149=ORIENTED_EDGE($,*,*,#120,.T.);
#150=ORIENTED_EDGE($,*,*,#112,.T.);
#151=ORIENTED_EDGE($,*,*,#119,.F.);
#152=ORIENTED_EDGE($,*,*,#113,.T.);
#153=ORIENTED_EDGE($,*,*,#122,.F.);
#154=ORIENTED_EDGE($,*,*,#121,.T.);
#155=ORIENTED_EDGE($,*,*,#124,.F.);
#156=ORIENTED_EDGE($,*,*,#111,.T.);
#157=ORIENTED_EDGE($,*,*,#123,.T.);
#158=ORIENTED_EDGE($,*,*,#109,.T.);
#159=ORIENTED_EDGE($,*,*,#125,.T.);
#160=CYLINDRICAL_SURFACE($,#183,12.);
#161=CYLINDRICAL_SURFACE($,#185,24.);
#162=CYLINDRICAL_SURFACE($,#188,30.5);
#163=CYLINDRICAL_SURFACE($,#191,25.);
#164=CYLINDRICAL_SURFACE($,#194,17.5);
#165=CYLINDRICAL_SURFACE($,#196,25.);
#166=CYLINDRICAL_SURFACE($,#199,12.5);
#167=ADVANCED_FACE($,(#42,#19),#160,.F.);
#168=ADVANCED_FACE($,(#43,#20,#21),#161,.F.);
#169=ADVANCED_FACE($,(#44,#22,#23),#162,.T.);
#170=ADVANCED_FACE($,(#45,#24),#163,.F.);
#171=ADVANCED_FACE($,(#46,#25),#164,.T.);
#172=ADVANCED_FACE($,(#47,#26),#165,.F.);
#173=ADVANCED_FACE($,(#48,#27),#166,.F.);
#174=ADVANCED_FACE($,(#49,#28),#13,.T.);
#175=ADVANCED_FACE($,(#29,#30),#14,.T.);
#176=ADVANCED_FACE($,(#50,#31),#15,.T.);
#177=ADVANCED_FACE($,(#51,#32),#16,.T.);
#178=ADVANCED_FACE($,(#33,#34),#17,.T.);
#179=ADVANCED_FACE($,(#35,#36),#18,.T.);
#180=CLOSED_SHELL($,(#167,#168,#169,#170,#171,#172,#173,#174,#175,#176,
#177,#178,#179));
#181=MANIFOLD_SOLID_BREP('Solido1',#180);
#182=AXIS2_PLACEMENT_3D('placement',#260,#208,#209);
#183=AXIS2_PLACEMENT_3D($,#261,#210,#211);
#184=AXIS2_PLACEMENT_3D($,#263,#212,#213);
#185=AXIS2_PLACEMENT_3D($,#315,#214,#215);
#186=AXIS2_PLACEMENT_3D($,#317,#216,#217);
#187=AXIS2_PLACEMENT_3D($,#319,#218,#219);
#188=AXIS2_PLACEMENT_3D($,#320,#220,#221);
#189=AXIS2_PLACEMENT_3D($,#322,#222,#223);
#190=AXIS2_PLACEMENT_3D($,#324,#224,#225);
#191=AXIS2_PLACEMENT_3D($,#393,#226,#227);
#192=AXIS2_PLACEMENT_3D($,#395,#228,#229);
#193=AXIS2_PLACEMENT_3D($,#397,#230,#231);
#194=AXIS2_PLACEMENT_3D($,#398,#232,#233);
#195=AXIS2_PLACEMENT_3D($,#400,#234,#235);
#196=AXIS2_PLACEMENT_3D($,#401,#236,#237);
#197=AXIS2_PLACEMENT_3D($,#403,#238,#239);
#198=AXIS2_PLACEMENT_3D($,#405,#240,#241);
#199=AXIS2_PLACEMENT_3D($,#406,#242,#243);
#200=AXIS2_PLACEMENT_3D($,#408,#244,#245);
#201=AXIS2_PLACEMENT_3D($,#410,#246,#247);
#202=AXIS2_PLACEMENT_3D($,#411,#248,#249);
#203=AXIS2_PLACEMENT_3D($,#412,#250,#251);
#204=AXIS2_PLACEMENT_3D($,#413,#252,#253);
#205=AXIS2_PLACEMENT_3D($,#414,#254,#255);
#206=AXIS2_PLACEMENT_3D($,#415,#256,#257);
#207=AXIS2_PLACEMENT_3D($,#416,#258,#259);
#208=DIRECTION('axis',(0.,0.,1.));
#209=DIRECTION('refdir',(1.,0.,0.));
#210=DIRECTION('center_axis',(-1.,0.,-4.48966210396041E-011));
#211=DIRECTION('ref_axis',(-4.48966210396041E-011,0.,1.));
#212=DIRECTION('center_axis',(-1.,0.,-4.489664E-011));
#213=DIRECTION('ref_axis',(-4.48966210396041E-011,0.,1.));
#214=DIRECTION('center_axis',(0.,0.,-1.));
#215=DIRECTION('ref_axis',(-1.,0.,0.));
#216=DIRECTION('center_axis',(0.,0.,-1.));
#217=DIRECTION('ref_axis',(-1.,0.,0.));
#218=DIRECTION('center_axis',(0.,0.,1.));
#219=DIRECTION('ref_axis',(-1.,0.,0.));
#220=DIRECTION('center_axis',(0.,0.,1.));
#221=DIRECTION('ref_axis',(1.,0.,0.));
#222=DIRECTION('center_axis',(0.,0.,1.));
#223=DIRECTION('ref_axis',(1.,0.,0.));
#224=DIRECTION('center_axis',(0.,0.,1.));
#225=DIRECTION('ref_axis',(1.,0.,0.));
#226=DIRECTION('center_axis',(0.,0.,1.));
#227=DIRECTION('ref_axis',(1.,0.,0.));
#228=DIRECTION('center_axis',(0.,0.,1.));
#229=DIRECTION('ref_axis',(1.,0.,0.));
#230=DIRECTION('center_axis',(0.,0.,1.));
#231=DIRECTION('ref_axis',(1.,0.,0.));
#232=DIRECTION('center_axis',(1.,0.,4.489664E-011));
#233=DIRECTION('ref_axis',(4.489664E-011,0.,-1.));
#234=DIRECTION('center_axis',(1.,0.,4.489664E-011));
#235=DIRECTION('ref_axis',(4.489664E-011,0.,-1.));
#236=DIRECTION('center_axis',(0.,0.,1.));
#237=DIRECTION('ref_axis',(1.,0.,0.));
#238=DIRECTION('center_axis',(0.,0.,1.));
#239=DIRECTION('ref_axis',(1.,0.,0.));
#240=DIRECTION('center_axis',(0.,0.,1.));
#241=DIRECTION('ref_axis',(1.,0.,0.));
#242=DIRECTION('center_axis',(1.,1.86581349635894E-014,4.48947418316097E-011));
#243=DIRECTION('ref_axis',(4.48945769448981E-011,0.,-1.));
#244=DIRECTION('center_axis',(1.,0.,4.489664E-011));
#245=DIRECTION('ref_axis',(4.489664E-011,0.,-1.));
#246=DIRECTION('center_axis',(1.,0.,4.489664E-011));
#247=DIRECTION('ref_axis',(4.489664E-011,0.,-1.));
#248=DIRECTION('center_axis',(0.,0.,-1.));
#249=DIRECTION('ref_axis',(-1.,0.,0.));
#250=DIRECTION('center_axis',(0.,0.,-1.));
#251=DIRECTION('ref_axis',(-1.,0.,0.));
#252=DIRECTION('center_axis',(0.,0.,1.));
#253=DIRECTION('ref_axis',(1.,0.,0.));
#254=DIRECTION('center_axis',(1.,0.,4.489664E-011));
#255=DIRECTION('ref_axis',(4.48963533017377E-011,0.,-1.));
#256=DIRECTION('center_axis',(0.,0.,1.));
#257=DIRECTION('ref_axis',(1.,0.,0.));
#258=DIRECTION('center_axis',(1.,0.,4.489664E-011));
#259=DIRECTION('ref_axis',(4.48967085731056E-011,0.,-1.));
#260=CARTESIAN_POINT('',(0.,0.,0.));
#261=CARTESIAN_POINT('Origin',(27.,0.,58.000000001212));
#262=CARTESIAN_POINT('',(27.0000000005388,1.46957615897682E-015,46.000000001212));
#263=CARTESIAN_POINT('Origin',(27.,0.,58.000000001212));
#264=CARTESIAN_POINT('',(20.7846096908265,12.,58.000000000933));
#265=CARTESIAN_POINT('Ctrl Pts',(20.7846096908265,12.,58.000000000933));
#266=CARTESIAN_POINT('Ctrl Pts',(20.7846096908265,12.,58.7698304027031));
#267=CARTESIAN_POINT('Ctrl Pts',(20.8286332875694,11.9247565062352,59.5602319504743));
#268=CARTESIAN_POINT('Ctrl Pts',(21.003483132967,11.6140207725167,61.122284919639));
#269=CARTESIAN_POINT('Ctrl Pts',(21.1340169609622,11.3786563894926,61.8939944908622));
#270=CARTESIAN_POINT('Ctrl Pts',(21.6143521495345,10.4547445168219,64.1029883150867));
#271=CARTESIAN_POINT('Ctrl Pts',(22.052405610593,9.53706993755668,65.4334928119152));
#272=CARTESIAN_POINT('Ctrl Pts',(22.8463993208504,7.4363600376606,67.5342027118372));
#273=CARTESIAN_POINT('Ctrl Pts',(23.2591780924757,6.10488909736389,68.4539809601433));
#274=CARTESIAN_POINT('Ctrl Pts',(23.6941222382747,3.89272795374015,69.3791703936602));
#275=CARTESIAN_POINT('Ctrl Pts',(23.8092875786883,3.11993820571532,69.614664070003));
#276=CARTESIAN_POINT('Ctrl Pts',(23.9622729037127,1.55745520047806,69.9251318302307));
#277=CARTESIAN_POINT('Ctrl Pts',(24.,0.767731806652658,70.0000000010773));
#278=CARTESIAN_POINT('Ctrl Pts',(24.,-0.767731806652659,70.0000000010773));
#279=CARTESIAN_POINT('Ctrl Pts',(23.9622729037127,-1.55745520047807,69.9251318302307));
#280=CARTESIAN_POINT('Ctrl Pts',(23.8092875786883,-3.11993820571533,69.614664070003));
#281=CARTESIAN_POINT('Ctrl Pts',(23.6941222382747,-3.89272795374015,69.3791703936602));
#282=CARTESIAN_POINT('Ctrl Pts',(23.2591780924757,-6.10488909736389,68.4539809601433));
#283=CARTESIAN_POINT('Ctrl Pts',(22.8463993208504,-7.4363600376606,67.5342027118372));
#284=CARTESIAN_POINT('Ctrl Pts',(22.052405610593,-9.53706993755668,65.4334928119152));
#285=CARTESIAN_POINT('Ctrl Pts',(21.6143521495345,-10.4547445168219,64.1029883150867));
#286=CARTESIAN_POINT('Ctrl Pts',(21.1340169609622,-11.3786563894926,61.8939944908622));
#287=CARTESIAN_POINT('Ctrl Pts',(21.003483132967,-11.6140207725167,61.122284919639));
#288=CARTESIAN_POINT('Ctrl Pts',(20.8286332875694,-11.9247565062352,59.5602319504743));
#289=CARTESIAN_POINT('Ctrl Pts',(20.7846096908265,-12.,58.7698304027031));
#290=CARTESIAN_POINT('Ctrl Pts',(20.7846096908265,-12.,57.2301695991748));
#291=CARTESIAN_POINT('Ctrl Pts',(20.8286332875681,-11.9247565062375,56.4397680514153));
#292=CARTESIAN_POINT('Ctrl Pts',(21.0034831329629,-11.6140207725241,54.8777150822753));
#293=CARTESIAN_POINT('Ctrl Pts',(21.1340169609567,-11.3786563895028,54.1060055110649));
#294=CARTESIAN_POINT('Ctrl Pts',(21.6143521495262,-10.4547445168386,51.8970116868826));
#295=CARTESIAN_POINT('Ctrl Pts',(22.0524056105854,-9.53706993757423,50.566507190087));
#296=CARTESIAN_POINT('Ctrl Pts',(22.8463993208476,-7.43636003767087,48.4657972902193));
#297=CARTESIAN_POINT('Ctrl Pts',(23.2591780924758,-6.10488909736462,47.5460190419445));
#298=CARTESIAN_POINT('Ctrl Pts',(23.6941222382757,-3.89272795373425,46.6208296084648));
#299=CARTESIAN_POINT('Ctrl Pts',(23.8092875786892,-3.11993820570853,46.3853359321328));
#300=CARTESIAN_POINT('Ctrl Pts',(23.962272903713,-1.55745520047249,46.0748681719199));
#301=CARTESIAN_POINT('Ctrl Pts',(24.,-0.76773180664919,46.0000000010773));
#302=CARTESIAN_POINT('Ctrl Pts',(24.,0.767731806651608,46.0000000010773));
#303=CARTESIAN_POINT('Ctrl Pts',(23.9622729037128,1.55745520047729,46.0748681719204));
#304=CARTESIAN_POINT('Ctrl Pts',(23.8092875786881,3.11993820571775,46.3853359321351));
#305=CARTESIAN_POINT('Ctrl Pts',(23.694122238274,3.8927279537455,46.6208296084684));
#306=CARTESIAN_POINT('Ctrl Pts',(23.2591780924718,6.10488909738111,47.5460190419534));
#307=CARTESIAN_POINT('Ctrl Pts',(22.8463993208415,7.43636003768972,48.4657972902332));
#308=CARTESIAN_POINT('Ctrl Pts',(22.052405610579,9.53706993758815,50.5665071901058));
#309=CARTESIAN_POINT('Ctrl Pts',(21.6143521495218,10.4547445168475,51.897011686899));
#310=CARTESIAN_POINT('Ctrl Pts',(21.1340169609547,11.3786563895064,54.1060055110761));
#311=CARTESIAN_POINT('Ctrl Pts',(21.0034831329616,11.6140207725264,54.8777150822844));
#312=CARTESIAN_POINT('Ctrl Pts',(20.8286332875678,11.924756506238,56.4397680514201));
#313=CARTESIAN_POINT('Ctrl Pts',(20.7846096908265,12.,57.2301695991772));
#314=CARTESIAN_POINT('Ctrl Pts',(20.7846096908265,12.,58.000000000933));
#315=CARTESIAN_POINT('Origin',(0.,0.,85.));
#316=CARTESIAN_POINT('',(24.,2.93915231795365E-015,85.));
#317=CARTESIAN_POINT('Origin',(0.,0.,85.));
#318=CARTESIAN_POINT('',(24.,2.93915231795365E-015,31.));
#319=CARTESIAN_POINT('Origin',(0.,0.,31.));
#320=CARTESIAN_POINT('Origin',(0.,0.,0.));
#321=CARTESIAN_POINT('',(-30.5,-3.735049E-015,116.));
#322=CARTESIAN_POINT('Origin',(0.,0.,116.));
#323=CARTESIAN_POINT('',(30.5,-7.470099E-015,0.));
#324=CARTESIAN_POINT('Origin',(0.,0.,0.));
#325=CARTESIAN_POINT('',(24.979991993594,-17.5,58.000000001122));
#326=CARTESIAN_POINT('',(30.5,-5.87811E-015,40.500000001369));
#327=CARTESIAN_POINT('Ctrl Pts',(24.9799919935936,-17.5,58.0000000011215));
#328=CARTESIAN_POINT('Ctrl Pts',(24.9799919935936,-17.5,56.8672564520025));
#329=CARTESIAN_POINT('Ctrl Pts',(25.0593618020776,-17.3883513544762,55.7084238999541));
#330=CARTESIAN_POINT('Ctrl Pts',(25.3703358963578,-16.9314037443647,53.424669232723));
#331=CARTESIAN_POINT('Ctrl Pts',(25.6012618965075,-16.58633006353,52.2996097386365));
#332=CARTESIAN_POINT('Ctrl Pts',(26.4425101439041,-15.2370362667836,49.0844989998381));
#333=CARTESIAN_POINT('Ctrl Pts',(27.1985081615281,-13.9027881866563,47.15405084634));
#334=CARTESIAN_POINT('Ctrl Pts',(28.2144273322401,-11.6141267864646,44.8653894462064));
#335=CARTESIAN_POINT('Ctrl Pts',(28.5587485644379,-10.7534849484584,44.1469702311484));
#336=CARTESIAN_POINT('Ctrl Pts',(29.1987640766759,-8.86970881584973,42.8714793214012));
#337=CARTESIAN_POINT('Ctrl Pts',(29.4940209308981,-7.84648968795941,42.3143134664683));
#338=CARTESIAN_POINT('Ctrl Pts',(29.9834264104014,-5.69726377121694,41.4123733775401));
#339=CARTESIAN_POINT('Ctrl Pts',(30.1777310424152,-4.56910750790057,41.0668724429724));
#340=CARTESIAN_POINT('Ctrl Pts',(30.4360944817418,-2.28393235241312,40.6106007781591));
#341=CARTESIAN_POINT('Ctrl Pts',(30.5,-1.12686220137859,40.5000000013694));
#342=CARTESIAN_POINT('Ctrl Pts',(30.5,-7.63278329429795E-016,40.5000000013694));
#343=CARTESIAN_POINT('',(30.5,-7.470099E-015,75.500000001369));
#344=CARTESIAN_POINT('Ctrl Pts',(24.9799919935936,-17.5,58.0000000011215));
#345=CARTESIAN_POINT('Ctrl Pts',(24.9799919935936,-17.5,59.1327435502486));
#346=CARTESIAN_POINT('Ctrl Pts',(25.0593618020786,-17.3883513544748,60.291576102305));
#347=CARTESIAN_POINT('Ctrl Pts',(25.3703358963582,-16.9314037443641,62.5753307695562));
#348=CARTESIAN_POINT('Ctrl Pts',(25.6012618965062,-16.5863300635318,63.7003902636549));
#349=CARTESIAN_POINT('Ctrl Pts',(26.4425101438934,-15.2370362668013,66.9155010025004));
#350=CARTESIAN_POINT('Ctrl Pts',(27.1985081615051,-13.9027881866982,68.8459491560438));
#351=CARTESIAN_POINT('Ctrl Pts',(28.21442733221,-11.6141267865374,71.1346105562626));
#352=CARTESIAN_POINT('Ctrl Pts',(28.558748564409,-10.7534849485351,71.8530297713567));
#353=CARTESIAN_POINT('Ctrl Pts',(29.1987640766519,-8.86970881592873,73.1285206811745));
#354=CARTESIAN_POINT('Ctrl Pts',(29.4940209308777,-7.84648968803677,73.685686536142));
#355=CARTESIAN_POINT('Ctrl Pts',(29.9834264103888,-5.69726377128407,74.5876266251297));
#356=CARTESIAN_POINT('Ctrl Pts',(30.1777310424069,-4.56910750795896,74.9331275597225));
#357=CARTESIAN_POINT('Ctrl Pts',(30.4360944817397,-2.28393235244711,75.3893992245703));
#358=CARTESIAN_POINT('Ctrl Pts',(30.5,-1.1268622013969,75.5000000013694));
#359=CARTESIAN_POINT('Ctrl Pts',(30.5,-2.08166817117217E-015,75.5000000013694));
#360=CARTESIAN_POINT('',(24.979991993594,17.5,58.000000001122));
#361=CARTESIAN_POINT('Ctrl Pts',(30.5,1.94289029309402E-015,75.5000000013694));
#362=CARTESIAN_POINT('Ctrl Pts',(30.5,1.1268622013969,75.5000000013694));
#363=CARTESIAN_POINT('Ctrl Pts',(30.4360944817397,2.28393235244711,75.3893992245703));
#364=CARTESIAN_POINT('Ctrl Pts',(30.1777310424069,4.56910750795896,74.9331275597225));
#365=CARTESIAN_POINT('Ctrl Pts',(29.9834264103888,5.69726377128407,74.5876266251297));
#366=CARTESIAN_POINT('Ctrl Pts',(29.4940209308777,7.84648968803677,73.685686536142));
#367=CARTESIAN_POINT('Ctrl Pts',(29.1987640766519,8.86970881592873,73.1285206811745));
#368=CARTESIAN_POINT('Ctrl Pts',(28.558748564409,10.7534849485351,71.8530297713567));
#369=CARTESIAN_POINT('Ctrl Pts',(28.21442733221,11.6141267865374,71.1346105562626));
#370=CARTESIAN_POINT('Ctrl Pts',(27.1985081615051,13.9027881866982,68.8459491560438));
#371=CARTESIAN_POINT('Ctrl Pts',(26.4425101438934,15.2370362668013,66.9155010025004));
#372=CARTESIAN_POINT('Ctrl Pts',(25.6012618965062,16.5863300635318,63.7003902636549));
#373=CARTESIAN_POINT('Ctrl Pts',(25.3703358963582,16.9314037443641,62.5753307695562));
#374=CARTESIAN_POINT('Ctrl Pts',(25.0593618020786,17.3883513544748,60.291576102305));
#375=CARTESIAN_POINT('Ctrl Pts',(24.9799919935936,17.5,59.1327435502486));
#376=CARTESIAN_POINT('Ctrl Pts',(24.9799919935936,17.5,58.0000000011215));
#377=CARTESIAN_POINT('Ctrl Pts',(30.5,-4.44089209850063E-015,40.5000000013694));
#378=CARTESIAN_POINT('Ctrl Pts',(30.5,1.12686220137859,40.5000000013694));
#379=CARTESIAN_POINT('Ctrl Pts',(30.4360944817418,2.28393235241312,40.6106007781591));
#380=CARTESIAN_POINT('Ctrl Pts',(30.1777310424152,4.56910750790056,41.0668724429724));
#381=CARTESIAN_POINT('Ctrl Pts',(29.9834264104014,5.69726377121694,41.4123733775401));
#382=CARTESIAN_POINT('Ctrl Pts',(29.4940209308981,7.8464896879594,42.3143134664682));
#383=CARTESIAN_POINT('Ctrl Pts',(29.1987640766759,8.86970881584971,42.8714793214012));
#384=CARTESIAN_POINT('Ctrl Pts',(28.5587485644379,10.7534849484584,44.1469702311484));
#385=CARTESIAN_POINT('Ctrl Pts',(28.2144273322401,11.6141267864646,44.8653894462063));
#386=CARTESIAN_POINT('Ctrl Pts',(27.1985081615281,13.9027881866563,47.15405084634));
#387=CARTESIAN_POINT('Ctrl Pts',(26.4425101439041,15.2370362667836,49.0844989998381));
#388=CARTESIAN_POINT('Ctrl Pts',(25.6012618965075,16.58633006353,52.2996097386365));
#389=CARTESIAN_POINT('Ctrl Pts',(25.3703358963578,16.9314037443647,53.424669232723));
#390=CARTESIAN_POINT('Ctrl Pts',(25.0593618020776,17.3883513544762,55.7084238999541));
#391=CARTESIAN_POINT('Ctrl Pts',(24.9799919935936,17.5,56.8672564520025));
#392=CARTESIAN_POINT('Ctrl Pts',(24.9799919935936,17.5,58.0000000011215));
#393=CARTESIAN_POINT('Origin',(4.44089209850063E-015,0.,15.5));
#394=CARTESIAN_POINT('',(-25.,-3.061516E-015,31.));
#395=CARTESIAN_POINT('Origin',(0.,0.,31.));
#396=CARTESIAN_POINT('',(-25.,-3.061516E-015,0.));
#397=CARTESIAN_POINT('Origin',(0.,0.,0.));
#398=CARTESIAN_POINT('Origin',(0.,0.,58.));
#399=CARTESIAN_POINT('',(45.9999999992143,-2.143061E-015,75.5000000020653));
#400=CARTESIAN_POINT('Origin',(46.,0.,58.000000002065));
#401=CARTESIAN_POINT('Origin',(4.44089209850063E-015,0.,100.5));
#402=CARTESIAN_POINT('',(-25.,-3.061516E-015,116.));
#403=CARTESIAN_POINT('Origin',(0.,0.,116.));
#404=CARTESIAN_POINT('',(-25.,-3.061516E-015,85.));
#405=CARTESIAN_POINT('Origin',(0.,0.,85.));
#406=CARTESIAN_POINT('Origin',(36.5,0.,58.0000000016386));
#407=CARTESIAN_POINT('',(45.9999999994388,-1.530758E-015,70.500000002065));
#408=CARTESIAN_POINT('Origin',(46.,0.,58.000000002065));
#409=CARTESIAN_POINT('',(26.9999999994388,-1.530758E-015,70.500000001212));
#410=CARTESIAN_POINT('Origin',(27.,0.,58.000000001212));
#411=CARTESIAN_POINT('Origin',(0.,0.,0.));
#412=CARTESIAN_POINT('Origin',(0.,0.,31.));
#413=CARTESIAN_POINT('Origin',(0.,0.,116.));
#414=CARTESIAN_POINT('Origin',(46.,0.,58.000000002065));
#415=CARTESIAN_POINT('Origin',(0.,0.,85.));
#416=CARTESIAN_POINT('Origin',(27.,0.,58.000000001212));
#417=UNCERTAINTY_MEASURE_WITH_UNIT(LENGTH_MEASURE(0.01),#419,
'DISTANCE_ACCURACY_VALUE',
'Maximum model space distance between geometric entities at asserted c
onnectivities');
#418=(
GEOMETRIC_REPRESENTATION_CONTEXT(3)
GLOBAL_UNCERTAINTY_ASSIGNED_CONTEXT((#417))
GLOBAL_UNIT_ASSIGNED_CONTEXT((#419,#422,#420))
REPRESENTATION_CONTEXT('','3D')
);
#419=(
LENGTH_UNIT()
NAMED_UNIT(*)
SI_UNIT(.MILLI.,.METRE.)
);
#420=(
NAMED_UNIT(*)
SI_UNIT($,.STERADIAN.)
SOLID_ANGLE_UNIT()
);
#421=DIMENSIONAL_EXPONENTS(0.,0.,0.,0.,0.,0.,0.);
#422=(
CONVERSION_BASED_UNIT('degree',#424)
NAMED_UNIT(#421)
PLANE_ANGLE_UNIT()
);
#423=(
NAMED_UNIT(*)
PLANE_ANGLE_UNIT()
SI_UNIT($,.RADIAN.)
);
#424=PLANE_ANGLE_MEASURE_WITH_UNIT(PLANE_ANGLE_MEASURE(0.01745329252),#423);
#425=SHAPE_DEFINITION_REPRESENTATION(#426,#427);
#426=PRODUCT_DEFINITION_SHAPE('',$,#429);
#427=SHAPE_REPRESENTATION('',(#182),#418);
#428=PRODUCT_DEFINITION_CONTEXT('3D Mechanical Parts',#432,'design');
#429=PRODUCT_DEFINITION('TRIV050025','TRIV050025',#430,#428);
#430=PRODUCT_DEFINITION_FORMATION('',$,#434);
#431=APPLICATION_PROTOCOL_DEFINITION('international standard',
'automotive_design',2009,#432);
#432=APPLICATION_CONTEXT(
'Core Data for Automotive Mechanical Design Process');
#433=PRODUCT_CONTEXT('3D Mechanical Parts',#432,'mechanical');
#434=PRODUCT('TRIV050025','TRIV050025',$,(#433));
#435=PRESENTATION_STYLE_ASSIGNMENT((#436));
#436=SURFACE_STYLE_USAGE(.BOTH.,#437);
#437=SURFACE_SIDE_STYLE($,(#438));
#438=SURFACE_STYLE_FILL_AREA(#439);
#439=FILL_AREA_STYLE($,(#440));
#440=FILL_AREA_STYLE_COLOUR($,#441);
#441=COLOUR_RGB('',0.509803921568627,0.509803921568627,0.588235294117647);
ENDSEC;
END-ISO-10303-21;
