ISO-10303-21;
HEADER;
FILE_DESCRIPTION( ( '' ), '1' );
FILE_NAME( '//se01002/users/anro/AGRU_12705120041_PPH_grau_Rohr__5m_1200X29_4__SDR41__ISO_S-20_10.stp', '2018-02-07T08:06:22', ( '' ), ( '' ), ' ', ' ', ' ' );
FILE_SCHEMA( ( 'automotive_design' ) );
ENDSEC;
DATA;
#1 = MECHANICAL_DESIGN_GEOMETRIC_PRESENTATION_REPRESENTATION( ' ', ( #10, #11, #12, #13, #14, #15, #16, #17, #18, #19, #20, #21, #22, #23, #24, #25, #26, #27, #28, #29, #30, #31, #32, #33, #34, #35, #36 ), #6 );
#2 = PRODUCT_DEFINITION_CONTEXT( '', #37, 'design' );
#3 = APPLICATION_PROTOCOL_DEFINITION( 'INTERNATIONAL STANDARD', 'automotive_design', 1994, #37 );
#4 = PRODUCT_CATEGORY_RELATIONSHIP( 'NONE', 'NONE', #38, #39 );
#5 = SHAPE_DEFINITION_REPRESENTATION( #40, #41 );
#6 =  ( GEOMETRIC_REPRESENTATION_CONTEXT( 3 )GLOBAL_UNCERTAINTY_ASSIGNED_CONTEXT( ( #44 ) )GLOBAL_UNIT_ASSIGNED_CONTEXT( ( #46, #47, #48 ) )REPRESENTATION_CONTEXT( 'NONE', 'WORKSPACE' ) );
#10 = STYLED_ITEM( '', ( #50 ), #51 );
#11 = STYLED_ITEM( '', ( #52 ), #53 );
#12 = STYLED_ITEM( '', ( #54 ), #55 );
#13 = STYLED_ITEM( '', ( #56 ), #57 );
#14 = STYLED_ITEM( '', ( #58 ), #59 );
#15 = STYLED_ITEM( '', ( #60 ), #61 );
#16 = STYLED_ITEM( '', ( #62 ), #63 );
#17 = STYLED_ITEM( '', ( #64 ), #65 );
#18 = STYLED_ITEM( '', ( #66 ), #67 );
#19 = STYLED_ITEM( '', ( #68 ), #69 );
#20 = STYLED_ITEM( '', ( #70 ), #71 );
#21 = STYLED_ITEM( '', ( #72 ), #73 );
#22 = STYLED_ITEM( '', ( #74 ), #75 );
#23 = STYLED_ITEM( '', ( #76 ), #77 );
#24 = STYLED_ITEM( '', ( #78 ), #79 );
#25 = STYLED_ITEM( '', ( #80 ), #81 );
#26 = STYLED_ITEM( '', ( #82 ), #83 );
#27 = STYLED_ITEM( '', ( #84 ), #85 );
#28 = STYLED_ITEM( '', ( #86 ), #87 );
#29 = STYLED_ITEM( '', ( #88 ), #89 );
#30 = STYLED_ITEM( '', ( #90 ), #91 );
#31 = STYLED_ITEM( '', ( #92 ), #93 );
#32 = STYLED_ITEM( '', ( #94 ), #95 );
#33 = STYLED_ITEM( '', ( #96 ), #97 );
#34 = STYLED_ITEM( '', ( #98 ), #99 );
#35 = STYLED_ITEM( '', ( #100 ), #101 );
#36 = STYLED_ITEM( '', ( #102 ), #103 );
#37 = APPLICATION_CONTEXT( ' ' );
#38 = PRODUCT_CATEGORY( 'part', 'NONE' );
#39 = PRODUCT_RELATED_PRODUCT_CATEGORY( 'detail', ' ', ( #104 ) );
#40 = PRODUCT_DEFINITION_SHAPE( 'NONE', 'NONE', #105 );
#41 = ADVANCED_BREP_SHAPE_REPRESENTATION( '1', ( #51, #106 ), #6 );
#44 = UNCERTAINTY_MEASURE_WITH_UNIT( LENGTH_MEASURE( 1.00000000000000E-006 ), #46, '', '' );
#46 =  ( CONVERSION_BASED_UNIT( 'MILLIMETRE', #109 )LENGTH_UNIT(  )NAMED_UNIT( #112 ) );
#47 =  ( NAMED_UNIT( #114 )PLANE_ANGLE_UNIT(  )SI_UNIT( $, .RADIAN. ) );
#48 =  ( NAMED_UNIT( #114 )SOLID_ANGLE_UNIT(  )SI_UNIT( $, .STERADIAN. ) );
#50 = PRESENTATION_STYLE_ASSIGNMENT( ( #120 ) );
#51 = MANIFOLD_SOLID_BREP( '1', #121 );
#52 = PRESENTATION_STYLE_ASSIGNMENT( ( #122 ) );
#53 = ADVANCED_FACE( '', ( #123 ), #124, .T. );
#54 = PRESENTATION_STYLE_ASSIGNMENT( ( #125 ) );
#55 = EDGE_CURVE( '', #91, #85, #126, .T. );
#56 = PRESENTATION_STYLE_ASSIGNMENT( ( #127 ) );
#57 = EDGE_CURVE( '', #99, #91, #128, .T. );
#58 = PRESENTATION_STYLE_ASSIGNMENT( ( #129 ) );
#59 = EDGE_CURVE( '', #93, #65, #130, .T. );
#60 = PRESENTATION_STYLE_ASSIGNMENT( ( #131 ) );
#61 = VERTEX_POINT( '', #132 );
#62 = PRESENTATION_STYLE_ASSIGNMENT( ( #133 ) );
#63 = VERTEX_POINT( '', #134 );
#64 = PRESENTATION_STYLE_ASSIGNMENT( ( #135 ) );
#65 = VERTEX_POINT( '', #136 );
#66 = PRESENTATION_STYLE_ASSIGNMENT( ( #137 ) );
#67 = ADVANCED_FACE( '', ( #138, #139 ), #140, .T. );
#68 = PRESENTATION_STYLE_ASSIGNMENT( ( #141 ) );
#69 = ADVANCED_FACE( '', ( #142 ), #143, .T. );
#70 = PRESENTATION_STYLE_ASSIGNMENT( ( #144 ) );
#71 = EDGE_CURVE( '', #63, #65, #145, .T. );
#72 = PRESENTATION_STYLE_ASSIGNMENT( ( #146 ) );
#73 = EDGE_CURVE( '', #101, #99, #147, .T. );
#74 = PRESENTATION_STYLE_ASSIGNMENT( ( #148 ) );
#75 = EDGE_CURVE( '', #65, #63, #149, .T. );
#76 = PRESENTATION_STYLE_ASSIGNMENT( ( #150 ) );
#77 = EDGE_CURVE( '', #61, #93, #151, .T. );
#78 = PRESENTATION_STYLE_ASSIGNMENT( ( #152 ) );
#79 = EDGE_CURVE( '', #85, #91, #153, .T. );
#80 = PRESENTATION_STYLE_ASSIGNMENT( ( #154 ) );
#81 = ADVANCED_FACE( '', ( #155 ), #156, .F. );
#82 = PRESENTATION_STYLE_ASSIGNMENT( ( #157 ) );
#83 = ADVANCED_FACE( '', ( #158 ), #159, .F. );
#84 = PRESENTATION_STYLE_ASSIGNMENT( ( #160 ) );
#85 = VERTEX_POINT( '', #161 );
#86 = PRESENTATION_STYLE_ASSIGNMENT( ( #162 ) );
#87 = EDGE_CURVE( '', #63, #61, #163, .T. );
#88 = PRESENTATION_STYLE_ASSIGNMENT( ( #164 ) );
#89 = ADVANCED_FACE( '', ( #165, #166 ), #167, .F. );
#90 = PRESENTATION_STYLE_ASSIGNMENT( ( #168 ) );
#91 = VERTEX_POINT( '', #169 );
#92 = PRESENTATION_STYLE_ASSIGNMENT( ( #170 ) );
#93 = VERTEX_POINT( '', #171 );
#94 = PRESENTATION_STYLE_ASSIGNMENT( ( #172 ) );
#95 = EDGE_CURVE( '', #85, #101, #173, .T. );
#96 = PRESENTATION_STYLE_ASSIGNMENT( ( #174 ) );
#97 = EDGE_CURVE( '', #93, #61, #175, .T. );
#98 = PRESENTATION_STYLE_ASSIGNMENT( ( #176 ) );
#99 = VERTEX_POINT( '', #177 );
#100 = PRESENTATION_STYLE_ASSIGNMENT( ( #178 ) );
#101 = VERTEX_POINT( '', #179 );
#102 = PRESENTATION_STYLE_ASSIGNMENT( ( #180 ) );
#103 = EDGE_CURVE( '', #99, #101, #181, .T. );
#104 = PRODUCT( '1', '1', 'PART-1-DESC', ( #182 ) );
#105 = PRODUCT_DEFINITION( 'NONE', 'NONE', #183, #2 );
#106 = AXIS2_PLACEMENT_3D( '', #184, #185, #186 );
#109 = LENGTH_MEASURE_WITH_UNIT( LENGTH_MEASURE( 1.00000000000000 ), #187 );
#112 = DIMENSIONAL_EXPONENTS( 1.00000000000000, 0.000000000000000, 0.000000000000000, 0.000000000000000, 0.000000000000000, 0.000000000000000, 0.000000000000000 );
#114 = DIMENSIONAL_EXPONENTS( 0.000000000000000, 0.000000000000000, 0.000000000000000, 0.000000000000000, 0.000000000000000, 0.000000000000000, 0.000000000000000 );
#120 = SURFACE_STYLE_USAGE( .BOTH., #188 );
#121 = CLOSED_SHELL( '', ( #69, #81, #83, #53, #67, #89 ) );
#122 = SURFACE_STYLE_USAGE( .BOTH., #189 );
#123 = FACE_OUTER_BOUND( '', #190, .T. );
#124 = CYLINDRICAL_SURFACE( '', #191, 600.000000000000 );
#125 = CURVE_STYLE( '', #192, POSITIVE_LENGTH_MEASURE( 1.00000000000000E-006 ), #193 );
#126 = CIRCLE( '', #194, 600.000000000000 );
#127 = CURVE_STYLE( '', #195, POSITIVE_LENGTH_MEASURE( 1.00000000000000E-006 ), #196 );
#128 = LINE( '', #197, #198 );
#129 = CURVE_STYLE( '', #199, POSITIVE_LENGTH_MEASURE( 1.00000000000000E-006 ), #200 );
#130 = LINE( '', #201, #202 );
#131 = POINT_STYLE( ' ', #203, POSITIVE_LENGTH_MEASURE( 1.00000000000000E-006 ), #204 );
#132 = CARTESIAN_POINT( '', ( 0.000000000000000, 6.98760385491049E-014, 570.600000000000 ) );
#133 = POINT_STYLE( ' ', #205, POSITIVE_LENGTH_MEASURE( 1.00000000000000E-006 ), #206 );
#134 = CARTESIAN_POINT( '', ( 5000.00000000000, 6.98760385491049E-014, 570.600000000000 ) );
#135 = POINT_STYLE( ' ', #207, POSITIVE_LENGTH_MEASURE( 1.00000000000000E-006 ), #208 );
#136 = CARTESIAN_POINT( '', ( 5000.00000000000, 0.000000000000000, -570.600000000000 ) );
#137 = SURFACE_STYLE_USAGE( .BOTH., #209 );
#138 = FACE_OUTER_BOUND( '', #210, .T. );
#139 = FACE_BOUND( '', #211, .T. );
#140 = PLANE( '', #212 );
#141 = SURFACE_STYLE_USAGE( .BOTH., #213 );
#142 = FACE_OUTER_BOUND( '', #214, .T. );
#143 = CYLINDRICAL_SURFACE( '', #215, 600.000000000000 );
#144 = CURVE_STYLE( '', #216, POSITIVE_LENGTH_MEASURE( 1.00000000000000E-006 ), #217 );
#145 = CIRCLE( '', #218, 570.600000000000 );
#146 = CURVE_STYLE( '', #219, POSITIVE_LENGTH_MEASURE( 1.00000000000000E-006 ), #220 );
#147 = CIRCLE( '', #221, 600.000000000000 );
#148 = CURVE_STYLE( '', #222, POSITIVE_LENGTH_MEASURE( 1.00000000000000E-006 ), #223 );
#149 = CIRCLE( '', #224, 570.600000000000 );
#150 = CURVE_STYLE( '', #225, POSITIVE_LENGTH_MEASURE( 1.00000000000000E-006 ), #226 );
#151 = CIRCLE( '', #227, 570.600000000000 );
#152 = CURVE_STYLE( '', #228, POSITIVE_LENGTH_MEASURE( 1.00000000000000E-006 ), #229 );
#153 = CIRCLE( '', #230, 600.000000000000 );
#154 = SURFACE_STYLE_USAGE( .BOTH., #231 );
#155 = FACE_OUTER_BOUND( '', #232, .T. );
#156 = CYLINDRICAL_SURFACE( '', #233, 570.600000000000 );
#157 = SURFACE_STYLE_USAGE( .BOTH., #234 );
#158 = FACE_OUTER_BOUND( '', #235, .T. );
#159 = CYLINDRICAL_SURFACE( '', #236, 570.600000000000 );
#160 = POINT_STYLE( ' ', #237, POSITIVE_LENGTH_MEASURE( 1.00000000000000E-006 ), #238 );
#161 = CARTESIAN_POINT( '', ( 5000.00000000000, 7.34763812293426E-014, 600.000000000000 ) );
#162 = CURVE_STYLE( '', #239, POSITIVE_LENGTH_MEASURE( 1.00000000000000E-006 ), #240 );
#163 = LINE( '', #241, #242 );
#164 = SURFACE_STYLE_USAGE( .BOTH., #243 );
#165 = FACE_OUTER_BOUND( '', #244, .T. );
#166 = FACE_BOUND( '', #245, .T. );
#167 = PLANE( '', #246 );
#168 = POINT_STYLE( ' ', #247, POSITIVE_LENGTH_MEASURE( 1.00000000000000E-006 ), #248 );
#169 = CARTESIAN_POINT( '', ( 5000.00000000000, 0.000000000000000, -600.000000000000 ) );
#170 = POINT_STYLE( ' ', #249, POSITIVE_LENGTH_MEASURE( 1.00000000000000E-006 ), #250 );
#171 = CARTESIAN_POINT( '', ( 0.000000000000000, 0.000000000000000, -570.600000000000 ) );
#172 = CURVE_STYLE( '', #251, POSITIVE_LENGTH_MEASURE( 1.00000000000000E-006 ), #252 );
#173 = LINE( '', #253, #254 );
#174 = CURVE_STYLE( '', #255, POSITIVE_LENGTH_MEASURE( 1.00000000000000E-006 ), #256 );
#175 = CIRCLE( '', #257, 570.600000000000 );
#176 = POINT_STYLE( ' ', #258, POSITIVE_LENGTH_MEASURE( 1.00000000000000E-006 ), #259 );
#177 = CARTESIAN_POINT( '', ( 0.000000000000000, 0.000000000000000, -600.000000000000 ) );
#178 = POINT_STYLE( ' ', #260, POSITIVE_LENGTH_MEASURE( 1.00000000000000E-006 ), #261 );
#179 = CARTESIAN_POINT( '', ( 0.000000000000000, 7.34763812293426E-014, 600.000000000000 ) );
#180 = CURVE_STYLE( '', #262, POSITIVE_LENGTH_MEASURE( 1.00000000000000E-006 ), #263 );
#181 = CIRCLE( '', #264, 600.000000000000 );
#182 = PRODUCT_CONTEXT( '', #37, 'mechanical' );
#183 = PRODUCT_DEFINITION_FORMATION_WITH_SPECIFIED_SOURCE( ' ', 'NONE', #104, .NOT_KNOWN. );
#184 = CARTESIAN_POINT( '', ( 0.000000000000000, 0.000000000000000, 0.000000000000000 ) );
#185 = DIRECTION( '', ( 0.000000000000000, 0.000000000000000, 1.00000000000000 ) );
#186 = DIRECTION( '', ( 1.00000000000000, 0.000000000000000, 0.000000000000000 ) );
#187 =  ( NAMED_UNIT( #112 )LENGTH_UNIT(  )SI_UNIT( .MILLI., .METRE. ) );
#188 = SURFACE_SIDE_STYLE( '', ( #266 ) );
#189 = SURFACE_SIDE_STYLE( '', ( #267 ) );
#190 = EDGE_LOOP( '', ( #268, #269, #270, #271 ) );
#191 = AXIS2_PLACEMENT_3D( '', #272, #273, #274 );
#192 = DRAUGHTING_PRE_DEFINED_CURVE_FONT( 'continuous' );
#193 = COLOUR_RGB( '', 0.689999997615810, 0.689999997615810, 0.689999997615810 );
#194 = AXIS2_PLACEMENT_3D( '', #275, #276, #277 );
#195 = DRAUGHTING_PRE_DEFINED_CURVE_FONT( 'continuous' );
#196 = COLOUR_RGB( '', 0.689999997615810, 0.689999997615810, 0.689999997615810 );
#197 = CARTESIAN_POINT( '', ( 0.000000000000000, -7.34763812293426E-014, -600.000000000000 ) );
#198 = VECTOR( '', #278, 1.00000000000000 );
#199 = DRAUGHTING_PRE_DEFINED_CURVE_FONT( 'continuous' );
#200 = COLOUR_RGB( '', 0.689999997615810, 0.689999997615810, 0.689999997615810 );
#201 = CARTESIAN_POINT( '', ( 0.000000000000000, -6.98760385491049E-014, -570.600000000000 ) );
#202 = VECTOR( '', #279, 1.00000000000000 );
#203 = PRE_DEFINED_MARKER( '' );
#204 = COLOUR_RGB( '', 0.689999997615810, 0.689999997615810, 0.689999997615810 );
#205 = PRE_DEFINED_MARKER( '' );
#206 = COLOUR_RGB( '', 0.689999997615810, 0.689999997615810, 0.689999997615810 );
#207 = PRE_DEFINED_MARKER( '' );
#208 = COLOUR_RGB( '', 0.689999997615810, 0.689999997615810, 0.689999997615810 );
#209 = SURFACE_SIDE_STYLE( '', ( #280 ) );
#210 = EDGE_LOOP( '', ( #281, #282 ) );
#211 = EDGE_LOOP( '', ( #283, #284 ) );
#212 = AXIS2_PLACEMENT_3D( '', #285, #286, #287 );
#213 = SURFACE_SIDE_STYLE( '', ( #288 ) );
#214 = EDGE_LOOP( '', ( #289, #290, #291, #292 ) );
#215 = AXIS2_PLACEMENT_3D( '', #293, #294, #295 );
#216 = DRAUGHTING_PRE_DEFINED_CURVE_FONT( 'continuous' );
#217 = COLOUR_RGB( '', 0.689999997615810, 0.689999997615810, 0.689999997615810 );
#218 = AXIS2_PLACEMENT_3D( '', #296, #297, #298 );
#219 = DRAUGHTING_PRE_DEFINED_CURVE_FONT( 'continuous' );
#220 = COLOUR_RGB( '', 0.689999997615810, 0.689999997615810, 0.689999997615810 );
#221 = AXIS2_PLACEMENT_3D( '', #299, #300, #301 );
#222 = DRAUGHTING_PRE_DEFINED_CURVE_FONT( 'continuous' );
#223 = COLOUR_RGB( '', 0.689999997615810, 0.689999997615810, 0.689999997615810 );
#224 = AXIS2_PLACEMENT_3D( '', #302, #303, #304 );
#225 = DRAUGHTING_PRE_DEFINED_CURVE_FONT( 'continuous' );
#226 = COLOUR_RGB( '', 0.689999997615810, 0.689999997615810, 0.689999997615810 );
#227 = AXIS2_PLACEMENT_3D( '', #305, #306, #307 );
#228 = DRAUGHTING_PRE_DEFINED_CURVE_FONT( 'continuous' );
#229 = COLOUR_RGB( '', 0.689999997615810, 0.689999997615810, 0.689999997615810 );
#230 = AXIS2_PLACEMENT_3D( '', #308, #309, #310 );
#231 = SURFACE_SIDE_STYLE( '', ( #311 ) );
#232 = EDGE_LOOP( '', ( #312, #313, #314, #315 ) );
#233 = AXIS2_PLACEMENT_3D( '', #316, #317, #318 );
#234 = SURFACE_SIDE_STYLE( '', ( #319 ) );
#235 = EDGE_LOOP( '', ( #320, #321, #322, #323 ) );
#236 = AXIS2_PLACEMENT_3D( '', #324, #325, #326 );
#237 = PRE_DEFINED_MARKER( '' );
#238 = COLOUR_RGB( '', 0.689999997615810, 0.689999997615810, 0.689999997615810 );
#239 = DRAUGHTING_PRE_DEFINED_CURVE_FONT( 'continuous' );
#240 = COLOUR_RGB( '', 0.689999997615810, 0.689999997615810, 0.689999997615810 );
#241 = CARTESIAN_POINT( '', ( 0.000000000000000, 6.98760385491049E-014, 570.600000000000 ) );
#242 = VECTOR( '', #327, 1.00000000000000 );
#243 = SURFACE_SIDE_STYLE( '', ( #328 ) );
#244 = EDGE_LOOP( '', ( #329, #330 ) );
#245 = EDGE_LOOP( '', ( #331, #332 ) );
#246 = AXIS2_PLACEMENT_3D( '', #333, #334, #335 );
#247 = PRE_DEFINED_MARKER( '' );
#248 = COLOUR_RGB( '', 0.689999997615810, 0.689999997615810, 0.689999997615810 );
#249 = PRE_DEFINED_MARKER( '' );
#250 = COLOUR_RGB( '', 0.689999997615810, 0.689999997615810, 0.689999997615810 );
#251 = DRAUGHTING_PRE_DEFINED_CURVE_FONT( 'continuous' );
#252 = COLOUR_RGB( '', 0.689999997615810, 0.689999997615810, 0.689999997615810 );
#253 = CARTESIAN_POINT( '', ( 0.000000000000000, 7.34763812293426E-014, 600.000000000000 ) );
#254 = VECTOR( '', #336, 1.00000000000000 );
#255 = DRAUGHTING_PRE_DEFINED_CURVE_FONT( 'continuous' );
#256 = COLOUR_RGB( '', 0.689999997615810, 0.689999997615810, 0.689999997615810 );
#257 = AXIS2_PLACEMENT_3D( '', #337, #338, #339 );
#258 = PRE_DEFINED_MARKER( '' );
#259 = COLOUR_RGB( '', 0.689999997615810, 0.689999997615810, 0.689999997615810 );
#260 = PRE_DEFINED_MARKER( '' );
#261 = COLOUR_RGB( '', 0.689999997615810, 0.689999997615810, 0.689999997615810 );
#262 = DRAUGHTING_PRE_DEFINED_CURVE_FONT( 'continuous' );
#263 = COLOUR_RGB( '', 0.689999997615810, 0.689999997615810, 0.689999997615810 );
#264 = AXIS2_PLACEMENT_3D( '', #340, #341, #342 );
#266 = SURFACE_STYLE_FILL_AREA( #343 );
#267 = SURFACE_STYLE_FILL_AREA( #344 );
#268 = ORIENTED_EDGE( '', *, *, #57, .T. );
#269 = ORIENTED_EDGE( '', *, *, #55, .T. );
#270 = ORIENTED_EDGE( '', *, *, #95, .T. );
#271 = ORIENTED_EDGE( '', *, *, #73, .T. );
#272 = CARTESIAN_POINT( '', ( 0.000000000000000, 0.000000000000000, 0.000000000000000 ) );
#273 = DIRECTION( '', ( -1.00000000000000, -0.000000000000000, -0.000000000000000 ) );
#274 = DIRECTION( '', ( 0.000000000000000, 0.000000000000000, -1.00000000000000 ) );
#275 = CARTESIAN_POINT( '', ( 5000.00000000000, 0.000000000000000, 0.000000000000000 ) );
#276 = DIRECTION( '', ( -1.00000000000000, 0.000000000000000, 0.000000000000000 ) );
#277 = DIRECTION( '', ( 0.000000000000000, 0.000000000000000, -1.00000000000000 ) );
#278 = DIRECTION( '', ( 1.00000000000000, 0.000000000000000, 0.000000000000000 ) );
#279 = DIRECTION( '', ( 1.00000000000000, 0.000000000000000, 0.000000000000000 ) );
#280 = SURFACE_STYLE_FILL_AREA( #345 );
#281 = ORIENTED_EDGE( '', *, *, #55, .F. );
#282 = ORIENTED_EDGE( '', *, *, #79, .F. );
#283 = ORIENTED_EDGE( '', *, *, #75, .F. );
#284 = ORIENTED_EDGE( '', *, *, #71, .F. );
#285 = CARTESIAN_POINT( '', ( 5000.00000000000, 0.000000000000000, 0.000000000000000 ) );
#286 = DIRECTION( '', ( 1.00000000000000, 0.000000000000000, 0.000000000000000 ) );
#287 = DIRECTION( '', ( 0.000000000000000, 0.000000000000000, -1.00000000000000 ) );
#288 = SURFACE_STYLE_FILL_AREA( #346 );
#289 = ORIENTED_EDGE( '', *, *, #57, .F. );
#290 = ORIENTED_EDGE( '', *, *, #103, .T. );
#291 = ORIENTED_EDGE( '', *, *, #95, .F. );
#292 = ORIENTED_EDGE( '', *, *, #79, .T. );
#293 = CARTESIAN_POINT( '', ( 0.000000000000000, 0.000000000000000, 0.000000000000000 ) );
#294 = DIRECTION( '', ( -1.00000000000000, -0.000000000000000, -0.000000000000000 ) );
#295 = DIRECTION( '', ( 0.000000000000000, 0.000000000000000, -1.00000000000000 ) );
#296 = CARTESIAN_POINT( '', ( 5000.00000000000, 0.000000000000000, 0.000000000000000 ) );
#297 = DIRECTION( '', ( 1.00000000000000, 0.000000000000000, 0.000000000000000 ) );
#298 = DIRECTION( '', ( 0.000000000000000, 0.000000000000000, -1.00000000000000 ) );
#299 = CARTESIAN_POINT( '', ( 0.000000000000000, 0.000000000000000, 0.000000000000000 ) );
#300 = DIRECTION( '', ( 1.00000000000000, -0.000000000000000, 0.000000000000000 ) );
#301 = DIRECTION( '', ( 0.000000000000000, 0.000000000000000, -1.00000000000000 ) );
#302 = CARTESIAN_POINT( '', ( 5000.00000000000, 0.000000000000000, 0.000000000000000 ) );
#303 = DIRECTION( '', ( 1.00000000000000, 0.000000000000000, 0.000000000000000 ) );
#304 = DIRECTION( '', ( 0.000000000000000, 0.000000000000000, -1.00000000000000 ) );
#305 = CARTESIAN_POINT( '', ( 0.000000000000000, 0.000000000000000, 0.000000000000000 ) );
#306 = DIRECTION( '', ( 1.00000000000000, -0.000000000000000, 0.000000000000000 ) );
#307 = DIRECTION( '', ( 0.000000000000000, 0.000000000000000, -1.00000000000000 ) );
#308 = CARTESIAN_POINT( '', ( 5000.00000000000, 0.000000000000000, 0.000000000000000 ) );
#309 = DIRECTION( '', ( -1.00000000000000, 0.000000000000000, 0.000000000000000 ) );
#310 = DIRECTION( '', ( 0.000000000000000, 0.000000000000000, -1.00000000000000 ) );
#311 = SURFACE_STYLE_FILL_AREA( #347 );
#312 = ORIENTED_EDGE( '', *, *, #59, .F. );
#313 = ORIENTED_EDGE( '', *, *, #77, .F. );
#314 = ORIENTED_EDGE( '', *, *, #87, .F. );
#315 = ORIENTED_EDGE( '', *, *, #71, .T. );
#316 = CARTESIAN_POINT( '', ( 0.000000000000000, 0.000000000000000, 0.000000000000000 ) );
#317 = DIRECTION( '', ( -1.00000000000000, -0.000000000000000, -0.000000000000000 ) );
#318 = DIRECTION( '', ( 0.000000000000000, 0.000000000000000, -1.00000000000000 ) );
#319 = SURFACE_STYLE_FILL_AREA( #348 );
#320 = ORIENTED_EDGE( '', *, *, #59, .T. );
#321 = ORIENTED_EDGE( '', *, *, #75, .T. );
#322 = ORIENTED_EDGE( '', *, *, #87, .T. );
#323 = ORIENTED_EDGE( '', *, *, #97, .F. );
#324 = CARTESIAN_POINT( '', ( 0.000000000000000, 0.000000000000000, 0.000000000000000 ) );
#325 = DIRECTION( '', ( -1.00000000000000, -0.000000000000000, -0.000000000000000 ) );
#326 = DIRECTION( '', ( 0.000000000000000, 0.000000000000000, -1.00000000000000 ) );
#327 = DIRECTION( '', ( -1.00000000000000, 0.000000000000000, 0.000000000000000 ) );
#328 = SURFACE_STYLE_FILL_AREA( #349 );
#329 = ORIENTED_EDGE( '', *, *, #103, .F. );
#330 = ORIENTED_EDGE( '', *, *, #73, .F. );
#331 = ORIENTED_EDGE( '', *, *, #97, .T. );
#332 = ORIENTED_EDGE( '', *, *, #77, .T. );
#333 = CARTESIAN_POINT( '', ( 0.000000000000000, 0.000000000000000, 0.000000000000000 ) );
#334 = DIRECTION( '', ( 1.00000000000000, 0.000000000000000, 0.000000000000000 ) );
#335 = DIRECTION( '', ( 0.000000000000000, 0.000000000000000, -1.00000000000000 ) );
#336 = DIRECTION( '', ( -1.00000000000000, -0.000000000000000, -0.000000000000000 ) );
#337 = CARTESIAN_POINT( '', ( 0.000000000000000, 0.000000000000000, 0.000000000000000 ) );
#338 = DIRECTION( '', ( 1.00000000000000, -0.000000000000000, 0.000000000000000 ) );
#339 = DIRECTION( '', ( 0.000000000000000, 0.000000000000000, -1.00000000000000 ) );
#340 = CARTESIAN_POINT( '', ( 0.000000000000000, 0.000000000000000, 0.000000000000000 ) );
#341 = DIRECTION( '', ( 1.00000000000000, -0.000000000000000, 0.000000000000000 ) );
#342 = DIRECTION( '', ( 0.000000000000000, 0.000000000000000, -1.00000000000000 ) );
#343 = FILL_AREA_STYLE( '', ( #350 ) );
#344 = FILL_AREA_STYLE( '', ( #351 ) );
#345 = FILL_AREA_STYLE( '', ( #352 ) );
#346 = FILL_AREA_STYLE( '', ( #353 ) );
#347 = FILL_AREA_STYLE( '', ( #354 ) );
#348 = FILL_AREA_STYLE( '', ( #355 ) );
#349 = FILL_AREA_STYLE( '', ( #356 ) );
#350 = FILL_AREA_STYLE_COLOUR( '', #357 );
#351 = FILL_AREA_STYLE_COLOUR( '', #358 );
#352 = FILL_AREA_STYLE_COLOUR( '', #359 );
#353 = FILL_AREA_STYLE_COLOUR( '', #360 );
#354 = FILL_AREA_STYLE_COLOUR( '', #361 );
#355 = FILL_AREA_STYLE_COLOUR( '', #362 );
#356 = FILL_AREA_STYLE_COLOUR( '', #363 );
#357 = COLOUR_RGB( '', 0.689999997615810, 0.689999997615810, 0.689999997615810 );
#358 = COLOUR_RGB( '', 0.689999997615810, 0.689999997615810, 0.689999997615810 );
#359 = COLOUR_RGB( '', 0.689999997615810, 0.689999997615810, 0.689999997615810 );
#360 = COLOUR_RGB( '', 0.689999997615810, 0.689999997615810, 0.689999997615810 );
#361 = COLOUR_RGB( '', 0.689999997615810, 0.689999997615810, 0.689999997615810 );
#362 = COLOUR_RGB( '', 0.689999997615810, 0.689999997615810, 0.689999997615810 );
#363 = COLOUR_RGB( '', 0.689999997615810, 0.689999997615810, 0.689999997615810 );
ENDSEC;
END-ISO-10303-21;
