ISO-10303-21;
HEADER;
/* Generated by software containing ST-Developer
 * from STEP Tools, Inc. (www.steptools.com) 
 */

FILE_DESCRIPTION(
/* description */ (''),
/* implementation_level */ '2;1');

FILE_NAME(
/* name */ 'C:\\Users\\mdebiase\\Desktop\\baricentro\\MIV025.ipt.stp',
/* time_stamp */ '2014-05-27T15:24:02+02:00',
/* author */ ('bfaro'),
/* organization */ (''),
/* preprocessor_version */ 'ST-DEVELOPER v15.2',
/* originating_system */ 'Autodesk Inventor 2014',
/* authorisation */ '');

FILE_SCHEMA (('AUTOMOTIVE_DESIGN { 1 0 10303 214 3 1 1 }'));
ENDSEC;

DATA;
#10=SHAPE_REPRESENTATION_RELATIONSHIP('SRR','None',#189,#11);
#11=ADVANCED_BREP_SHAPE_REPRESENTATION($,(#102),#180);
#12=STYLED_ITEM($,(#197),#102);
#13=PLANE($,#116);
#14=PLANE($,#117);
#15=PLANE($,#118);
#16=PLANE($,#119);
#17=FACE_BOUND($,#34,.T.);
#18=FACE_BOUND($,#36,.T.);
#19=FACE_BOUND($,#38,.T.);
#20=FACE_BOUND($,#40,.T.);
#21=FACE_BOUND($,#41,.T.);
#22=FACE_BOUND($,#42,.T.);
#23=FACE_BOUND($,#44,.T.);
#24=FACE_BOUND($,#46,.T.);
#25=FACE_BOUND($,#47,.T.);
#26=FACE_BOUND($,#48,.T.);
#27=FACE_OUTER_BOUND($,#33,.T.);
#28=FACE_OUTER_BOUND($,#35,.T.);
#29=FACE_OUTER_BOUND($,#37,.T.);
#30=FACE_OUTER_BOUND($,#39,.T.);
#31=FACE_OUTER_BOUND($,#43,.T.);
#32=FACE_OUTER_BOUND($,#45,.T.);
#33=EDGE_LOOP($,(#73));
#34=EDGE_LOOP($,(#74));
#35=EDGE_LOOP($,(#75));
#36=EDGE_LOOP($,(#76));
#37=EDGE_LOOP($,(#77));
#38=EDGE_LOOP($,(#78));
#39=EDGE_LOOP($,(#79));
#40=EDGE_LOOP($,(#80));
#41=EDGE_LOOP($,(#81));
#42=EDGE_LOOP($,(#82));
#43=EDGE_LOOP($,(#83));
#44=EDGE_LOOP($,(#84));
#45=EDGE_LOOP($,(#85));
#46=EDGE_LOOP($,(#86));
#47=EDGE_LOOP($,(#87));
#48=EDGE_LOOP($,(#88));
#49=CIRCLE($,#105,12.);
#50=CIRCLE($,#106,12.);
#51=CIRCLE($,#108,12.5);
#52=CIRCLE($,#109,12.5);
#53=CIRCLE($,#111,16.);
#54=CIRCLE($,#112,16.);
#55=CIRCLE($,#114,12.5);
#56=CIRCLE($,#115,12.5);
#57=VERTEX_POINT($,#156);
#58=VERTEX_POINT($,#158);
#59=VERTEX_POINT($,#161);
#60=VERTEX_POINT($,#163);
#61=VERTEX_POINT($,#166);
#62=VERTEX_POINT($,#168);
#63=VERTEX_POINT($,#171);
#64=VERTEX_POINT($,#173);
#65=EDGE_CURVE($,#57,#57,#49,.T.);
#66=EDGE_CURVE($,#58,#58,#50,.T.);
#67=EDGE_CURVE($,#59,#59,#51,.T.);
#68=EDGE_CURVE($,#60,#60,#52,.T.);
#69=EDGE_CURVE($,#61,#61,#53,.T.);
#70=EDGE_CURVE($,#62,#62,#54,.T.);
#71=EDGE_CURVE($,#63,#63,#55,.T.);
#72=EDGE_CURVE($,#64,#64,#56,.T.);
#73=ORIENTED_EDGE($,*,*,#65,.F.);
#74=ORIENTED_EDGE($,*,*,#66,.F.);
#75=ORIENTED_EDGE($,*,*,#67,.T.);
#76=ORIENTED_EDGE($,*,*,#68,.F.);
#77=ORIENTED_EDGE($,*,*,#69,.T.);
#78=ORIENTED_EDGE($,*,*,#70,.F.);
#79=ORIENTED_EDGE($,*,*,#71,.T.);
#80=ORIENTED_EDGE($,*,*,#72,.F.);
#81=ORIENTED_EDGE($,*,*,#66,.T.);
#82=ORIENTED_EDGE($,*,*,#67,.F.);
#83=ORIENTED_EDGE($,*,*,#69,.F.);
#84=ORIENTED_EDGE($,*,*,#68,.T.);
#85=ORIENTED_EDGE($,*,*,#70,.T.);
#86=ORIENTED_EDGE($,*,*,#71,.F.);
#87=ORIENTED_EDGE($,*,*,#65,.T.);
#88=ORIENTED_EDGE($,*,*,#72,.T.);
#89=CYLINDRICAL_SURFACE($,#104,12.);
#90=CYLINDRICAL_SURFACE($,#107,12.5);
#91=CYLINDRICAL_SURFACE($,#110,16.);
#92=CYLINDRICAL_SURFACE($,#113,12.5);
#93=ADVANCED_FACE($,(#27,#17),#89,.F.);
#94=ADVANCED_FACE($,(#28,#18),#90,.F.);
#95=ADVANCED_FACE($,(#29,#19),#91,.T.);
#96=ADVANCED_FACE($,(#30,#20),#92,.F.);
#97=ADVANCED_FACE($,(#21,#22),#13,.T.);
#98=ADVANCED_FACE($,(#31,#23),#14,.T.);
#99=ADVANCED_FACE($,(#32,#24),#15,.T.);
#100=ADVANCED_FACE($,(#25,#26),#16,.T.);
#101=CLOSED_SHELL($,(#93,#94,#95,#96,#97,#98,#99,#100));
#102=MANIFOLD_SOLID_BREP('Solido1',#101);
#103=AXIS2_PLACEMENT_3D('placement',#154,#120,#121);
#104=AXIS2_PLACEMENT_3D($,#155,#122,#123);
#105=AXIS2_PLACEMENT_3D($,#157,#124,#125);
#106=AXIS2_PLACEMENT_3D($,#159,#126,#127);
#107=AXIS2_PLACEMENT_3D($,#160,#128,#129);
#108=AXIS2_PLACEMENT_3D($,#162,#130,#131);
#109=AXIS2_PLACEMENT_3D($,#164,#132,#133);
#110=AXIS2_PLACEMENT_3D($,#165,#134,#135);
#111=AXIS2_PLACEMENT_3D($,#167,#136,#137);
#112=AXIS2_PLACEMENT_3D($,#169,#138,#139);
#113=AXIS2_PLACEMENT_3D($,#170,#140,#141);
#114=AXIS2_PLACEMENT_3D($,#172,#142,#143);
#115=AXIS2_PLACEMENT_3D($,#174,#144,#145);
#116=AXIS2_PLACEMENT_3D($,#175,#146,#147);
#117=AXIS2_PLACEMENT_3D($,#176,#148,#149);
#118=AXIS2_PLACEMENT_3D($,#177,#150,#151);
#119=AXIS2_PLACEMENT_3D($,#178,#152,#153);
#120=DIRECTION('axis',(0.,0.,1.));
#121=DIRECTION('refdir',(1.,0.,0.));
#122=DIRECTION('center_axis',(-1.,0.,0.));
#123=DIRECTION('ref_axis',(0.,0.,1.));
#124=DIRECTION('center_axis',(1.,0.,0.));
#125=DIRECTION('ref_axis',(0.,0.,1.));
#126=DIRECTION('center_axis',(-1.,0.,0.));
#127=DIRECTION('ref_axis',(0.,0.,1.));
#128=DIRECTION('center_axis',(-1.,0.,0.));
#129=DIRECTION('ref_axis',(0.,1.,0.));
#130=DIRECTION('center_axis',(-1.,0.,0.));
#131=DIRECTION('ref_axis',(0.,1.,0.));
#132=DIRECTION('center_axis',(-1.,0.,0.));
#133=DIRECTION('ref_axis',(0.,1.,0.));
#134=DIRECTION('center_axis',(-1.,0.,0.));
#135=DIRECTION('ref_axis',(0.,1.,0.));
#136=DIRECTION('center_axis',(-1.,0.,0.));
#137=DIRECTION('ref_axis',(0.,1.,0.));
#138=DIRECTION('center_axis',(-1.,0.,0.));
#139=DIRECTION('ref_axis',(0.,1.,0.));
#140=DIRECTION('center_axis',(-1.,0.,0.));
#141=DIRECTION('ref_axis',(0.,1.,0.));
#142=DIRECTION('center_axis',(-1.,0.,0.));
#143=DIRECTION('ref_axis',(0.,1.,0.));
#144=DIRECTION('center_axis',(-1.,0.,0.));
#145=DIRECTION('ref_axis',(0.,1.,0.));
#146=DIRECTION('center_axis',(1.,0.,0.));
#147=DIRECTION('ref_axis',(0.,0.,-1.));
#148=DIRECTION('center_axis',(1.,0.,0.));
#149=DIRECTION('ref_axis',(0.,0.,-1.));
#150=DIRECTION('center_axis',(-1.,0.,0.));
#151=DIRECTION('ref_axis',(0.,0.,1.));
#152=DIRECTION('center_axis',(-1.,0.,0.));
#153=DIRECTION('ref_axis',(0.,0.,1.));
#154=CARTESIAN_POINT('',(0.,0.,0.));
#155=CARTESIAN_POINT('Origin',(1.49999958926301,-1.86280004754735E-007,
0.));
#156=CARTESIAN_POINT('',(-1.50000041073699,-1.86280004754735E-007,-12.));
#157=CARTESIAN_POINT('Origin',(-1.50000041073699,-1.86280004754735E-007,
0.));
#158=CARTESIAN_POINT('',(1.49999958926301,-1.86280004754735E-007,-12.));
#159=CARTESIAN_POINT('Origin',(1.49999958926301,-1.86280004754735E-007,
0.));
#160=CARTESIAN_POINT('Origin',(10.999999589263,-1.86280004754735E-007,0.));
#161=CARTESIAN_POINT('',(1.49999958926301,-12.50000018628,1.530758E-015));
#162=CARTESIAN_POINT('Origin',(1.49999958926301,-1.86280004754735E-007,
0.));
#163=CARTESIAN_POINT('',(20.499999589263,-12.50000018628,1.530758E-015));
#164=CARTESIAN_POINT('Origin',(20.499999589263,-1.86280004754735E-007,0.));
#165=CARTESIAN_POINT('Origin',(-4.10736991085514E-007,-1.86280004754735E-007,
0.));
#166=CARTESIAN_POINT('',(20.499999589263,-16.00000018628,1.95937E-015));
#167=CARTESIAN_POINT('Origin',(20.499999589263,-1.86280004754735E-007,0.));
#168=CARTESIAN_POINT('',(-20.5000004107368,-16.00000018628,1.95937E-015));
#169=CARTESIAN_POINT('Origin',(-20.5000004107368,-1.86280004754735E-007,
0.));
#170=CARTESIAN_POINT('Origin',(-11.0000004107369,-1.86280004754735E-007,
0.));
#171=CARTESIAN_POINT('',(-20.5000004107368,-12.50000018628,1.530758E-015));
#172=CARTESIAN_POINT('Origin',(-20.5000004107368,-1.86280004754735E-007,
0.));
#173=CARTESIAN_POINT('',(-1.50000041073699,-12.50000018628,1.530758E-015));
#174=CARTESIAN_POINT('Origin',(-1.50000041073699,-1.86280004754735E-007,
0.));
#175=CARTESIAN_POINT('Origin',(1.49999958926301,6.24999981372,0.));
#176=CARTESIAN_POINT('Origin',(20.499999589263,14.24999981372,0.));
#177=CARTESIAN_POINT('Origin',(-20.5000004107368,14.24999981372,0.));
#178=CARTESIAN_POINT('Origin',(-1.50000041073699,6.24999981372,0.));
#179=UNCERTAINTY_MEASURE_WITH_UNIT(LENGTH_MEASURE(0.01),#181,
'DISTANCE_ACCURACY_VALUE',
'Maximum model space distance between geometric entities at asserted c
onnectivities');
#180=(
GEOMETRIC_REPRESENTATION_CONTEXT(3)
GLOBAL_UNCERTAINTY_ASSIGNED_CONTEXT((#179))
GLOBAL_UNIT_ASSIGNED_CONTEXT((#181,#184,#182))
REPRESENTATION_CONTEXT('','3D')
);
#181=(
LENGTH_UNIT()
NAMED_UNIT(*)
SI_UNIT(.MILLI.,.METRE.)
);
#182=(
NAMED_UNIT(*)
SI_UNIT($,.STERADIAN.)
SOLID_ANGLE_UNIT()
);
#183=DIMENSIONAL_EXPONENTS(0.,0.,0.,0.,0.,0.,0.);
#184=(
CONVERSION_BASED_UNIT('degree',#186)
NAMED_UNIT(#183)
PLANE_ANGLE_UNIT()
);
#185=(
NAMED_UNIT(*)
PLANE_ANGLE_UNIT()
SI_UNIT($,.RADIAN.)
);
#186=PLANE_ANGLE_MEASURE_WITH_UNIT(PLANE_ANGLE_MEASURE(0.01745329252),#185);
#187=SHAPE_DEFINITION_REPRESENTATION(#188,#189);
#188=PRODUCT_DEFINITION_SHAPE('',$,#191);
#189=SHAPE_REPRESENTATION('',(#103),#180);
#190=PRODUCT_DEFINITION_CONTEXT('3D Mechanical Parts',#194,'design');
#191=PRODUCT_DEFINITION('MIV025','MIV025',#192,#190);
#192=PRODUCT_DEFINITION_FORMATION('',$,#196);
#193=APPLICATION_PROTOCOL_DEFINITION('international standard',
'automotive_design',2009,#194);
#194=APPLICATION_CONTEXT(
'Core Data for Automotive Mechanical Design Process');
#195=PRODUCT_CONTEXT('3D Mechanical Parts',#194,'mechanical');
#196=PRODUCT('MIV025','MIV025',$,(#195));
#197=PRESENTATION_STYLE_ASSIGNMENT((#198));
#198=SURFACE_STYLE_USAGE(.BOTH.,#199);
#199=SURFACE_SIDE_STYLE($,(#200));
#200=SURFACE_STYLE_FILL_AREA(#201);
#201=FILL_AREA_STYLE($,(#202));
#202=FILL_AREA_STYLE_COLOUR($,#203);
#203=COLOUR_RGB('',0.509803921568627,0.509803921568627,0.588235294117647);
ENDSEC;
END-ISO-10303-21;
