ISO-10303-21;
HEADER;
FILE_DESCRIPTION( ( '' ), '1' );
FILE_NAME( '//se01002/users/anro/AGRU_12705003207_PPH_grau_Rohr__5m_32X4_4__SDR7_4__ISO_S-3_2_10.stp', '2018-02-07T08:07:13', ( '' ), ( '' ), ' ', ' ', ' ' );
FILE_SCHEMA( ( 'automotive_design' ) );
ENDSEC;
DATA;
#1 = MECHANICAL_DESIGN_GEOMETRIC_PRESENTATION_REPRESENTATION( ' ', ( #10, #11, #12, #13, #14, #15, #16, #17, #18, #19, #20, #21, #22, #23, #24, #25, #26, #27, #28, #29, #30, #31, #32, #33, #34, #35, #36 ), #6 );
#2 = PRODUCT_DEFINITION_CONTEXT( '', #37, 'design' );
#3 = APPLICATION_PROTOCOL_DEFINITION( 'INTERNATIONAL STANDARD', 'automotive_design', 1994, #37 );
#4 = PRODUCT_CATEGORY_RELATIONSHIP( 'NONE', 'NONE', #38, #39 );
#5 = SHAPE_DEFINITION_REPRESENTATION( #40, #41 );
#6 =  ( GEOMETRIC_REPRESENTATION_CONTEXT( 3 )GLOBAL_UNCERTAINTY_ASSIGNED_CONTEXT( ( #44 ) )GLOBAL_UNIT_ASSIGNED_CONTEXT( ( #46, #47, #48 ) )REPRESENTATION_CONTEXT( 'NONE', 'WORKSPACE' ) );
#10 = STYLED_ITEM( '', ( #50 ), #51 );
#11 = STYLED_ITEM( '', ( #52 ), #53 );
#12 = STYLED_ITEM( '', ( #54 ), #55 );
#13 = STYLED_ITEM( '', ( #56 ), #57 );
#14 = STYLED_ITEM( '', ( #58 ), #59 );
#15 = STYLED_ITEM( '', ( #60 ), #61 );
#16 = STYLED_ITEM( '', ( #62 ), #63 );
#17 = STYLED_ITEM( '', ( #64 ), #65 );
#18 = STYLED_ITEM( '', ( #66 ), #67 );
#19 = STYLED_ITEM( '', ( #68 ), #69 );
#20 = STYLED_ITEM( '', ( #70 ), #71 );
#21 = STYLED_ITEM( '', ( #72 ), #73 );
#22 = STYLED_ITEM( '', ( #74 ), #75 );
#23 = STYLED_ITEM( '', ( #76 ), #77 );
#24 = STYLED_ITEM( '', ( #78 ), #79 );
#25 = STYLED_ITEM( '', ( #80 ), #81 );
#26 = STYLED_ITEM( '', ( #82 ), #83 );
#27 = STYLED_ITEM( '', ( #84 ), #85 );
#28 = STYLED_ITEM( '', ( #86 ), #87 );
#29 = STYLED_ITEM( '', ( #88 ), #89 );
#30 = STYLED_ITEM( '', ( #90 ), #91 );
#31 = STYLED_ITEM( '', ( #92 ), #93 );
#32 = STYLED_ITEM( '', ( #94 ), #95 );
#33 = STYLED_ITEM( '', ( #96 ), #97 );
#34 = STYLED_ITEM( '', ( #98 ), #99 );
#35 = STYLED_ITEM( '', ( #100 ), #101 );
#36 = STYLED_ITEM( '', ( #102 ), #103 );
#37 = APPLICATION_CONTEXT( ' ' );
#38 = PRODUCT_CATEGORY( 'part', 'NONE' );
#39 = PRODUCT_RELATED_PRODUCT_CATEGORY( 'detail', ' ', ( #104 ) );
#40 = PRODUCT_DEFINITION_SHAPE( 'NONE', 'NONE', #105 );
#41 = ADVANCED_BREP_SHAPE_REPRESENTATION( '1', ( #91, #106 ), #6 );
#44 = UNCERTAINTY_MEASURE_WITH_UNIT( LENGTH_MEASURE( 1.00000000000000E-006 ), #46, '', '' );
#46 =  ( CONVERSION_BASED_UNIT( 'MILLIMETRE', #109 )LENGTH_UNIT(  )NAMED_UNIT( #112 ) );
#47 =  ( NAMED_UNIT( #114 )PLANE_ANGLE_UNIT(  )SI_UNIT( $, .RADIAN. ) );
#48 =  ( NAMED_UNIT( #114 )SOLID_ANGLE_UNIT(  )SI_UNIT( $, .STERADIAN. ) );
#50 = PRESENTATION_STYLE_ASSIGNMENT( ( #120 ) );
#51 = VERTEX_POINT( '', #121 );
#52 = PRESENTATION_STYLE_ASSIGNMENT( ( #122 ) );
#53 = VERTEX_POINT( '', #123 );
#54 = PRESENTATION_STYLE_ASSIGNMENT( ( #124 ) );
#55 = ADVANCED_FACE( '', ( #125 ), #126, .F. );
#56 = PRESENTATION_STYLE_ASSIGNMENT( ( #127 ) );
#57 = VERTEX_POINT( '', #128 );
#58 = PRESENTATION_STYLE_ASSIGNMENT( ( #129 ) );
#59 = EDGE_CURVE( '', #83, #85, #130, .T. );
#60 = PRESENTATION_STYLE_ASSIGNMENT( ( #131 ) );
#61 = EDGE_CURVE( '', #93, #83, #132, .T. );
#62 = PRESENTATION_STYLE_ASSIGNMENT( ( #133 ) );
#63 = EDGE_CURVE( '', #87, #57, #134, .T. );
#64 = PRESENTATION_STYLE_ASSIGNMENT( ( #135 ) );
#65 = ADVANCED_FACE( '', ( #136, #137 ), #138, .F. );
#66 = PRESENTATION_STYLE_ASSIGNMENT( ( #139 ) );
#67 = EDGE_CURVE( '', #97, #51, #140, .T. );
#68 = PRESENTATION_STYLE_ASSIGNMENT( ( #141 ) );
#69 = ADVANCED_FACE( '', ( #142 ), #143, .T. );
#70 = PRESENTATION_STYLE_ASSIGNMENT( ( #144 ) );
#71 = EDGE_CURVE( '', #57, #97, #145, .T. );
#72 = PRESENTATION_STYLE_ASSIGNMENT( ( #146 ) );
#73 = ADVANCED_FACE( '', ( #147, #148 ), #149, .T. );
#74 = PRESENTATION_STYLE_ASSIGNMENT( ( #150 ) );
#75 = ADVANCED_FACE( '', ( #151 ), #152, .F. );
#76 = PRESENTATION_STYLE_ASSIGNMENT( ( #153 ) );
#77 = ADVANCED_FACE( '', ( #154 ), #155, .T. );
#78 = PRESENTATION_STYLE_ASSIGNMENT( ( #156 ) );
#79 = EDGE_CURVE( '', #87, #51, #157, .T. );
#80 = PRESENTATION_STYLE_ASSIGNMENT( ( #158 ) );
#81 = EDGE_CURVE( '', #97, #57, #159, .T. );
#82 = PRESENTATION_STYLE_ASSIGNMENT( ( #160 ) );
#83 = VERTEX_POINT( '', #161 );
#84 = PRESENTATION_STYLE_ASSIGNMENT( ( #162 ) );
#85 = VERTEX_POINT( '', #163 );
#86 = PRESENTATION_STYLE_ASSIGNMENT( ( #164 ) );
#87 = VERTEX_POINT( '', #165 );
#88 = PRESENTATION_STYLE_ASSIGNMENT( ( #166 ) );
#89 = EDGE_CURVE( '', #53, #85, #167, .T. );
#90 = PRESENTATION_STYLE_ASSIGNMENT( ( #168 ) );
#91 = MANIFOLD_SOLID_BREP( '1', #169 );
#92 = PRESENTATION_STYLE_ASSIGNMENT( ( #170 ) );
#93 = VERTEX_POINT( '', #171 );
#94 = PRESENTATION_STYLE_ASSIGNMENT( ( #172 ) );
#95 = EDGE_CURVE( '', #85, #53, #173, .T. );
#96 = PRESENTATION_STYLE_ASSIGNMENT( ( #174 ) );
#97 = VERTEX_POINT( '', #175 );
#98 = PRESENTATION_STYLE_ASSIGNMENT( ( #176 ) );
#99 = EDGE_CURVE( '', #83, #93, #177, .T. );
#100 = PRESENTATION_STYLE_ASSIGNMENT( ( #178 ) );
#101 = EDGE_CURVE( '', #51, #87, #179, .T. );
#102 = PRESENTATION_STYLE_ASSIGNMENT( ( #180 ) );
#103 = EDGE_CURVE( '', #53, #93, #181, .T. );
#104 = PRODUCT( '1', '1', 'PART-1-DESC', ( #182 ) );
#105 = PRODUCT_DEFINITION( 'NONE', 'NONE', #183, #2 );
#106 = AXIS2_PLACEMENT_3D( '', #184, #185, #186 );
#109 = LENGTH_MEASURE_WITH_UNIT( LENGTH_MEASURE( 1.00000000000000 ), #187 );
#112 = DIMENSIONAL_EXPONENTS( 1.00000000000000, 0.000000000000000, 0.000000000000000, 0.000000000000000, 0.000000000000000, 0.000000000000000, 0.000000000000000 );
#114 = DIMENSIONAL_EXPONENTS( 0.000000000000000, 0.000000000000000, 0.000000000000000, 0.000000000000000, 0.000000000000000, 0.000000000000000, 0.000000000000000 );
#120 = POINT_STYLE( ' ', #188, POSITIVE_LENGTH_MEASURE( 1.00000000000000E-006 ), #189 );
#121 = CARTESIAN_POINT( '', ( 5000.00000000000, 0.000000000000000, -16.0000000000000 ) );
#122 = POINT_STYLE( ' ', #190, POSITIVE_LENGTH_MEASURE( 1.00000000000000E-006 ), #191 );
#123 = CARTESIAN_POINT( '', ( 0.000000000000000, 0.000000000000000, -11.6000000000000 ) );
#124 = SURFACE_STYLE_USAGE( .BOTH., #192 );
#125 = FACE_OUTER_BOUND( '', #193, .T. );
#126 = CYLINDRICAL_SURFACE( '', #194, 11.6000000000000 );
#127 = POINT_STYLE( ' ', #195, POSITIVE_LENGTH_MEASURE( 1.00000000000000E-006 ), #196 );
#128 = CARTESIAN_POINT( '', ( 0.000000000000000, 1.95937016611580E-015, 16.0000000000000 ) );
#129 = CURVE_STYLE( '', #197, POSITIVE_LENGTH_MEASURE( 1.00000000000000E-006 ), #198 );
#130 = LINE( '', #199, #200 );
#131 = CURVE_STYLE( '', #201, POSITIVE_LENGTH_MEASURE( 1.00000000000000E-006 ), #202 );
#132 = CIRCLE( '', #203, 11.6000000000000 );
#133 = CURVE_STYLE( '', #204, POSITIVE_LENGTH_MEASURE( 1.00000000000000E-006 ), #205 );
#134 = LINE( '', #206, #207 );
#135 = SURFACE_STYLE_USAGE( .BOTH., #208 );
#136 = FACE_OUTER_BOUND( '', #209, .T. );
#137 = FACE_BOUND( '', #210, .T. );
#138 = PLANE( '', #211 );
#139 = CURVE_STYLE( '', #212, POSITIVE_LENGTH_MEASURE( 1.00000000000000E-006 ), #213 );
#140 = LINE( '', #214, #215 );
#141 = SURFACE_STYLE_USAGE( .BOTH., #216 );
#142 = FACE_OUTER_BOUND( '', #217, .T. );
#143 = CYLINDRICAL_SURFACE( '', #218, 16.0000000000000 );
#144 = CURVE_STYLE( '', #219, POSITIVE_LENGTH_MEASURE( 1.00000000000000E-006 ), #220 );
#145 = CIRCLE( '', #221, 16.0000000000000 );
#146 = SURFACE_STYLE_USAGE( .BOTH., #222 );
#147 = FACE_OUTER_BOUND( '', #223, .T. );
#148 = FACE_BOUND( '', #224, .T. );
#149 = PLANE( '', #225 );
#150 = SURFACE_STYLE_USAGE( .BOTH., #226 );
#151 = FACE_OUTER_BOUND( '', #227, .T. );
#152 = CYLINDRICAL_SURFACE( '', #228, 11.6000000000000 );
#153 = SURFACE_STYLE_USAGE( .BOTH., #229 );
#154 = FACE_OUTER_BOUND( '', #230, .T. );
#155 = CYLINDRICAL_SURFACE( '', #231, 16.0000000000000 );
#156 = CURVE_STYLE( '', #232, POSITIVE_LENGTH_MEASURE( 1.00000000000000E-006 ), #233 );
#157 = CIRCLE( '', #234, 16.0000000000000 );
#158 = CURVE_STYLE( '', #235, POSITIVE_LENGTH_MEASURE( 1.00000000000000E-006 ), #236 );
#159 = CIRCLE( '', #237, 16.0000000000000 );
#160 = POINT_STYLE( ' ', #238, POSITIVE_LENGTH_MEASURE( 1.00000000000000E-006 ), #239 );
#161 = CARTESIAN_POINT( '', ( 5000.00000000000, 1.42054337043396E-015, 11.6000000000000 ) );
#162 = POINT_STYLE( ' ', #240, POSITIVE_LENGTH_MEASURE( 1.00000000000000E-006 ), #241 );
#163 = CARTESIAN_POINT( '', ( 0.000000000000000, 1.42054337043396E-015, 11.6000000000000 ) );
#164 = POINT_STYLE( ' ', #242, POSITIVE_LENGTH_MEASURE( 1.00000000000000E-006 ), #243 );
#165 = CARTESIAN_POINT( '', ( 5000.00000000000, 1.95937016611580E-015, 16.0000000000000 ) );
#166 = CURVE_STYLE( '', #244, POSITIVE_LENGTH_MEASURE( 1.00000000000000E-006 ), #245 );
#167 = CIRCLE( '', #246, 11.6000000000000 );
#168 = SURFACE_STYLE_USAGE( .BOTH., #247 );
#169 = CLOSED_SHELL( '', ( #69, #55, #75, #77, #73, #65 ) );
#170 = POINT_STYLE( ' ', #248, POSITIVE_LENGTH_MEASURE( 1.00000000000000E-006 ), #249 );
#171 = CARTESIAN_POINT( '', ( 5000.00000000000, 0.000000000000000, -11.6000000000000 ) );
#172 = CURVE_STYLE( '', #250, POSITIVE_LENGTH_MEASURE( 1.00000000000000E-006 ), #251 );
#173 = CIRCLE( '', #252, 11.6000000000000 );
#174 = POINT_STYLE( ' ', #253, POSITIVE_LENGTH_MEASURE( 1.00000000000000E-006 ), #254 );
#175 = CARTESIAN_POINT( '', ( 0.000000000000000, 0.000000000000000, -16.0000000000000 ) );
#176 = CURVE_STYLE( '', #255, POSITIVE_LENGTH_MEASURE( 1.00000000000000E-006 ), #256 );
#177 = CIRCLE( '', #257, 11.6000000000000 );
#178 = CURVE_STYLE( '', #258, POSITIVE_LENGTH_MEASURE( 1.00000000000000E-006 ), #259 );
#179 = CIRCLE( '', #260, 16.0000000000000 );
#180 = CURVE_STYLE( '', #261, POSITIVE_LENGTH_MEASURE( 1.00000000000000E-006 ), #262 );
#181 = LINE( '', #263, #264 );
#182 = PRODUCT_CONTEXT( '', #37, 'mechanical' );
#183 = PRODUCT_DEFINITION_FORMATION_WITH_SPECIFIED_SOURCE( ' ', 'NONE', #104, .NOT_KNOWN. );
#184 = CARTESIAN_POINT( '', ( 0.000000000000000, 0.000000000000000, 0.000000000000000 ) );
#185 = DIRECTION( '', ( 0.000000000000000, 0.000000000000000, 1.00000000000000 ) );
#186 = DIRECTION( '', ( 1.00000000000000, 0.000000000000000, 0.000000000000000 ) );
#187 =  ( NAMED_UNIT( #112 )LENGTH_UNIT(  )SI_UNIT( .MILLI., .METRE. ) );
#188 = PRE_DEFINED_MARKER( '' );
#189 = COLOUR_RGB( '', 0.689999997615810, 0.689999997615810, 0.689999997615810 );
#190 = PRE_DEFINED_MARKER( '' );
#191 = COLOUR_RGB( '', 0.689999997615810, 0.689999997615810, 0.689999997615810 );
#192 = SURFACE_SIDE_STYLE( '', ( #266 ) );
#193 = EDGE_LOOP( '', ( #267, #268, #269, #270 ) );
#194 = AXIS2_PLACEMENT_3D( '', #271, #272, #273 );
#195 = PRE_DEFINED_MARKER( '' );
#196 = COLOUR_RGB( '', 0.689999997615810, 0.689999997615810, 0.689999997615810 );
#197 = DRAUGHTING_PRE_DEFINED_CURVE_FONT( 'continuous' );
#198 = COLOUR_RGB( '', 0.689999997615810, 0.689999997615810, 0.689999997615810 );
#199 = CARTESIAN_POINT( '', ( 0.000000000000000, 1.42054337043396E-015, 11.6000000000000 ) );
#200 = VECTOR( '', #274, 1.00000000000000 );
#201 = DRAUGHTING_PRE_DEFINED_CURVE_FONT( 'continuous' );
#202 = COLOUR_RGB( '', 0.689999997615810, 0.689999997615810, 0.689999997615810 );
#203 = AXIS2_PLACEMENT_3D( '', #275, #276, #277 );
#204 = DRAUGHTING_PRE_DEFINED_CURVE_FONT( 'continuous' );
#205 = COLOUR_RGB( '', 0.689999997615810, 0.689999997615810, 0.689999997615810 );
#206 = CARTESIAN_POINT( '', ( 0.000000000000000, 1.95937016611580E-015, 16.0000000000000 ) );
#207 = VECTOR( '', #278, 1.00000000000000 );
#208 = SURFACE_SIDE_STYLE( '', ( #279 ) );
#209 = EDGE_LOOP( '', ( #280, #281 ) );
#210 = EDGE_LOOP( '', ( #282, #283 ) );
#211 = AXIS2_PLACEMENT_3D( '', #284, #285, #286 );
#212 = DRAUGHTING_PRE_DEFINED_CURVE_FONT( 'continuous' );
#213 = COLOUR_RGB( '', 0.689999997615810, 0.689999997615810, 0.689999997615810 );
#214 = CARTESIAN_POINT( '', ( 0.000000000000000, -1.95937016611580E-015, -16.0000000000000 ) );
#215 = VECTOR( '', #287, 1.00000000000000 );
#216 = SURFACE_SIDE_STYLE( '', ( #288 ) );
#217 = EDGE_LOOP( '', ( #289, #290, #291, #292 ) );
#218 = AXIS2_PLACEMENT_3D( '', #293, #294, #295 );
#219 = DRAUGHTING_PRE_DEFINED_CURVE_FONT( 'continuous' );
#220 = COLOUR_RGB( '', 0.689999997615810, 0.689999997615810, 0.689999997615810 );
#221 = AXIS2_PLACEMENT_3D( '', #296, #297, #298 );
#222 = SURFACE_SIDE_STYLE( '', ( #299 ) );
#223 = EDGE_LOOP( '', ( #300, #301 ) );
#224 = EDGE_LOOP( '', ( #302, #303 ) );
#225 = AXIS2_PLACEMENT_3D( '', #304, #305, #306 );
#226 = SURFACE_SIDE_STYLE( '', ( #307 ) );
#227 = EDGE_LOOP( '', ( #308, #309, #310, #311 ) );
#228 = AXIS2_PLACEMENT_3D( '', #312, #313, #314 );
#229 = SURFACE_SIDE_STYLE( '', ( #315 ) );
#230 = EDGE_LOOP( '', ( #316, #317, #318, #319 ) );
#231 = AXIS2_PLACEMENT_3D( '', #320, #321, #322 );
#232 = DRAUGHTING_PRE_DEFINED_CURVE_FONT( 'continuous' );
#233 = COLOUR_RGB( '', 0.689999997615810, 0.689999997615810, 0.689999997615810 );
#234 = AXIS2_PLACEMENT_3D( '', #323, #324, #325 );
#235 = DRAUGHTING_PRE_DEFINED_CURVE_FONT( 'continuous' );
#236 = COLOUR_RGB( '', 0.689999997615810, 0.689999997615810, 0.689999997615810 );
#237 = AXIS2_PLACEMENT_3D( '', #326, #327, #328 );
#238 = PRE_DEFINED_MARKER( '' );
#239 = COLOUR_RGB( '', 0.689999997615810, 0.689999997615810, 0.689999997615810 );
#240 = PRE_DEFINED_MARKER( '' );
#241 = COLOUR_RGB( '', 0.689999997615810, 0.689999997615810, 0.689999997615810 );
#242 = PRE_DEFINED_MARKER( '' );
#243 = COLOUR_RGB( '', 0.689999997615810, 0.689999997615810, 0.689999997615810 );
#244 = DRAUGHTING_PRE_DEFINED_CURVE_FONT( 'continuous' );
#245 = COLOUR_RGB( '', 0.689999997615810, 0.689999997615810, 0.689999997615810 );
#246 = AXIS2_PLACEMENT_3D( '', #329, #330, #331 );
#247 = SURFACE_SIDE_STYLE( '', ( #332 ) );
#248 = PRE_DEFINED_MARKER( '' );
#249 = COLOUR_RGB( '', 0.689999997615810, 0.689999997615810, 0.689999997615810 );
#250 = DRAUGHTING_PRE_DEFINED_CURVE_FONT( 'continuous' );
#251 = COLOUR_RGB( '', 0.689999997615810, 0.689999997615810, 0.689999997615810 );
#252 = AXIS2_PLACEMENT_3D( '', #333, #334, #335 );
#253 = PRE_DEFINED_MARKER( '' );
#254 = COLOUR_RGB( '', 0.689999997615810, 0.689999997615810, 0.689999997615810 );
#255 = DRAUGHTING_PRE_DEFINED_CURVE_FONT( 'continuous' );
#256 = COLOUR_RGB( '', 0.689999997615810, 0.689999997615810, 0.689999997615810 );
#257 = AXIS2_PLACEMENT_3D( '', #336, #337, #338 );
#258 = DRAUGHTING_PRE_DEFINED_CURVE_FONT( 'continuous' );
#259 = COLOUR_RGB( '', 0.689999997615810, 0.689999997615810, 0.689999997615810 );
#260 = AXIS2_PLACEMENT_3D( '', #339, #340, #341 );
#261 = DRAUGHTING_PRE_DEFINED_CURVE_FONT( 'continuous' );
#262 = COLOUR_RGB( '', 0.689999997615810, 0.689999997615810, 0.689999997615810 );
#263 = CARTESIAN_POINT( '', ( 0.000000000000000, -1.42054337043396E-015, -11.6000000000000 ) );
#264 = VECTOR( '', #342, 1.00000000000000 );
#266 = SURFACE_STYLE_FILL_AREA( #343 );
#267 = ORIENTED_EDGE( '', *, *, #103, .F. );
#268 = ORIENTED_EDGE( '', *, *, #95, .F. );
#269 = ORIENTED_EDGE( '', *, *, #59, .F. );
#270 = ORIENTED_EDGE( '', *, *, #99, .T. );
#271 = CARTESIAN_POINT( '', ( 0.000000000000000, 0.000000000000000, 0.000000000000000 ) );
#272 = DIRECTION( '', ( -1.00000000000000, -0.000000000000000, -0.000000000000000 ) );
#273 = DIRECTION( '', ( 0.000000000000000, 0.000000000000000, -1.00000000000000 ) );
#274 = DIRECTION( '', ( -1.00000000000000, 0.000000000000000, 0.000000000000000 ) );
#275 = CARTESIAN_POINT( '', ( 5000.00000000000, 0.000000000000000, 0.000000000000000 ) );
#276 = DIRECTION( '', ( 1.00000000000000, 0.000000000000000, 0.000000000000000 ) );
#277 = DIRECTION( '', ( 0.000000000000000, 0.000000000000000, -1.00000000000000 ) );
#278 = DIRECTION( '', ( -1.00000000000000, -0.000000000000000, -0.000000000000000 ) );
#279 = SURFACE_STYLE_FILL_AREA( #344 );
#280 = ORIENTED_EDGE( '', *, *, #81, .F. );
#281 = ORIENTED_EDGE( '', *, *, #71, .F. );
#282 = ORIENTED_EDGE( '', *, *, #89, .T. );
#283 = ORIENTED_EDGE( '', *, *, #95, .T. );
#284 = CARTESIAN_POINT( '', ( 0.000000000000000, 0.000000000000000, 0.000000000000000 ) );
#285 = DIRECTION( '', ( 1.00000000000000, 0.000000000000000, 0.000000000000000 ) );
#286 = DIRECTION( '', ( 0.000000000000000, 0.000000000000000, -1.00000000000000 ) );
#287 = DIRECTION( '', ( 1.00000000000000, 0.000000000000000, 0.000000000000000 ) );
#288 = SURFACE_STYLE_FILL_AREA( #345 );
#289 = ORIENTED_EDGE( '', *, *, #67, .F. );
#290 = ORIENTED_EDGE( '', *, *, #81, .T. );
#291 = ORIENTED_EDGE( '', *, *, #63, .F. );
#292 = ORIENTED_EDGE( '', *, *, #79, .T. );
#293 = CARTESIAN_POINT( '', ( 0.000000000000000, 0.000000000000000, 0.000000000000000 ) );
#294 = DIRECTION( '', ( -1.00000000000000, -0.000000000000000, -0.000000000000000 ) );
#295 = DIRECTION( '', ( 0.000000000000000, 0.000000000000000, -1.00000000000000 ) );
#296 = CARTESIAN_POINT( '', ( 0.000000000000000, 0.000000000000000, 0.000000000000000 ) );
#297 = DIRECTION( '', ( 1.00000000000000, -0.000000000000000, 0.000000000000000 ) );
#298 = DIRECTION( '', ( 0.000000000000000, 0.000000000000000, -1.00000000000000 ) );
#299 = SURFACE_STYLE_FILL_AREA( #346 );
#300 = ORIENTED_EDGE( '', *, *, #101, .F. );
#301 = ORIENTED_EDGE( '', *, *, #79, .F. );
#302 = ORIENTED_EDGE( '', *, *, #61, .F. );
#303 = ORIENTED_EDGE( '', *, *, #99, .F. );
#304 = CARTESIAN_POINT( '', ( 5000.00000000000, 0.000000000000000, 0.000000000000000 ) );
#305 = DIRECTION( '', ( 1.00000000000000, 0.000000000000000, 0.000000000000000 ) );
#306 = DIRECTION( '', ( 0.000000000000000, 0.000000000000000, -1.00000000000000 ) );
#307 = SURFACE_STYLE_FILL_AREA( #347 );
#308 = ORIENTED_EDGE( '', *, *, #103, .T. );
#309 = ORIENTED_EDGE( '', *, *, #61, .T. );
#310 = ORIENTED_EDGE( '', *, *, #59, .T. );
#311 = ORIENTED_EDGE( '', *, *, #89, .F. );
#312 = CARTESIAN_POINT( '', ( 0.000000000000000, 0.000000000000000, 0.000000000000000 ) );
#313 = DIRECTION( '', ( -1.00000000000000, -0.000000000000000, -0.000000000000000 ) );
#314 = DIRECTION( '', ( 0.000000000000000, 0.000000000000000, -1.00000000000000 ) );
#315 = SURFACE_STYLE_FILL_AREA( #348 );
#316 = ORIENTED_EDGE( '', *, *, #67, .T. );
#317 = ORIENTED_EDGE( '', *, *, #101, .T. );
#318 = ORIENTED_EDGE( '', *, *, #63, .T. );
#319 = ORIENTED_EDGE( '', *, *, #71, .T. );
#320 = CARTESIAN_POINT( '', ( 0.000000000000000, 0.000000000000000, 0.000000000000000 ) );
#321 = DIRECTION( '', ( -1.00000000000000, -0.000000000000000, -0.000000000000000 ) );
#322 = DIRECTION( '', ( 0.000000000000000, 0.000000000000000, -1.00000000000000 ) );
#323 = CARTESIAN_POINT( '', ( 5000.00000000000, 0.000000000000000, 0.000000000000000 ) );
#324 = DIRECTION( '', ( -1.00000000000000, 0.000000000000000, 0.000000000000000 ) );
#325 = DIRECTION( '', ( 0.000000000000000, 0.000000000000000, -1.00000000000000 ) );
#326 = CARTESIAN_POINT( '', ( 0.000000000000000, 0.000000000000000, 0.000000000000000 ) );
#327 = DIRECTION( '', ( 1.00000000000000, -0.000000000000000, 0.000000000000000 ) );
#328 = DIRECTION( '', ( 0.000000000000000, 0.000000000000000, -1.00000000000000 ) );
#329 = CARTESIAN_POINT( '', ( 0.000000000000000, 0.000000000000000, 0.000000000000000 ) );
#330 = DIRECTION( '', ( 1.00000000000000, -0.000000000000000, 0.000000000000000 ) );
#331 = DIRECTION( '', ( 0.000000000000000, 0.000000000000000, -1.00000000000000 ) );
#332 = SURFACE_STYLE_FILL_AREA( #349 );
#333 = CARTESIAN_POINT( '', ( 0.000000000000000, 0.000000000000000, 0.000000000000000 ) );
#334 = DIRECTION( '', ( 1.00000000000000, -0.000000000000000, 0.000000000000000 ) );
#335 = DIRECTION( '', ( 0.000000000000000, 0.000000000000000, -1.00000000000000 ) );
#336 = CARTESIAN_POINT( '', ( 5000.00000000000, 0.000000000000000, 0.000000000000000 ) );
#337 = DIRECTION( '', ( 1.00000000000000, 0.000000000000000, 0.000000000000000 ) );
#338 = DIRECTION( '', ( 0.000000000000000, 0.000000000000000, -1.00000000000000 ) );
#339 = CARTESIAN_POINT( '', ( 5000.00000000000, 0.000000000000000, 0.000000000000000 ) );
#340 = DIRECTION( '', ( -1.00000000000000, 0.000000000000000, 0.000000000000000 ) );
#341 = DIRECTION( '', ( 0.000000000000000, 0.000000000000000, -1.00000000000000 ) );
#342 = DIRECTION( '', ( 1.00000000000000, 0.000000000000000, 0.000000000000000 ) );
#343 = FILL_AREA_STYLE( '', ( #350 ) );
#344 = FILL_AREA_STYLE( '', ( #351 ) );
#345 = FILL_AREA_STYLE( '', ( #352 ) );
#346 = FILL_AREA_STYLE( '', ( #353 ) );
#347 = FILL_AREA_STYLE( '', ( #354 ) );
#348 = FILL_AREA_STYLE( '', ( #355 ) );
#349 = FILL_AREA_STYLE( '', ( #356 ) );
#350 = FILL_AREA_STYLE_COLOUR( '', #357 );
#351 = FILL_AREA_STYLE_COLOUR( '', #358 );
#352 = FILL_AREA_STYLE_COLOUR( '', #359 );
#353 = FILL_AREA_STYLE_COLOUR( '', #360 );
#354 = FILL_AREA_STYLE_COLOUR( '', #361 );
#355 = FILL_AREA_STYLE_COLOUR( '', #362 );
#356 = FILL_AREA_STYLE_COLOUR( '', #363 );
#357 = COLOUR_RGB( '', 0.689999997615810, 0.689999997615810, 0.689999997615810 );
#358 = COLOUR_RGB( '', 0.689999997615810, 0.689999997615810, 0.689999997615810 );
#359 = COLOUR_RGB( '', 0.689999997615810, 0.689999997615810, 0.689999997615810 );
#360 = COLOUR_RGB( '', 0.689999997615810, 0.689999997615810, 0.689999997615810 );
#361 = COLOUR_RGB( '', 0.689999997615810, 0.689999997615810, 0.689999997615810 );
#362 = COLOUR_RGB( '', 0.689999997615810, 0.689999997615810, 0.689999997615810 );
#363 = COLOUR_RGB( '', 0.689999997615810, 0.689999997615810, 0.689999997615810 );
ENDSEC;
END-ISO-10303-21;
