ISO-10303-21;
HEADER;
FILE_DESCRIPTION( ( 'STEP AP203' ), '1' );
FILE_NAME( 'p:/temp/worker_40/temp/exporttempdir_4508_70_QInLc/format_0/30060005021(architecture400).stp', '2022-04-22T09:13:02', ( 'License CC BY-ND 4.0' ), ( 'CADENAS' ), ' ', 'PARTsolutions', ' ' );
FILE_SCHEMA( ( 'CONFIG_CONTROL_DESIGN' ) );
ENDSEC;
DATA;
#1 = DESIGN_CONTEXT( '', #27, 'design' );
#2 = APPLICATION_PROTOCOL_DEFINITION( 'international standard', 'config_control_design', 1994, #27 );
#3 = PRODUCT_CATEGORY_RELATIONSHIP( 'NONE', 'NONE', #28, #29 );
#4 = DATE_AND_TIME( #30, #31 );
#5 = DATE_TIME_ROLE( 'creation_date' );
#6 = DATE_TIME_ROLE( 'classification_date' );
#7 = PERSON_AND_ORGANIZATION_ROLE( 'creator' );
#8 = PERSON_AND_ORGANIZATION_ROLE( 'design_supplier' );
#9 = PERSON_AND_ORGANIZATION_ROLE( 'classification_officer' );
#10 = PERSON_AND_ORGANIZATION_ROLE( 'design_owner' );
#11 = APPROVAL_PERSON_ORGANIZATION( #32, #33, #34 );
#12 = APPROVAL_DATE_TIME( #4, #33 );
#13 = CC_DESIGN_APPROVAL( #33, ( #35, #36, #37 ) );
#14 = CC_DESIGN_DATE_AND_TIME_ASSIGNMENT( #4, #5, ( #37 ) );
#15 = CC_DESIGN_DATE_AND_TIME_ASSIGNMENT( #4, #6, ( #35 ) );
#16 = CC_DESIGN_PERSON_AND_ORGANIZATION_ASSIGNMENT( #32, #10, ( #38 ) );
#17 = CC_DESIGN_PERSON_AND_ORGANIZATION_ASSIGNMENT( #32, #7, ( #37 ) );
#18 = CC_DESIGN_PERSON_AND_ORGANIZATION_ASSIGNMENT( #32, #7, ( #36 ) );
#19 = CC_DESIGN_PERSON_AND_ORGANIZATION_ASSIGNMENT( #32, #8, ( #36 ) );
#20 = CC_DESIGN_SECURITY_CLASSIFICATION( #35, ( #36 ) );
#21 = CC_DESIGN_PERSON_AND_ORGANIZATION_ASSIGNMENT( #32, #9, ( #35 ) );
#22 = SHAPE_DEFINITION_REPRESENTATION( #39, #40 );
#23 =  ( GEOMETRIC_REPRESENTATION_CONTEXT( 3 )GLOBAL_UNCERTAINTY_ASSIGNED_CONTEXT( ( #43 ) )GLOBAL_UNIT_ASSIGNED_CONTEXT( ( #45, #46, #47 ) )REPRESENTATION_CONTEXT( 'NONE', 'WORKSPACE' ) );
#27 = APPLICATION_CONTEXT( 'configuration controlled 3D designs of mechanical parts and assemblies' );
#28 = PRODUCT_CATEGORY( 'part', 'NONE' );
#29 = PRODUCT_RELATED_PRODUCT_CATEGORY( 'detail', ' ', ( #38 ) );
#30 = CALENDAR_DATE( 2022, 22, 3 );
#31 = LOCAL_TIME( 11, 13, 2.00000000000000, #49 );
#32 = PERSON_AND_ORGANIZATION( #50, #51 );
#33 = APPROVAL( #52, 'SOLID MODEL' );
#34 = APPROVAL_ROLE( 'APPROVED' );
#35 = SECURITY_CLASSIFICATION( '', '', #53 );
#36 = PRODUCT_DEFINITION_FORMATION_WITH_SPECIFIED_SOURCE( ' ', 'NONE', #38, .NOT_KNOWN. );
#37 = PRODUCT_DEFINITION( 'NONE', 'NONE', #36, #1 );
#38 = PRODUCT( '_30060005021(architecture400)', '_30060005021(architecture400)', 'PART-_30060005021(architecture400)-DESC', ( #54 ) );
#39 = PRODUCT_DEFINITION_SHAPE( 'NONE', 'NONE', #37 );
#40 = ADVANCED_BREP_SHAPE_REPRESENTATION( '_30060005021(architecture400)', ( #55, #56 ), #23 );
#43 = UNCERTAINTY_MEASURE_WITH_UNIT( LENGTH_MEASURE( 0.00100000000000000 ), #45, '', '' );
#45 =  ( CONVERSION_BASED_UNIT( 'MILLIMETRE', #59 )LENGTH_UNIT(  )NAMED_UNIT( #62 ) );
#46 =  ( NAMED_UNIT( #64 )PLANE_ANGLE_UNIT(  )SI_UNIT( $, .RADIAN. ) );
#47 =  ( NAMED_UNIT( #64 )SI_UNIT( $, .STERADIAN. )SOLID_ANGLE_UNIT(  ) );
#49 = COORDINATED_UNIVERSAL_TIME_OFFSET( 1, 0, .AHEAD. );
#50 = PERSON( '', 'UNSPECIFIED', $, $, $, $ );
#51 = ORGANIZATION( 'UNSPECIFIED', 'UNSPECIFIED', 'UNSPECIFIED' );
#52 = APPROVAL_STATUS( 'approved' );
#53 = SECURITY_CLASSIFICATION_LEVEL( 'unclassified' );
#54 = MECHANICAL_CONTEXT( '', #27, 'mechanical' );
#55 = MANIFOLD_SOLID_BREP( '_30060005021(architecture400)', #70 );
#56 = AXIS2_PLACEMENT_3D( '', #71, #72, #73 );
#59 = LENGTH_MEASURE_WITH_UNIT( LENGTH_MEASURE( 1.00000000000000 ), #74 );
#62 = DIMENSIONAL_EXPONENTS( 1.00000000000000, 0.000000000000000, 0.000000000000000, 0.000000000000000, 0.000000000000000, 0.000000000000000, 0.000000000000000 );
#64 = DIMENSIONAL_EXPONENTS( 0.000000000000000, 0.000000000000000, 0.000000000000000, 0.000000000000000, 0.000000000000000, 0.000000000000000, 0.000000000000000 );
#70 = CLOSED_SHELL( '', ( #75, #76, #77, #78, #79, #80, #81, #82 ) );
#71 = CARTESIAN_POINT( '', ( 0.000000000000000, 0.000000000000000, 0.000000000000000 ) );
#72 = DIRECTION( '', ( 0.000000000000000, 0.000000000000000, 1.00000000000000 ) );
#73 = DIRECTION( '', ( 1.00000000000000, 0.000000000000000, 0.000000000000000 ) );
#74 =  ( LENGTH_UNIT(  )NAMED_UNIT( #62 )SI_UNIT( .MILLI., .METRE. ) );
#75 = ADVANCED_FACE( '', ( #84, #85 ), #86, .T. );
#76 = ADVANCED_FACE( '', ( #87, #88 ), #89, .F. );
#77 = ADVANCED_FACE( '', ( #90, #91 ), #92, .F. );
#78 = ADVANCED_FACE( '', ( #93, #94 ), #95, .F. );
#79 = ADVANCED_FACE( '', ( #96, #97 ), #98, .T. );
#80 = ADVANCED_FACE( '', ( #99 ), #100, .T. );
#81 = ADVANCED_FACE( '', ( #101 ), #102, .F. );
#82 = ADVANCED_FACE( '', ( #103, #104 ), #105, .F. );
#84 = FACE_OUTER_BOUND( '', #106, .T. );
#85 = FACE_OUTER_BOUND( '', #107, .T. );
#86 = CYLINDRICAL_SURFACE( '', #108, 25.0000000000000 );
#87 = FACE_OUTER_BOUND( '', #109, .T. );
#88 = FACE_BOUND( '', #110, .T. );
#89 = PLANE( '', #111 );
#90 = FACE_OUTER_BOUND( '', #112, .T. );
#91 = FACE_OUTER_BOUND( '', #113, .T. );
#92 = CYLINDRICAL_SURFACE( '', #114, 22.0000000000000 );
#93 = FACE_BOUND( '', #115, .T. );
#94 = FACE_OUTER_BOUND( '', #116, .T. );
#95 = PLANE( '', #117 );
#96 = FACE_OUTER_BOUND( '', #118, .T. );
#97 = FACE_OUTER_BOUND( '', #119, .T. );
#98 = CYLINDRICAL_SURFACE( '', #120, 25.0000000000000 );
#99 = FACE_OUTER_BOUND( '', #121, .T. );
#100 = SPHERICAL_SURFACE( '', #122, 25.0000000000000 );
#101 = FACE_OUTER_BOUND( '', #123, .T. );
#102 = SPHERICAL_SURFACE( '', #124, 22.0000000000000 );
#103 = FACE_OUTER_BOUND( '', #125, .T. );
#104 = FACE_OUTER_BOUND( '', #126, .T. );
#105 = CYLINDRICAL_SURFACE( '', #127, 22.0000000000000 );
#106 = EDGE_LOOP( '', ( #128, #129 ) );
#107 = EDGE_LOOP( '', ( #130 ) );
#108 = AXIS2_PLACEMENT_3D( '', #131, #132, #133 );
#109 = EDGE_LOOP( '', ( #134 ) );
#110 = EDGE_LOOP( '', ( #135 ) );
#111 = AXIS2_PLACEMENT_3D( '', #136, #137, #138 );
#112 = EDGE_LOOP( '', ( #139, #140 ) );
#113 = EDGE_LOOP( '', ( #141 ) );
#114 = AXIS2_PLACEMENT_3D( '', #142, #143, #144 );
#115 = EDGE_LOOP( '', ( #145 ) );
#116 = EDGE_LOOP( '', ( #146 ) );
#117 = AXIS2_PLACEMENT_3D( '', #147, #148, #149 );
#118 = EDGE_LOOP( '', ( #150 ) );
#119 = EDGE_LOOP( '', ( #151, #152 ) );
#120 = AXIS2_PLACEMENT_3D( '', #153, #154, #155 );
#121 = EDGE_LOOP( '', ( #156, #157 ) );
#122 = AXIS2_PLACEMENT_3D( '', #158, #159, #160 );
#123 = EDGE_LOOP( '', ( #161, #162 ) );
#124 = AXIS2_PLACEMENT_3D( '', #163, #164, #165 );
#125 = EDGE_LOOP( '', ( #166 ) );
#126 = EDGE_LOOP( '', ( #167, #168 ) );
#127 = AXIS2_PLACEMENT_3D( '', #169, #170, #171 );
#128 = ORIENTED_EDGE( '', *, *, #172, .F. );
#129 = ORIENTED_EDGE( '', *, *, #173, .F. );
#130 = ORIENTED_EDGE( '', *, *, #174, .T. );
#131 = CARTESIAN_POINT( '', ( 91.0000000000000, 0.000000000000000, 0.000000000000000 ) );
#132 = DIRECTION( '', ( -1.00000000000000, -0.000000000000000, 0.000000000000000 ) );
#133 = DIRECTION( '', ( -0.000000000000000, 0.000000000000000, -1.00000000000000 ) );
#134 = ORIENTED_EDGE( '', *, *, #174, .F. );
#135 = ORIENTED_EDGE( '', *, *, #175, .T. );
#136 = CARTESIAN_POINT( '', ( 0.000000000000000, 0.000000000000000, 0.000000000000000 ) );
#137 = DIRECTION( '', ( 1.00000000000000, 0.000000000000000, -0.000000000000000 ) );
#138 = DIRECTION( '', ( -0.000000000000000, 0.000000000000000, -1.00000000000000 ) );
#139 = ORIENTED_EDGE( '', *, *, #176, .T. );
#140 = ORIENTED_EDGE( '', *, *, #177, .T. );
#141 = ORIENTED_EDGE( '', *, *, #175, .F. );
#142 = CARTESIAN_POINT( '', ( 88.0000000000000, 0.000000000000000, 0.000000000000000 ) );
#143 = DIRECTION( '', ( -1.00000000000000, -0.000000000000000, 0.000000000000000 ) );
#144 = DIRECTION( '', ( -0.000000000000000, 0.000000000000000, -1.00000000000000 ) );
#145 = ORIENTED_EDGE( '', *, *, #178, .F. );
#146 = ORIENTED_EDGE( '', *, *, #179, .T. );
#147 = CARTESIAN_POINT( '', ( 130.346717087976, 0.000000000000000, -28.9913780286485 ) );
#148 = DIRECTION( '', ( -0.707106781186547, 0.000000000000000, 0.707106781186548 ) );
#149 = DIRECTION( '', ( 0.707106781186548, 0.000000000000000, 0.707106781186547 ) );
#150 = ORIENTED_EDGE( '', *, *, #179, .F. );
#151 = ORIENTED_EDGE( '', *, *, #180, .T. );
#152 = ORIENTED_EDGE( '', *, *, #173, .T. );
#153 = CARTESIAN_POINT( '', ( 112.669047558312, 0.000000000000000, -46.6690475583121 ) );
#154 = DIRECTION( '', ( -0.707106781186547, -0.000000000000000, 0.707106781186548 ) );
#155 = DIRECTION( '', ( -0.707106781186548, 0.000000000000000, -0.707106781186547 ) );
#156 = ORIENTED_EDGE( '', *, *, #172, .T. );
#157 = ORIENTED_EDGE( '', *, *, #180, .F. );
#158 = CARTESIAN_POINT( '', ( 66.0000000000000, 0.000000000000000, -1.04083408558608E-14 ) );
#159 = DIRECTION( '', ( 1.00000000000000, 0.000000000000000, 0.000000000000000 ) );
#160 = DIRECTION( '', ( 0.000000000000000, 0.000000000000000, 1.00000000000000 ) );
#161 = ORIENTED_EDGE( '', *, *, #177, .F. );
#162 = ORIENTED_EDGE( '', *, *, #181, .T. );
#163 = CARTESIAN_POINT( '', ( 66.0000000000000, 0.000000000000000, 6.93889390390723E-15 ) );
#164 = DIRECTION( '', ( 1.00000000000000, 0.000000000000000, 0.000000000000000 ) );
#165 = DIRECTION( '', ( 0.000000000000000, 0.000000000000000, -1.00000000000000 ) );
#166 = ORIENTED_EDGE( '', *, *, #178, .T. );
#167 = ORIENTED_EDGE( '', *, *, #176, .F. );
#168 = ORIENTED_EDGE( '', *, *, #181, .F. );
#169 = CARTESIAN_POINT( '', ( 112.669047558312, 0.000000000000000, -46.6690475583122 ) );
#170 = DIRECTION( '', ( -0.707106781186547, -0.000000000000000, 0.707106781186548 ) );
#171 = DIRECTION( '', ( -0.707106781186548, 0.000000000000000, -0.707106781186547 ) );
#172 = EDGE_CURVE( '', #182, #183, #184, .T. );
#173 = EDGE_CURVE( '', #183, #182, #185, .T. );
#174 = EDGE_CURVE( '', #186, #186, #187, .T. );
#175 = EDGE_CURVE( '', #188, #188, #189, .T. );
#176 = EDGE_CURVE( '', #190, #191, #192, .T. );
#177 = EDGE_CURVE( '', #191, #190, #193, .T. );
#178 = EDGE_CURVE( '', #194, #194, #195, .T. );
#179 = EDGE_CURVE( '', #196, #196, #197, .T. );
#180 = EDGE_CURVE( '', #182, #183, #198, .T. );
#181 = EDGE_CURVE( '', #191, #190, #199, .T. );
#182 = VERTEX_POINT( '', #200 );
#183 = VERTEX_POINT( '', #201 );
#184 = CIRCLE( '', #202, 25.0000000000000 );
#185 = ELLIPSE( '', #203, 27.0598050073000, 25.0000000000000 );
#186 = VERTEX_POINT( '', #204 );
#187 = CIRCLE( '', #205, 25.0000000000000 );
#188 = VERTEX_POINT( '', #206 );
#189 = CIRCLE( '', #207, 22.0000000000000 );
#190 = VERTEX_POINT( '', #208 );
#191 = VERTEX_POINT( '', #209 );
#192 = ELLIPSE( '', #210, 23.8126284064000, 22.0000000000000 );
#193 = CIRCLE( '', #211, 22.0000000000000 );
#194 = VERTEX_POINT( '', #212 );
#195 = CIRCLE( '', #213, 22.0000000000000 );
#196 = VERTEX_POINT( '', #214 );
#197 = CIRCLE( '', #215, 25.0000000000000 );
#198 = CIRCLE( '', #216, 25.0000000000000 );
#199 = CIRCLE( '', #217, 22.0000000000000 );
#200 = CARTESIAN_POINT( '', ( 66.0000000000000, 25.0000000000000, 7.50862414735200E-15 ) );
#201 = CARTESIAN_POINT( '', ( 66.0000000000000, -25.0000000000000, 1.74896673206293E-14 ) );
#202 = AXIS2_PLACEMENT_3D( '', #218, #219, #220 );
#203 = AXIS2_PLACEMENT_3D( '', #221, #222, #223 );
#204 = CARTESIAN_POINT( '', ( 0.000000000000000, 0.000000000000000, -25.0000000000000 ) );
#205 = AXIS2_PLACEMENT_3D( '', #224, #225, #226 );
#206 = CARTESIAN_POINT( '', ( 0.000000000000000, 0.000000000000000, -22.0000000000000 ) );
#207 = AXIS2_PLACEMENT_3D( '', #227, #228, #229 );
#208 = CARTESIAN_POINT( '', ( 66.0000000000000, -22.0000000000000, 1.01107093613172E-14 ) );
#209 = CARTESIAN_POINT( '', ( 66.0000000000000, 22.0000000000000, 1.29360181961901E-14 ) );
#210 = AXIS2_PLACEMENT_3D( '', #230, #231, #232 );
#211 = AXIS2_PLACEMENT_3D( '', #233, #234, #235 );
#212 = CARTESIAN_POINT( '', ( 97.1126983722080, 0.000000000000000, -62.2253967444162 ) );
#213 = AXIS2_PLACEMENT_3D( '', #236, #237, #238 );
#214 = CARTESIAN_POINT( '', ( 94.9913780286484, 0.000000000000000, -64.3467170879758 ) );
#215 = AXIS2_PLACEMENT_3D( '', #239, #240, #241 );
#216 = AXIS2_PLACEMENT_3D( '', #242, #243, #244 );
#217 = AXIS2_PLACEMENT_3D( '', #245, #246, #247 );
#218 = CARTESIAN_POINT( '', ( 66.0000000000000, 0.000000000000000, 0.000000000000000 ) );
#219 = DIRECTION( '', ( 1.00000000000000, 0.000000000000000, -0.000000000000000 ) );
#220 = DIRECTION( '', ( -0.000000000000000, 0.000000000000000, -1.00000000000000 ) );
#221 = CARTESIAN_POINT( '', ( 66.0000000000000, 0.000000000000000, 3.46944695195361E-15 ) );
#222 = DIRECTION( '', ( 0.923879532511287, 0.000000000000000, -0.382683432365090 ) );
#223 = DIRECTION( '', ( 0.382683432365090, 0.000000000000000, 0.923879532511287 ) );
#224 = CARTESIAN_POINT( '', ( 0.000000000000000, 0.000000000000000, 0.000000000000000 ) );
#225 = DIRECTION( '', ( 1.00000000000000, 0.000000000000000, -0.000000000000000 ) );
#226 = DIRECTION( '', ( -0.000000000000000, 0.000000000000000, -1.00000000000000 ) );
#227 = CARTESIAN_POINT( '', ( 0.000000000000000, 0.000000000000000, 0.000000000000000 ) );
#228 = DIRECTION( '', ( 1.00000000000000, 0.000000000000000, -0.000000000000000 ) );
#229 = DIRECTION( '', ( -0.000000000000000, 0.000000000000000, -1.00000000000000 ) );
#230 = CARTESIAN_POINT( '', ( 66.0000000000000, 0.000000000000000, 6.93889390390723E-15 ) );
#231 = DIRECTION( '', ( 0.923879532511287, 0.000000000000000, -0.382683432365090 ) );
#232 = DIRECTION( '', ( 0.382683432365090, 0.000000000000000, 0.923879532511287 ) );
#233 = CARTESIAN_POINT( '', ( 66.0000000000000, 0.000000000000000, 0.000000000000000 ) );
#234 = DIRECTION( '', ( 1.00000000000000, 0.000000000000000, -0.000000000000000 ) );
#235 = DIRECTION( '', ( -0.000000000000000, 0.000000000000000, -1.00000000000000 ) );
#236 = CARTESIAN_POINT( '', ( 112.669047558312, 0.000000000000000, -46.6690475583122 ) );
#237 = DIRECTION( '', ( 0.707106781186547, 0.000000000000000, -0.707106781186548 ) );
#238 = DIRECTION( '', ( -0.707106781186548, 0.000000000000000, -0.707106781186547 ) );
#239 = CARTESIAN_POINT( '', ( 112.669047558312, 0.000000000000000, -46.6690475583121 ) );
#240 = DIRECTION( '', ( 0.707106781186547, 0.000000000000000, -0.707106781186548 ) );
#241 = DIRECTION( '', ( -0.707106781186548, 0.000000000000000, -0.707106781186547 ) );
#242 = CARTESIAN_POINT( '', ( 66.0000000000000, 0.000000000000000, 5.20417042793042E-15 ) );
#243 = DIRECTION( '', ( 0.707106781186547, 0.000000000000000, -0.707106781186548 ) );
#244 = DIRECTION( '', ( -0.707106781186548, 0.000000000000000, -0.707106781186547 ) );
#245 = CARTESIAN_POINT( '', ( 66.0000000000000, 0.000000000000000, 1.04083408558608E-14 ) );
#246 = DIRECTION( '', ( 0.707106781186547, 0.000000000000000, -0.707106781186548 ) );
#247 = DIRECTION( '', ( -0.707106781186548, 0.000000000000000, -0.707106781186547 ) );
ENDSEC;
END-ISO-10303-21;
