ISO-10303-21;
HEADER;
/* Generated by software containing ST-Developer
 * from STEP Tools, Inc. (www.steptools.com) 
 */

FILE_DESCRIPTION(
/* description */ (''),
/* implementation_level */ '2;1');

FILE_NAME(
/* name */ 
'Q:\\Ric010\\FF7\\FIPlastiCAD\\FIP\\Lavoro\\PVC Fittings\\PVC Fittings
 STEP\\QRV\\QRV200.ipt.stp',
/* time_stamp */ '2013-10-01T14:53:11+02:00',
/* author */ ('bfaro'),
/* organization */ (''),
/* preprocessor_version */ 'ST-DEVELOPER v15.2',
/* originating_system */ 'Autodesk Inventor 2014',
/* authorisation */ '');

FILE_SCHEMA (('AUTOMOTIVE_DESIGN { 1 0 10303 214 3 1 1 }'));
ENDSEC;

DATA;
#10=SHAPE_REPRESENTATION_RELATIONSHIP('SRR','None',#289,#11);
#11=ADVANCED_BREP_SHAPE_REPRESENTATION($,(#157),#280);
#12=STYLED_ITEM($,(#297),#157);
#13=CONICAL_SURFACE($,#172,115.768777500186,19.0787604876595);
#14=CONICAL_SURFACE($,#174,116.719908863788,19.0787604876595);
#15=CONICAL_SURFACE($,#176,117.671040227391,19.0787604876595);
#16=CONICAL_SURFACE($,#178,118.622171590993,19.0787604876595);
#17=CONICAL_SURFACE($,#180,119.573302954596,19.0787604876595);
#18=CONICAL_SURFACE($,#182,120.524434318199,19.0787604876595);
#19=PLANE($,#162);
#20=PLANE($,#166);
#21=PLANE($,#170);
#22=PLANE($,#184);
#23=FACE_BOUND($,#50,.T.);
#24=FACE_BOUND($,#51,.T.);
#25=FACE_BOUND($,#52,.T.);
#26=FACE_BOUND($,#54,.T.);
#27=FACE_BOUND($,#55,.T.);
#28=FACE_BOUND($,#56,.T.);
#29=FACE_BOUND($,#58,.T.);
#30=FACE_BOUND($,#60,.T.);
#31=FACE_BOUND($,#62,.T.);
#32=FACE_BOUND($,#64,.T.);
#33=FACE_BOUND($,#66,.T.);
#34=FACE_BOUND($,#68,.T.);
#35=FACE_BOUND($,#70,.T.);
#36=FACE_BOUND($,#72,.T.);
#37=FACE_BOUND($,#74,.T.);
#38=FACE_OUTER_BOUND($,#49,.T.);
#39=FACE_OUTER_BOUND($,#53,.T.);
#40=FACE_OUTER_BOUND($,#57,.T.);
#41=FACE_OUTER_BOUND($,#59,.T.);
#42=FACE_OUTER_BOUND($,#61,.T.);
#43=FACE_OUTER_BOUND($,#63,.T.);
#44=FACE_OUTER_BOUND($,#65,.T.);
#45=FACE_OUTER_BOUND($,#67,.T.);
#46=FACE_OUTER_BOUND($,#69,.T.);
#47=FACE_OUTER_BOUND($,#71,.T.);
#48=FACE_OUTER_BOUND($,#73,.T.);
#49=EDGE_LOOP($,(#114));
#50=EDGE_LOOP($,(#115));
#51=EDGE_LOOP($,(#116));
#52=EDGE_LOOP($,(#117));
#53=EDGE_LOOP($,(#118));
#54=EDGE_LOOP($,(#119));
#55=EDGE_LOOP($,(#120));
#56=EDGE_LOOP($,(#121));
#57=EDGE_LOOP($,(#122));
#58=EDGE_LOOP($,(#123));
#59=EDGE_LOOP($,(#124));
#60=EDGE_LOOP($,(#125));
#61=EDGE_LOOP($,(#126));
#62=EDGE_LOOP($,(#127));
#63=EDGE_LOOP($,(#128));
#64=EDGE_LOOP($,(#129));
#65=EDGE_LOOP($,(#130));
#66=EDGE_LOOP($,(#131));
#67=EDGE_LOOP($,(#132));
#68=EDGE_LOOP($,(#133));
#69=EDGE_LOOP($,(#134));
#70=EDGE_LOOP($,(#135));
#71=EDGE_LOOP($,(#136));
#72=EDGE_LOOP($,(#137));
#73=EDGE_LOOP($,(#138));
#74=EDGE_LOOP($,(#139));
#75=CIRCLE($,#160,127.);
#76=CIRCLE($,#161,127.);
#77=CIRCLE($,#163,115.);
#78=CIRCLE($,#165,115.);
#79=CIRCLE($,#167,100.);
#80=CIRCLE($,#169,100.);
#81=CIRCLE($,#171,115.293211818384);
#82=CIRCLE($,#173,116.244343181987);
#83=CIRCLE($,#175,117.195474545589);
#84=CIRCLE($,#177,118.146605909192);
#85=CIRCLE($,#179,119.097737272795);
#86=CIRCLE($,#181,120.048868636397);
#87=CIRCLE($,#183,121.);
#88=VERTEX_POINT($,#241);
#89=VERTEX_POINT($,#243);
#90=VERTEX_POINT($,#246);
#91=VERTEX_POINT($,#249);
#92=VERTEX_POINT($,#252);
#93=VERTEX_POINT($,#255);
#94=VERTEX_POINT($,#258);
#95=VERTEX_POINT($,#261);
#96=VERTEX_POINT($,#264);
#97=VERTEX_POINT($,#267);
#98=VERTEX_POINT($,#270);
#99=VERTEX_POINT($,#273);
#100=VERTEX_POINT($,#276);
#101=EDGE_CURVE($,#88,#88,#75,.T.);
#102=EDGE_CURVE($,#89,#89,#76,.T.);
#103=EDGE_CURVE($,#90,#90,#77,.T.);
#104=EDGE_CURVE($,#91,#91,#78,.T.);
#105=EDGE_CURVE($,#92,#92,#79,.T.);
#106=EDGE_CURVE($,#93,#93,#80,.T.);
#107=EDGE_CURVE($,#94,#94,#81,.T.);
#108=EDGE_CURVE($,#95,#95,#82,.T.);
#109=EDGE_CURVE($,#96,#96,#83,.T.);
#110=EDGE_CURVE($,#97,#97,#84,.T.);
#111=EDGE_CURVE($,#98,#98,#85,.T.);
#112=EDGE_CURVE($,#99,#99,#86,.T.);
#113=EDGE_CURVE($,#100,#100,#87,.T.);
#114=ORIENTED_EDGE($,*,*,#101,.F.);
#115=ORIENTED_EDGE($,*,*,#102,.T.);
#116=ORIENTED_EDGE($,*,*,#103,.F.);
#117=ORIENTED_EDGE($,*,*,#101,.T.);
#118=ORIENTED_EDGE($,*,*,#104,.F.);
#119=ORIENTED_EDGE($,*,*,#103,.T.);
#120=ORIENTED_EDGE($,*,*,#105,.F.);
#121=ORIENTED_EDGE($,*,*,#104,.T.);
#122=ORIENTED_EDGE($,*,*,#105,.T.);
#123=ORIENTED_EDGE($,*,*,#106,.F.);
#124=ORIENTED_EDGE($,*,*,#107,.F.);
#125=ORIENTED_EDGE($,*,*,#106,.T.);
#126=ORIENTED_EDGE($,*,*,#108,.F.);
#127=ORIENTED_EDGE($,*,*,#107,.T.);
#128=ORIENTED_EDGE($,*,*,#109,.F.);
#129=ORIENTED_EDGE($,*,*,#108,.T.);
#130=ORIENTED_EDGE($,*,*,#110,.F.);
#131=ORIENTED_EDGE($,*,*,#109,.T.);
#132=ORIENTED_EDGE($,*,*,#111,.F.);
#133=ORIENTED_EDGE($,*,*,#110,.T.);
#134=ORIENTED_EDGE($,*,*,#112,.F.);
#135=ORIENTED_EDGE($,*,*,#111,.T.);
#136=ORIENTED_EDGE($,*,*,#113,.F.);
#137=ORIENTED_EDGE($,*,*,#112,.T.);
#138=ORIENTED_EDGE($,*,*,#102,.F.);
#139=ORIENTED_EDGE($,*,*,#113,.T.);
#140=CYLINDRICAL_SURFACE($,#159,127.);
#141=CYLINDRICAL_SURFACE($,#164,115.);
#142=CYLINDRICAL_SURFACE($,#168,100.);
#143=ADVANCED_FACE($,(#38,#23),#140,.T.);
#144=ADVANCED_FACE($,(#24,#25),#19,.T.);
#145=ADVANCED_FACE($,(#39,#26),#141,.T.);
#146=ADVANCED_FACE($,(#27,#28),#20,.T.);
#147=ADVANCED_FACE($,(#40,#29),#142,.F.);
#148=ADVANCED_FACE($,(#41,#30),#21,.T.);
#149=ADVANCED_FACE($,(#42,#31),#13,.T.);
#150=ADVANCED_FACE($,(#43,#32),#14,.F.);
#151=ADVANCED_FACE($,(#44,#33),#15,.T.);
#152=ADVANCED_FACE($,(#45,#34),#16,.F.);
#153=ADVANCED_FACE($,(#46,#35),#17,.T.);
#154=ADVANCED_FACE($,(#47,#36),#18,.F.);
#155=ADVANCED_FACE($,(#48,#37),#22,.T.);
#156=CLOSED_SHELL($,(#143,#144,#145,#146,#147,#148,#149,#150,#151,#152,
#153,#154,#155));
#157=MANIFOLD_SOLID_BREP('Solido1',#156);
#158=AXIS2_PLACEMENT_3D('placement',#239,#185,#186);
#159=AXIS2_PLACEMENT_3D($,#240,#187,#188);
#160=AXIS2_PLACEMENT_3D($,#242,#189,#190);
#161=AXIS2_PLACEMENT_3D($,#244,#191,#192);
#162=AXIS2_PLACEMENT_3D($,#245,#193,#194);
#163=AXIS2_PLACEMENT_3D($,#247,#195,#196);
#164=AXIS2_PLACEMENT_3D($,#248,#197,#198);
#165=AXIS2_PLACEMENT_3D($,#250,#199,#200);
#166=AXIS2_PLACEMENT_3D($,#251,#201,#202);
#167=AXIS2_PLACEMENT_3D($,#253,#203,#204);
#168=AXIS2_PLACEMENT_3D($,#254,#205,#206);
#169=AXIS2_PLACEMENT_3D($,#256,#207,#208);
#170=AXIS2_PLACEMENT_3D($,#257,#209,#210);
#171=AXIS2_PLACEMENT_3D($,#259,#211,#212);
#172=AXIS2_PLACEMENT_3D($,#260,#213,#214);
#173=AXIS2_PLACEMENT_3D($,#262,#215,#216);
#174=AXIS2_PLACEMENT_3D($,#263,#217,#218);
#175=AXIS2_PLACEMENT_3D($,#265,#219,#220);
#176=AXIS2_PLACEMENT_3D($,#266,#221,#222);
#177=AXIS2_PLACEMENT_3D($,#268,#223,#224);
#178=AXIS2_PLACEMENT_3D($,#269,#225,#226);
#179=AXIS2_PLACEMENT_3D($,#271,#227,#228);
#180=AXIS2_PLACEMENT_3D($,#272,#229,#230);
#181=AXIS2_PLACEMENT_3D($,#274,#231,#232);
#182=AXIS2_PLACEMENT_3D($,#275,#233,#234);
#183=AXIS2_PLACEMENT_3D($,#277,#235,#236);
#184=AXIS2_PLACEMENT_3D($,#278,#237,#238);
#185=DIRECTION('axis',(0.,0.,1.));
#186=DIRECTION('refdir',(1.,0.,0.));
#187=DIRECTION('center_axis',(0.,0.,1.));
#188=DIRECTION('ref_axis',(0.,-1.,0.));
#189=DIRECTION('center_axis',(0.,0.,1.));
#190=DIRECTION('ref_axis',(0.,-1.,0.));
#191=DIRECTION('center_axis',(0.,0.,1.));
#192=DIRECTION('ref_axis',(0.,-1.,0.));
#193=DIRECTION('center_axis',(0.,0.,1.));
#194=DIRECTION('ref_axis',(1.,0.,0.));
#195=DIRECTION('center_axis',(0.,0.,1.));
#196=DIRECTION('ref_axis',(0.,-1.,0.));
#197=DIRECTION('center_axis',(0.,0.,1.));
#198=DIRECTION('ref_axis',(0.,-1.,0.));
#199=DIRECTION('center_axis',(0.,0.,1.));
#200=DIRECTION('ref_axis',(0.,-1.,0.));
#201=DIRECTION('center_axis',(0.,0.,1.));
#202=DIRECTION('ref_axis',(1.,0.,0.));
#203=DIRECTION('center_axis',(0.,0.,1.));
#204=DIRECTION('ref_axis',(0.,-1.,0.));
#205=DIRECTION('center_axis',(0.,0.,1.));
#206=DIRECTION('ref_axis',(0.,-1.,0.));
#207=DIRECTION('center_axis',(0.,0.,1.));
#208=DIRECTION('ref_axis',(0.,-1.,0.));
#209=DIRECTION('center_axis',(0.,0.,-1.));
#210=DIRECTION('ref_axis',(-1.,0.,0.));
#211=DIRECTION('center_axis',(0.,0.,1.));
#212=DIRECTION('ref_axis',(0.,-1.,0.));
#213=DIRECTION('center_axis',(0.,0.,1.));
#214=DIRECTION('ref_axis',(0.,-1.,0.));
#215=DIRECTION('center_axis',(0.,0.,1.));
#216=DIRECTION('ref_axis',(0.,-1.,0.));
#217=DIRECTION('center_axis',(0.,0.,-1.));
#218=DIRECTION('ref_axis',(0.,-1.,0.));
#219=DIRECTION('center_axis',(0.,0.,1.));
#220=DIRECTION('ref_axis',(0.,-1.,0.));
#221=DIRECTION('center_axis',(0.,0.,1.));
#222=DIRECTION('ref_axis',(0.,-1.,0.));
#223=DIRECTION('center_axis',(0.,0.,1.));
#224=DIRECTION('ref_axis',(0.,-1.,0.));
#225=DIRECTION('center_axis',(0.,0.,-1.));
#226=DIRECTION('ref_axis',(0.,-1.,0.));
#227=DIRECTION('center_axis',(0.,0.,1.));
#228=DIRECTION('ref_axis',(0.,-1.,0.));
#229=DIRECTION('center_axis',(0.,0.,1.));
#230=DIRECTION('ref_axis',(0.,-1.,0.));
#231=DIRECTION('center_axis',(0.,0.,1.));
#232=DIRECTION('ref_axis',(0.,-1.,0.));
#233=DIRECTION('center_axis',(0.,0.,-1.));
#234=DIRECTION('ref_axis',(0.,-1.,0.));
#235=DIRECTION('center_axis',(0.,0.,1.));
#236=DIRECTION('ref_axis',(0.,-1.,0.));
#237=DIRECTION('center_axis',(0.,0.,-1.));
#238=DIRECTION('ref_axis',(-1.,0.,0.));
#239=CARTESIAN_POINT('',(0.,0.,0.));
#240=CARTESIAN_POINT('Origin',(0.,0.,8.9981306709465));
#241=CARTESIAN_POINT('',(0.,-127.,17.9981306709465));
#242=CARTESIAN_POINT('Origin',(0.,0.,17.9981306709465));
#243=CARTESIAN_POINT('',(0.,-127.,-0.00186932905350268));
#244=CARTESIAN_POINT('Origin',(0.,0.,-0.00186932905350268));
#245=CARTESIAN_POINT('Origin',(0.,-121.,17.9981306709465));
#246=CARTESIAN_POINT('',(0.,-115.,17.9981306709465));
#247=CARTESIAN_POINT('Origin',(0.,0.,17.9981306709465));
#248=CARTESIAN_POINT('Origin',(0.,0.,64.7481306709465));
#249=CARTESIAN_POINT('',(0.,-115.,111.498130670946));
#250=CARTESIAN_POINT('Origin',(0.,0.,111.498130670946));
#251=CARTESIAN_POINT('Origin',(0.,-107.5,111.498130670946));
#252=CARTESIAN_POINT('',(0.,-100.,111.498130670946));
#253=CARTESIAN_POINT('Origin',(0.,0.,111.498130670946));
#254=CARTESIAN_POINT('Origin',(0.,0.,2.74813067094648));
#255=CARTESIAN_POINT('',(0.,-100.,-0.00186932905351933));
#256=CARTESIAN_POINT('Origin',(0.,0.,-0.00186932905351933));
#257=CARTESIAN_POINT('Origin',(0.,-107.646605909192,-0.00186932905352215));
#258=CARTESIAN_POINT('',(0.,-115.293211818384,-0.00186932905352496));
#259=CARTESIAN_POINT('Origin',(0.,0.,-0.00186932905352496));
#260=CARTESIAN_POINT('Origin',(0.,0.,1.37313067094648));
#261=CARTESIAN_POINT('',(0.,-116.244343181987,2.74813067094648));
#262=CARTESIAN_POINT('Origin',(0.,0.,2.74813067094648));
#263=CARTESIAN_POINT('Origin',(0.,0.,1.37313067094648));
#264=CARTESIAN_POINT('',(0.,-117.195474545589,-0.00186932905352496));
#265=CARTESIAN_POINT('Origin',(0.,0.,-0.00186932905352496));
#266=CARTESIAN_POINT('Origin',(0.,0.,1.37313067094648));
#267=CARTESIAN_POINT('',(0.,-118.146605909192,2.74813067094648));
#268=CARTESIAN_POINT('Origin',(0.,0.,2.74813067094648));
#269=CARTESIAN_POINT('Origin',(0.,0.,1.37313067094648));
#270=CARTESIAN_POINT('',(0.,-119.097737272795,-0.00186932905352215));
#271=CARTESIAN_POINT('Origin',(0.,0.,-0.00186932905352215));
#272=CARTESIAN_POINT('Origin',(0.,0.,1.37313067094648));
#273=CARTESIAN_POINT('',(0.,-120.048868636397,2.74813067094648));
#274=CARTESIAN_POINT('Origin',(0.,0.,2.74813067094648));
#275=CARTESIAN_POINT('Origin',(0.,0.,1.37313067094648));
#276=CARTESIAN_POINT('',(0.,-121.,-0.00186932905351933));
#277=CARTESIAN_POINT('Origin',(0.,0.,-0.00186932905351933));
#278=CARTESIAN_POINT('Origin',(0.,-124.,-0.001869329053511));
#279=UNCERTAINTY_MEASURE_WITH_UNIT(LENGTH_MEASURE(0.01),#281,
'DISTANCE_ACCURACY_VALUE',
'Maximum model space distance between geometric entities at asserted c
onnectivities');
#280=(
GEOMETRIC_REPRESENTATION_CONTEXT(3)
GLOBAL_UNCERTAINTY_ASSIGNED_CONTEXT((#279))
GLOBAL_UNIT_ASSIGNED_CONTEXT((#281,#284,#282))
REPRESENTATION_CONTEXT('','3D')
);
#281=(
LENGTH_UNIT()
NAMED_UNIT(*)
SI_UNIT(.MILLI.,.METRE.)
);
#282=(
NAMED_UNIT(*)
SI_UNIT($,.STERADIAN.)
SOLID_ANGLE_UNIT()
);
#283=DIMENSIONAL_EXPONENTS(0.,0.,0.,0.,0.,0.,0.);
#284=(
CONVERSION_BASED_UNIT('degree',#286)
NAMED_UNIT(#283)
PLANE_ANGLE_UNIT()
);
#285=(
NAMED_UNIT(*)
PLANE_ANGLE_UNIT()
SI_UNIT($,.RADIAN.)
);
#286=PLANE_ANGLE_MEASURE_WITH_UNIT(PLANE_ANGLE_MEASURE(0.01745329252),#285);
#287=SHAPE_DEFINITION_REPRESENTATION(#288,#289);
#288=PRODUCT_DEFINITION_SHAPE('',$,#291);
#289=SHAPE_REPRESENTATION('',(#158),#280);
#290=PRODUCT_DEFINITION_CONTEXT('3D Mechanical Parts',#294,'design');
#291=PRODUCT_DEFINITION('QRV200','QRV200',#292,#290);
#292=PRODUCT_DEFINITION_FORMATION('',$,#296);
#293=APPLICATION_PROTOCOL_DEFINITION('international standard',
'automotive_design',2009,#294);
#294=APPLICATION_CONTEXT(
'Core Data for Automotive Mechanical Design Process');
#295=PRODUCT_CONTEXT('3D Mechanical Parts',#294,'mechanical');
#296=PRODUCT('QRV200','QRV200',$,(#295));
#297=PRESENTATION_STYLE_ASSIGNMENT((#298));
#298=SURFACE_STYLE_USAGE(.BOTH.,#299);
#299=SURFACE_SIDE_STYLE($,(#300));
#300=SURFACE_STYLE_FILL_AREA(#301);
#301=FILL_AREA_STYLE($,(#302));
#302=FILL_AREA_STYLE_COLOUR($,#303);
#303=COLOUR_RGB('',0.509803921568627,0.509803921568627,0.588235294117647);
ENDSEC;
END-ISO-10303-21;
