ISO-10303-21;
HEADER;
/* Generated by software containing ST-Developer
 * from STEP Tools, Inc. (www.steptools.com) 
 */

FILE_DESCRIPTION(
/* description */ (''),
/* implementation_level */ '2;1');

FILE_NAME(
/* name */ 'C:\\Users\\Gabriele\\Desktop\\catalogo\\TR40\\TR40063C.stp',

/* time_stamp */ '2016-10-17T15:39:53+02:00',
/* author */ ('Gabriele'),
/* organization */ (''),
/* preprocessor_version */ 'ST-DEVELOPER v16.5',
/* originating_system */ 'Autodesk Inventor 2017',
/* authorisation */ '');

FILE_SCHEMA (('CONFIG_CONTROL_DESIGN','AUTOMOTIVE_DESIGN { 1 0 10303 214 3 1 1 }'));
ENDSEC;

DATA;
#10=MECHANICAL_DESIGN_GEOMETRIC_PRESENTATION_REPRESENTATION('',(#13),#449);
#11=SHAPE_REPRESENTATION_RELATIONSHIP('SRR','None',#458,#12);
#12=ADVANCED_BREP_SHAPE_REPRESENTATION('',(#14),#448);
#13=STYLED_ITEM('',(#467),#14);
#14=MANIFOLD_SOLID_BREP('Solido1',#200);
#15=B_SPLINE_CURVE_WITH_KNOTS('',3,(#333,#334,#335,#336,#337,#338,#339,
#340,#341,#342,#343,#344,#345,#346,#347,#348,#349,#350,#351,#352,#353,#354,
#355,#356,#357,#358,#359,#360,#361,#362,#363,#364,#365,#366),
 .UNSPECIFIED.,.T.,.F.,(4,2,2,2,2,2,2,2,2,2,2,2,2,2,2,2,4),(0.,0.438094620670846,
0.876189241341692,1.31394044018907,1.75169163903645,2.18944283788382,2.6271940367312,
3.06528865740205,3.50338327807289,3.94147789874374,4.37957251941458,4.81732371826196,
5.25507491710933,5.69282611595671,6.13057731480409,6.56867193547493,7.00676655614578),
 .UNSPECIFIED.);
#16=B_SPLINE_CURVE_WITH_KNOTS('',3,(#377,#378,#379,#380,#381,#382,#383,
#384,#385,#386,#387,#388,#389,#390,#391,#392,#393,#394,#395,#396,#397,#398,
#399,#400,#401,#402,#403,#404,#405,#406,#407,#408,#409,#410,#411,#412,#413,
#414,#415,#416,#417,#418,#419,#420,#421,#422,#423,#424,#425,#426,#427,#428,
#429,#430,#431,#432,#433,#434,#435,#436,#437,#438,#439,#440,#441,#442),
 .UNSPECIFIED.,.T.,.F.,(4,2,2,2,2,2,2,2,2,2,2,2,2,2,2,2,2,2,2,2,2,2,2,2,
2,2,2,2,2,2,2,2,4),(0.,0.325710722480249,0.651421444960498,0.977132167440746,
1.302842889921,1.62798273118095,1.95312257244091,2.27826241370086,2.60340225496082,
2.92854209622077,3.25368193748073,3.57882177874068,3.90396162000064,4.22967234248089,
4.55538306496114,4.88109378744139,5.20680450992164,5.53251523240188,5.85822595488213,
6.18393667736238,6.50964739984263,6.83478724110259,7.15992708236254,7.4850669236225,
7.81020676488245,8.13534660614241,8.46048644740236,8.78562628866232,9.11076612992228,
9.43647685240252,9.76218757488277,10.087898297363,10.4136090198433),
 .UNSPECIFIED.);
#17=PLANE('',#207);
#18=PLANE('',#214);
#19=PLANE('',#221);
#20=PLANE('',#228);
#21=PLANE('',#231);
#22=PLANE('',#232);
#23=CYLINDRICAL_SURFACE('',#205,31.5);
#24=CYLINDRICAL_SURFACE('',#212,31.5);
#25=CYLINDRICAL_SURFACE('',#219,12.5);
#26=CYLINDRICAL_SURFACE('',#223,11.5);
#27=CYLINDRICAL_SURFACE('',#225,30.5);
#28=CYLINDRICAL_SURFACE('',#229,17.);
#29=CYLINDRICAL_SURFACE('',#230,37.5);
#30=FACE_BOUND('',#65,.T.);
#31=FACE_BOUND('',#67,.T.);
#32=FACE_BOUND('',#69,.T.);
#33=FACE_BOUND('',#71,.T.);
#34=FACE_BOUND('',#73,.T.);
#35=FACE_BOUND('',#75,.T.);
#36=FACE_BOUND('',#77,.T.);
#37=FACE_BOUND('',#79,.T.);
#38=FACE_BOUND('',#81,.T.);
#39=FACE_BOUND('',#83,.T.);
#40=FACE_BOUND('',#85,.T.);
#41=FACE_BOUND('',#86,.T.);
#42=FACE_BOUND('',#88,.T.);
#43=FACE_BOUND('',#90,.T.);
#44=FACE_BOUND('',#92,.T.);
#45=FACE_BOUND('',#93,.T.);
#46=FACE_BOUND('',#95,.T.);
#47=FACE_BOUND('',#97,.T.);
#48=FACE_OUTER_BOUND('',#64,.T.);
#49=FACE_OUTER_BOUND('',#66,.T.);
#50=FACE_OUTER_BOUND('',#68,.T.);
#51=FACE_OUTER_BOUND('',#70,.T.);
#52=FACE_OUTER_BOUND('',#72,.T.);
#53=FACE_OUTER_BOUND('',#74,.T.);
#54=FACE_OUTER_BOUND('',#76,.T.);
#55=FACE_OUTER_BOUND('',#78,.T.);
#56=FACE_OUTER_BOUND('',#80,.T.);
#57=FACE_OUTER_BOUND('',#82,.T.);
#58=FACE_OUTER_BOUND('',#84,.T.);
#59=FACE_OUTER_BOUND('',#87,.T.);
#60=FACE_OUTER_BOUND('',#89,.T.);
#61=FACE_OUTER_BOUND('',#91,.T.);
#62=FACE_OUTER_BOUND('',#94,.T.);
#63=FACE_OUTER_BOUND('',#96,.T.);
#64=EDGE_LOOP('',(#147));
#65=EDGE_LOOP('',(#148));
#66=EDGE_LOOP('',(#149));
#67=EDGE_LOOP('',(#150));
#68=EDGE_LOOP('',(#151));
#69=EDGE_LOOP('',(#152));
#70=EDGE_LOOP('',(#153));
#71=EDGE_LOOP('',(#154));
#72=EDGE_LOOP('',(#155));
#73=EDGE_LOOP('',(#156));
#74=EDGE_LOOP('',(#157));
#75=EDGE_LOOP('',(#158));
#76=EDGE_LOOP('',(#159));
#77=EDGE_LOOP('',(#160));
#78=EDGE_LOOP('',(#161));
#79=EDGE_LOOP('',(#162));
#80=EDGE_LOOP('',(#163));
#81=EDGE_LOOP('',(#164));
#82=EDGE_LOOP('',(#165));
#83=EDGE_LOOP('',(#166));
#84=EDGE_LOOP('',(#167));
#85=EDGE_LOOP('',(#168));
#86=EDGE_LOOP('',(#169));
#87=EDGE_LOOP('',(#170));
#88=EDGE_LOOP('',(#171));
#89=EDGE_LOOP('',(#172));
#90=EDGE_LOOP('',(#173));
#91=EDGE_LOOP('',(#174));
#92=EDGE_LOOP('',(#175));
#93=EDGE_LOOP('',(#176));
#94=EDGE_LOOP('',(#177));
#95=EDGE_LOOP('',(#178));
#96=EDGE_LOOP('',(#179));
#97=EDGE_LOOP('',(#180));
#98=CIRCLE('',#203,31.5);
#99=CIRCLE('',#204,32.);
#100=CIRCLE('',#206,31.5);
#101=CIRCLE('',#208,37.5);
#102=CIRCLE('',#210,31.5);
#103=CIRCLE('',#211,32.);
#104=CIRCLE('',#213,31.5);
#105=CIRCLE('',#215,37.5);
#106=CIRCLE('',#217,12.5);
#107=CIRCLE('',#218,13.);
#108=CIRCLE('',#220,12.5);
#109=CIRCLE('',#222,17.);
#110=CIRCLE('',#224,11.5);
#111=CIRCLE('',#226,30.5);
#112=CIRCLE('',#227,30.5);
#113=VERTEX_POINT('',#299);
#114=VERTEX_POINT('',#301);
#115=VERTEX_POINT('',#304);
#116=VERTEX_POINT('',#307);
#117=VERTEX_POINT('',#310);
#118=VERTEX_POINT('',#312);
#119=VERTEX_POINT('',#315);
#120=VERTEX_POINT('',#318);
#121=VERTEX_POINT('',#321);
#122=VERTEX_POINT('',#323);
#123=VERTEX_POINT('',#326);
#124=VERTEX_POINT('',#329);
#125=VERTEX_POINT('',#332);
#126=VERTEX_POINT('',#367);
#127=VERTEX_POINT('',#370);
#128=VERTEX_POINT('',#372);
#129=VERTEX_POINT('',#376);
#130=EDGE_CURVE('',#113,#113,#98,.T.);
#131=EDGE_CURVE('',#114,#114,#99,.T.);
#132=EDGE_CURVE('',#115,#115,#100,.T.);
#133=EDGE_CURVE('',#116,#116,#101,.T.);
#134=EDGE_CURVE('',#117,#117,#102,.T.);
#135=EDGE_CURVE('',#118,#118,#103,.T.);
#136=EDGE_CURVE('',#119,#119,#104,.T.);
#137=EDGE_CURVE('',#120,#120,#105,.T.);
#138=EDGE_CURVE('',#121,#121,#106,.T.);
#139=EDGE_CURVE('',#122,#122,#107,.T.);
#140=EDGE_CURVE('',#123,#123,#108,.T.);
#141=EDGE_CURVE('',#124,#124,#109,.T.);
#142=EDGE_CURVE('',#125,#125,#15,.T.);
#143=EDGE_CURVE('',#126,#126,#110,.T.);
#144=EDGE_CURVE('',#127,#127,#111,.T.);
#145=EDGE_CURVE('',#128,#128,#112,.T.);
#146=EDGE_CURVE('',#129,#129,#16,.T.);
#147=ORIENTED_EDGE('',*,*,#130,.T.);
#148=ORIENTED_EDGE('',*,*,#131,.T.);
#149=ORIENTED_EDGE('',*,*,#132,.T.);
#150=ORIENTED_EDGE('',*,*,#130,.F.);
#151=ORIENTED_EDGE('',*,*,#133,.T.);
#152=ORIENTED_EDGE('',*,*,#131,.F.);
#153=ORIENTED_EDGE('',*,*,#134,.T.);
#154=ORIENTED_EDGE('',*,*,#135,.T.);
#155=ORIENTED_EDGE('',*,*,#136,.F.);
#156=ORIENTED_EDGE('',*,*,#134,.F.);
#157=ORIENTED_EDGE('',*,*,#137,.T.);
#158=ORIENTED_EDGE('',*,*,#135,.F.);
#159=ORIENTED_EDGE('',*,*,#138,.T.);
#160=ORIENTED_EDGE('',*,*,#139,.T.);
#161=ORIENTED_EDGE('',*,*,#140,.T.);
#162=ORIENTED_EDGE('',*,*,#138,.F.);
#163=ORIENTED_EDGE('',*,*,#141,.F.);
#164=ORIENTED_EDGE('',*,*,#139,.F.);
#165=ORIENTED_EDGE('',*,*,#142,.F.);
#166=ORIENTED_EDGE('',*,*,#143,.F.);
#167=ORIENTED_EDGE('',*,*,#144,.F.);
#168=ORIENTED_EDGE('',*,*,#142,.T.);
#169=ORIENTED_EDGE('',*,*,#145,.F.);
#170=ORIENTED_EDGE('',*,*,#140,.F.);
#171=ORIENTED_EDGE('',*,*,#143,.T.);
#172=ORIENTED_EDGE('',*,*,#141,.T.);
#173=ORIENTED_EDGE('',*,*,#146,.F.);
#174=ORIENTED_EDGE('',*,*,#133,.F.);
#175=ORIENTED_EDGE('',*,*,#137,.F.);
#176=ORIENTED_EDGE('',*,*,#146,.T.);
#177=ORIENTED_EDGE('',*,*,#136,.T.);
#178=ORIENTED_EDGE('',*,*,#145,.T.);
#179=ORIENTED_EDGE('',*,*,#132,.F.);
#180=ORIENTED_EDGE('',*,*,#144,.T.);
#181=TOROIDAL_SURFACE('',#202,32.,0.5);
#182=TOROIDAL_SURFACE('',#209,32.,0.5);
#183=TOROIDAL_SURFACE('',#216,13.,0.5);
#184=ADVANCED_FACE('',(#48,#30),#181,.T.);
#185=ADVANCED_FACE('',(#49,#31),#23,.F.);
#186=ADVANCED_FACE('',(#50,#32),#17,.T.);
#187=ADVANCED_FACE('',(#51,#33),#182,.T.);
#188=ADVANCED_FACE('',(#52,#34),#24,.F.);
#189=ADVANCED_FACE('',(#53,#35),#18,.F.);
#190=ADVANCED_FACE('',(#54,#36),#183,.T.);
#191=ADVANCED_FACE('',(#55,#37),#25,.F.);
#192=ADVANCED_FACE('',(#56,#38),#19,.T.);
#193=ADVANCED_FACE('',(#57,#39),#26,.F.);
#194=ADVANCED_FACE('',(#58,#40,#41),#27,.F.);
#195=ADVANCED_FACE('',(#59,#42),#20,.T.);
#196=ADVANCED_FACE('',(#60,#43),#28,.T.);
#197=ADVANCED_FACE('',(#61,#44,#45),#29,.T.);
#198=ADVANCED_FACE('',(#62,#46),#21,.F.);
#199=ADVANCED_FACE('',(#63,#47),#22,.T.);
#200=CLOSED_SHELL('',(#184,#185,#186,#187,#188,#189,#190,#191,#192,#193,
#194,#195,#196,#197,#198,#199));
#201=AXIS2_PLACEMENT_3D('placement',#297,#233,#234);
#202=AXIS2_PLACEMENT_3D('',#298,#235,#236);
#203=AXIS2_PLACEMENT_3D('',#300,#237,#238);
#204=AXIS2_PLACEMENT_3D('',#302,#239,#240);
#205=AXIS2_PLACEMENT_3D('',#303,#241,#242);
#206=AXIS2_PLACEMENT_3D('',#305,#243,#244);
#207=AXIS2_PLACEMENT_3D('',#306,#245,#246);
#208=AXIS2_PLACEMENT_3D('',#308,#247,#248);
#209=AXIS2_PLACEMENT_3D('',#309,#249,#250);
#210=AXIS2_PLACEMENT_3D('',#311,#251,#252);
#211=AXIS2_PLACEMENT_3D('',#313,#253,#254);
#212=AXIS2_PLACEMENT_3D('',#314,#255,#256);
#213=AXIS2_PLACEMENT_3D('',#316,#257,#258);
#214=AXIS2_PLACEMENT_3D('',#317,#259,#260);
#215=AXIS2_PLACEMENT_3D('',#319,#261,#262);
#216=AXIS2_PLACEMENT_3D('',#320,#263,#264);
#217=AXIS2_PLACEMENT_3D('',#322,#265,#266);
#218=AXIS2_PLACEMENT_3D('',#324,#267,#268);
#219=AXIS2_PLACEMENT_3D('',#325,#269,#270);
#220=AXIS2_PLACEMENT_3D('',#327,#271,#272);
#221=AXIS2_PLACEMENT_3D('',#328,#273,#274);
#222=AXIS2_PLACEMENT_3D('',#330,#275,#276);
#223=AXIS2_PLACEMENT_3D('',#331,#277,#278);
#224=AXIS2_PLACEMENT_3D('',#368,#279,#280);
#225=AXIS2_PLACEMENT_3D('',#369,#281,#282);
#226=AXIS2_PLACEMENT_3D('',#371,#283,#284);
#227=AXIS2_PLACEMENT_3D('',#373,#285,#286);
#228=AXIS2_PLACEMENT_3D('',#374,#287,#288);
#229=AXIS2_PLACEMENT_3D('',#375,#289,#290);
#230=AXIS2_PLACEMENT_3D('',#443,#291,#292);
#231=AXIS2_PLACEMENT_3D('',#444,#293,#294);
#232=AXIS2_PLACEMENT_3D('',#445,#295,#296);
#233=DIRECTION('axis',(0.,0.,1.));
#234=DIRECTION('refdir',(1.,0.,0.));
#235=DIRECTION('center_axis',(0.,0.,-1.));
#236=DIRECTION('ref_axis',(-1.,0.,0.));
#237=DIRECTION('center_axis',(0.,0.,-1.));
#238=DIRECTION('ref_axis',(-1.,0.,0.));
#239=DIRECTION('center_axis',(0.,0.,1.));
#240=DIRECTION('ref_axis',(-1.,0.,0.));
#241=DIRECTION('center_axis',(0.,0.,-1.));
#242=DIRECTION('ref_axis',(-1.,0.,0.));
#243=DIRECTION('center_axis',(0.,0.,-1.));
#244=DIRECTION('ref_axis',(-1.,0.,0.));
#245=DIRECTION('center_axis',(0.,0.,1.));
#246=DIRECTION('ref_axis',(1.,0.,0.));
#247=DIRECTION('center_axis',(0.,0.,1.));
#248=DIRECTION('ref_axis',(-1.,0.,0.));
#249=DIRECTION('center_axis',(0.,0.,1.));
#250=DIRECTION('ref_axis',(1.,0.,0.));
#251=DIRECTION('center_axis',(0.,0.,1.));
#252=DIRECTION('ref_axis',(-1.,0.,0.));
#253=DIRECTION('center_axis',(0.,0.,-1.));
#254=DIRECTION('ref_axis',(-1.,0.,0.));
#255=DIRECTION('center_axis',(0.,0.,-1.));
#256=DIRECTION('ref_axis',(-1.,0.,0.));
#257=DIRECTION('center_axis',(0.,0.,-1.));
#258=DIRECTION('ref_axis',(-1.,0.,0.));
#259=DIRECTION('center_axis',(0.,0.,1.));
#260=DIRECTION('ref_axis',(1.,0.,0.));
#261=DIRECTION('center_axis',(0.,0.,-1.));
#262=DIRECTION('ref_axis',(-1.,0.,0.));
#263=DIRECTION('center_axis',(0.,-1.,0.));
#264=DIRECTION('ref_axis',(0.,0.,-1.));
#265=DIRECTION('center_axis',(0.,-1.,0.));
#266=DIRECTION('ref_axis',(-1.,0.,0.));
#267=DIRECTION('center_axis',(0.,1.,0.));
#268=DIRECTION('ref_axis',(-1.,0.,0.));
#269=DIRECTION('center_axis',(0.,-1.,0.));
#270=DIRECTION('ref_axis',(-1.,0.,0.));
#271=DIRECTION('center_axis',(0.,-1.,0.));
#272=DIRECTION('ref_axis',(-1.,0.,0.));
#273=DIRECTION('center_axis',(0.,1.,0.));
#274=DIRECTION('ref_axis',(0.,0.,1.));
#275=DIRECTION('center_axis',(0.,-1.,0.));
#276=DIRECTION('ref_axis',(1.,0.,0.));
#277=DIRECTION('center_axis',(0.,-1.,0.));
#278=DIRECTION('ref_axis',(-1.,0.,0.));
#279=DIRECTION('center_axis',(0.,-1.,0.));
#280=DIRECTION('ref_axis',(-1.,0.,0.));
#281=DIRECTION('center_axis',(0.,0.,1.));
#282=DIRECTION('ref_axis',(1.,0.,0.));
#283=DIRECTION('center_axis',(0.,0.,-1.));
#284=DIRECTION('ref_axis',(1.,0.,0.));
#285=DIRECTION('center_axis',(0.,0.,1.));
#286=DIRECTION('ref_axis',(1.,0.,0.));
#287=DIRECTION('center_axis',(0.,1.,0.));
#288=DIRECTION('ref_axis',(0.,0.,1.));
#289=DIRECTION('center_axis',(0.,-1.,0.));
#290=DIRECTION('ref_axis',(1.,0.,0.));
#291=DIRECTION('center_axis',(0.,0.,1.));
#292=DIRECTION('ref_axis',(-1.,0.,0.));
#293=DIRECTION('center_axis',(0.,0.,1.));
#294=DIRECTION('ref_axis',(1.,0.,0.));
#295=DIRECTION('center_axis',(0.,0.,1.));
#296=DIRECTION('ref_axis',(1.,0.,0.));
#297=CARTESIAN_POINT('',(0.,0.,0.));
#298=CARTESIAN_POINT('Origin',(0.,0.,70.5));
#299=CARTESIAN_POINT('',(31.5,-3.85763741731416E-15,70.5));
#300=CARTESIAN_POINT('Origin',(0.,0.,70.5));
#301=CARTESIAN_POINT('',(32.,3.91886975727153E-15,71.));
#302=CARTESIAN_POINT('Origin',(0.,0.,71.));
#303=CARTESIAN_POINT('Origin',(0.,0.,71.));
#304=CARTESIAN_POINT('',(31.5,3.85763741731416E-15,33.));
#305=CARTESIAN_POINT('Origin',(0.,0.,33.));
#306=CARTESIAN_POINT('Origin',(-3.54066983922288E-15,-7.89491928622334E-16,
71.));
#307=CARTESIAN_POINT('',(37.5,4.59242549680258E-15,71.));
#308=CARTESIAN_POINT('Origin',(0.,0.,71.));
#309=CARTESIAN_POINT('Origin',(0.,0.,-70.5));
#310=CARTESIAN_POINT('',(31.5,3.85763741731416E-15,-70.5));
#311=CARTESIAN_POINT('Origin',(0.,0.,-70.5));
#312=CARTESIAN_POINT('',(32.,-3.91886975727153E-15,-71.));
#313=CARTESIAN_POINT('Origin',(0.,0.,-71.));
#314=CARTESIAN_POINT('Origin',(0.,0.,-71.));
#315=CARTESIAN_POINT('',(31.5,3.85763741731416E-15,-33.));
#316=CARTESIAN_POINT('Origin',(0.,0.,-33.));
#317=CARTESIAN_POINT('Origin',(-3.54066983922288E-15,-7.89491928622334E-16,
-71.));
#318=CARTESIAN_POINT('',(37.5,4.59242549680258E-15,-71.));
#319=CARTESIAN_POINT('Origin',(0.,0.,-71.));
#320=CARTESIAN_POINT('Origin',(0.,51.5,0.));
#321=CARTESIAN_POINT('',(12.5,51.5,1.53080849893419E-15));
#322=CARTESIAN_POINT('Origin',(0.,51.5,0.));
#323=CARTESIAN_POINT('',(13.,52.,-1.59204083889156E-15));
#324=CARTESIAN_POINT('Origin',(0.,52.,0.));
#325=CARTESIAN_POINT('Origin',(0.,52.,0.));
#326=CARTESIAN_POINT('',(12.5,33.,-1.53080849893419E-15));
#327=CARTESIAN_POINT('Origin',(0.,33.,0.));
#328=CARTESIAN_POINT('Origin',(1.91501794301671E-15,52.,4.35381578284375E-16));
#329=CARTESIAN_POINT('',(-17.,52.,2.0818995585505E-15));
#330=CARTESIAN_POINT('Origin',(0.,52.,0.));
#331=CARTESIAN_POINT('Origin',(0.,33.,0.));
#332=CARTESIAN_POINT('',(11.5,28.2488937836511,4.16333634234434E-15));
#333=CARTESIAN_POINT('Ctrl Pts',(11.5,28.2488937836511,4.16333634234434E-15));
#334=CARTESIAN_POINT('Ctrl Pts',(11.5,28.2488937836511,-1.46031540223615));
#335=CARTESIAN_POINT('Ctrl Pts',(11.2051847924537,28.3740802292936,-3.00672297748206));
#336=CARTESIAN_POINT('Ctrl Pts',(10.027430112532,28.8113730284796,-5.83499994832103));
#337=CARTESIAN_POINT('Ctrl Pts',(9.14512202381041,29.1156709825308,-7.11833394348019));
#338=CARTESIAN_POINT('Ctrl Pts',(7.11912834179678,29.6761155248055,-9.14432762549382));
#339=CARTESIAN_POINT('Ctrl Pts',(5.83548777090786,29.9706769876876,-10.0272416227568));
#340=CARTESIAN_POINT('Ctrl Pts',(3.00603764604594,30.3851630636393,-11.205455528132));
#341=CARTESIAN_POINT('Ctrl Pts',(1.45917066282459,30.5,-11.5));
#342=CARTESIAN_POINT('Ctrl Pts',(-1.45917066282459,30.5,-11.5));
#343=CARTESIAN_POINT('Ctrl Pts',(-3.00603764604593,30.3851630636393,-11.205455528132));
#344=CARTESIAN_POINT('Ctrl Pts',(-5.83548777090786,29.9706769876876,-10.0272416227568));
#345=CARTESIAN_POINT('Ctrl Pts',(-7.11912834179677,29.6761155248055,-9.14432762549382));
#346=CARTESIAN_POINT('Ctrl Pts',(-9.1451220238104,29.1156709825308,-7.11833394348019));
#347=CARTESIAN_POINT('Ctrl Pts',(-10.027430112532,28.8113730284796,-5.83499994832104));
#348=CARTESIAN_POINT('Ctrl Pts',(-11.2051847924537,28.3740802292936,-3.00672297748206));
#349=CARTESIAN_POINT('Ctrl Pts',(-11.5,28.2488937836511,-1.46031540223615));
#350=CARTESIAN_POINT('Ctrl Pts',(-11.5,28.2488937836511,1.46031540223616));
#351=CARTESIAN_POINT('Ctrl Pts',(-11.2051847924537,28.3740802292936,3.00672297748206));
#352=CARTESIAN_POINT('Ctrl Pts',(-10.027430112532,28.8113730284796,5.83499994832104));
#353=CARTESIAN_POINT('Ctrl Pts',(-9.14512202381041,29.1156709825308,7.11833394348019));
#354=CARTESIAN_POINT('Ctrl Pts',(-7.11912834179678,29.6761155248055,9.14432762549382));
#355=CARTESIAN_POINT('Ctrl Pts',(-5.83548777090786,29.9706769876876,10.0272416227568));
#356=CARTESIAN_POINT('Ctrl Pts',(-3.00603764604594,30.3851630636393,11.205455528132));
#357=CARTESIAN_POINT('Ctrl Pts',(-1.45917066282459,30.5,11.5));
#358=CARTESIAN_POINT('Ctrl Pts',(1.45917066282458,30.5,11.5));
#359=CARTESIAN_POINT('Ctrl Pts',(3.00603764604593,30.3851630636393,11.205455528132));
#360=CARTESIAN_POINT('Ctrl Pts',(5.83548777090785,29.9706769876876,10.0272416227568));
#361=CARTESIAN_POINT('Ctrl Pts',(7.11912834179677,29.6761155248055,9.14432762549383));
#362=CARTESIAN_POINT('Ctrl Pts',(9.1451220238104,29.1156709825308,7.1183339434802));
#363=CARTESIAN_POINT('Ctrl Pts',(10.027430112532,28.8113730284796,5.83499994832105));
#364=CARTESIAN_POINT('Ctrl Pts',(11.2051847924537,28.3740802292936,3.00672297748207));
#365=CARTESIAN_POINT('Ctrl Pts',(11.5,28.2488937836511,1.46031540223616));
#366=CARTESIAN_POINT('Ctrl Pts',(11.5,28.2488937836511,4.16333634234434E-15));
#367=CARTESIAN_POINT('',(11.5,33.,-1.40834381901946E-15));
#368=CARTESIAN_POINT('Origin',(0.,33.,0.));
#369=CARTESIAN_POINT('Origin',(0.,0.,-33.));
#370=CARTESIAN_POINT('',(-30.5,3.73517273739943E-15,33.));
#371=CARTESIAN_POINT('Origin',(0.,0.,33.));
#372=CARTESIAN_POINT('',(-30.5,3.73517273739943E-15,-33.));
#373=CARTESIAN_POINT('Origin',(0.,0.,-33.));
#374=CARTESIAN_POINT('Origin',(-7.19686321377933E-16,33.,0.));
#375=CARTESIAN_POINT('Origin',(0.,52.,0.));
#376=CARTESIAN_POINT('',(17.,33.4252898267165,-2.77555756156289E-16));
#377=CARTESIAN_POINT('Ctrl Pts',(17.,33.4252898267165,-2.77555756156289E-16));
#378=CARTESIAN_POINT('Ctrl Pts',(17.,33.4252898267165,1.0857024082675));
#379=CARTESIAN_POINT('Ctrl Pts',(16.8943398673293,33.4797122360408,2.2022801722128));
#380=CARTESIAN_POINT('Ctrl Pts',(16.456087241834,33.6972854018142,4.41202339175977));
#381=CARTESIAN_POINT('Ctrl Pts',(16.123656303021,33.8601244503933,5.50525156457574));
#382=CARTESIAN_POINT('Ctrl Pts',(15.2518865101258,34.2616438265839,7.59342444412357));
#383=CARTESIAN_POINT('Ctrl Pts',(14.7118558307377,34.500151383834,8.5903297577242));
#384=CARTESIAN_POINT('Ctrl Pts',(13.4697096782359,35.0038007733163,10.4306945433861));
#385=CARTESIAN_POINT('Ctrl Pts',(12.7674437485852,35.2684515647651,11.2741868117574));
#386=CARTESIAN_POINT('Ctrl Pts',(11.2754954458973,35.7733465318418,12.7661351144453));
#387=CARTESIAN_POINT('Ctrl Pts',(10.4326416444006,36.0321418105596,13.4682242164476));
#388=CARTESIAN_POINT('Ctrl Pts',(8.59198178069813,36.5148340294655,14.71091174499));
#389=CARTESIAN_POINT('Ctrl Pts',(7.59413844809169,36.7383389884251,15.2516071895196));
#390=CARTESIAN_POINT('Ctrl Pts',(5.50403526322225,37.1090566692976,16.1241453182411));
#391=CARTESIAN_POINT('Ctrl Pts',(4.40983904992336,37.256328478589,16.4566829600182));
#392=CARTESIAN_POINT('Ctrl Pts',(2.19974042242949,37.4518602238461,16.8946807182282));
#393=CARTESIAN_POINT('Ctrl Pts',(1.08379947086652,37.5,17.));
#394=CARTESIAN_POINT('Ctrl Pts',(-1.08379947086652,37.5,17.));
#395=CARTESIAN_POINT('Ctrl Pts',(-2.19974042242949,37.4518602238461,16.8946807182282));
#396=CARTESIAN_POINT('Ctrl Pts',(-4.40983904992336,37.256328478589,16.4566829600182));
#397=CARTESIAN_POINT('Ctrl Pts',(-5.50403526322225,37.1090566692976,16.1241453182411));
#398=CARTESIAN_POINT('Ctrl Pts',(-7.59413844809169,36.7383389884251,15.2516071895196));
#399=CARTESIAN_POINT('Ctrl Pts',(-8.59198178069813,36.5148340294655,14.71091174499));
#400=CARTESIAN_POINT('Ctrl Pts',(-10.4326416444006,36.0321418105596,13.4682242164476));
#401=CARTESIAN_POINT('Ctrl Pts',(-11.2754954458973,35.7733465318418,12.7661351144453));
#402=CARTESIAN_POINT('Ctrl Pts',(-12.7674437485852,35.2684515647651,11.2741868117574));
#403=CARTESIAN_POINT('Ctrl Pts',(-13.4697096782359,35.0038007733163,10.4306945433861));
#404=CARTESIAN_POINT('Ctrl Pts',(-14.7118558307377,34.500151383834,8.5903297577242));
#405=CARTESIAN_POINT('Ctrl Pts',(-15.2518865101258,34.2616438265839,7.59342444412357));
#406=CARTESIAN_POINT('Ctrl Pts',(-16.123656303021,33.8601244503933,5.50525156457574));
#407=CARTESIAN_POINT('Ctrl Pts',(-16.456087241834,33.6972854018142,4.41202339175977));
#408=CARTESIAN_POINT('Ctrl Pts',(-16.8943398673293,33.4797122360408,2.2022801722128));
#409=CARTESIAN_POINT('Ctrl Pts',(-17.,33.4252898267165,1.0857024082675));
#410=CARTESIAN_POINT('Ctrl Pts',(-17.,33.4252898267165,-1.0857024082675));
#411=CARTESIAN_POINT('Ctrl Pts',(-16.8943398673293,33.4797122360408,-2.2022801722128));
#412=CARTESIAN_POINT('Ctrl Pts',(-16.456087241834,33.6972854018142,-4.41202339175977));
#413=CARTESIAN_POINT('Ctrl Pts',(-16.123656303021,33.8601244503933,-5.50525156457574));
#414=CARTESIAN_POINT('Ctrl Pts',(-15.2518865101258,34.2616438265839,-7.59342444412357));
#415=CARTESIAN_POINT('Ctrl Pts',(-14.7118558307377,34.500151383834,-8.59032975772419));
#416=CARTESIAN_POINT('Ctrl Pts',(-13.4697096782359,35.0038007733163,-10.4306945433861));
#417=CARTESIAN_POINT('Ctrl Pts',(-12.7674437485852,35.2684515647651,-11.2741868117574));
#418=CARTESIAN_POINT('Ctrl Pts',(-11.2754954458973,35.7733465318418,-12.7661351144453));
#419=CARTESIAN_POINT('Ctrl Pts',(-10.4326416444006,36.0321418105596,-13.4682242164476));
#420=CARTESIAN_POINT('Ctrl Pts',(-8.59198178069813,36.5148340294655,-14.71091174499));
#421=CARTESIAN_POINT('Ctrl Pts',(-7.59413844809169,36.7383389884251,-15.2516071895196));
#422=CARTESIAN_POINT('Ctrl Pts',(-5.50403526322226,37.1090566692976,-16.1241453182411));
#423=CARTESIAN_POINT('Ctrl Pts',(-4.40983904992337,37.256328478589,-16.4566829600182));
#424=CARTESIAN_POINT('Ctrl Pts',(-2.19974042242949,37.4518602238461,-16.8946807182282));
#425=CARTESIAN_POINT('Ctrl Pts',(-1.08379947086652,37.5,-17.));
#426=CARTESIAN_POINT('Ctrl Pts',(1.08379947086652,37.5,-17.));
#427=CARTESIAN_POINT('Ctrl Pts',(2.19974042242949,37.4518602238461,-16.8946807182282));
#428=CARTESIAN_POINT('Ctrl Pts',(4.40983904992336,37.256328478589,-16.4566829600182));
#429=CARTESIAN_POINT('Ctrl Pts',(5.50403526322225,37.1090566692976,-16.1241453182411));
#430=CARTESIAN_POINT('Ctrl Pts',(7.59413844809168,36.7383389884251,-15.2516071895196));
#431=CARTESIAN_POINT('Ctrl Pts',(8.59198178069812,36.5148340294655,-14.71091174499));
#432=CARTESIAN_POINT('Ctrl Pts',(10.4326416444006,36.0321418105596,-13.4682242164476));
#433=CARTESIAN_POINT('Ctrl Pts',(11.2754954458973,35.7733465318418,-12.7661351144453));
#434=CARTESIAN_POINT('Ctrl Pts',(12.7674437485852,35.2684515647651,-11.2741868117574));
#435=CARTESIAN_POINT('Ctrl Pts',(13.4697096782359,35.0038007733163,-10.4306945433861));
#436=CARTESIAN_POINT('Ctrl Pts',(14.7118558307377,34.500151383834,-8.5903297577242));
#437=CARTESIAN_POINT('Ctrl Pts',(15.2518865101258,34.2616438265839,-7.59342444412357));
#438=CARTESIAN_POINT('Ctrl Pts',(16.123656303021,33.8601244503933,-5.50525156457574));
#439=CARTESIAN_POINT('Ctrl Pts',(16.456087241834,33.6972854018142,-4.41202339175977));
#440=CARTESIAN_POINT('Ctrl Pts',(16.8943398673293,33.4797122360408,-2.2022801722128));
#441=CARTESIAN_POINT('Ctrl Pts',(17.,33.4252898267165,-1.0857024082675));
#442=CARTESIAN_POINT('Ctrl Pts',(17.,33.4252898267165,-2.77555756156289E-16));
#443=CARTESIAN_POINT('Origin',(0.,0.,0.));
#444=CARTESIAN_POINT('Origin',(-3.14108381557023E-15,-4.69935671799008E-16,
-33.));
#445=CARTESIAN_POINT('Origin',(-3.14108381557023E-15,-4.69935671799008E-16,
33.));
#446=UNCERTAINTY_MEASURE_WITH_UNIT(LENGTH_MEASURE(0.01),#450,
'DISTANCE_ACCURACY_VALUE',
'Maximum model space distance between geometric entities at asserted c
onnectivities');
#447=UNCERTAINTY_MEASURE_WITH_UNIT(LENGTH_MEASURE(1.E-6),#450,
'DISTANCE_ACCURACY_VALUE',
'Maximum model space distance between geometric entities at asserted c
onnectivities');
#448=(
GEOMETRIC_REPRESENTATION_CONTEXT(3)
GLOBAL_UNCERTAINTY_ASSIGNED_CONTEXT((#446))
GLOBAL_UNIT_ASSIGNED_CONTEXT((#450,#453,#451))
REPRESENTATION_CONTEXT('','3D')
);
#449=(
GEOMETRIC_REPRESENTATION_CONTEXT(3)
GLOBAL_UNCERTAINTY_ASSIGNED_CONTEXT((#447))
GLOBAL_UNIT_ASSIGNED_CONTEXT((#450,#453,#451))
REPRESENTATION_CONTEXT('','3D')
);
#450=(
LENGTH_UNIT()
NAMED_UNIT(*)
SI_UNIT(.MILLI.,.METRE.)
);
#451=(
NAMED_UNIT(*)
SI_UNIT($,.STERADIAN.)
SOLID_ANGLE_UNIT()
);
#452=DIMENSIONAL_EXPONENTS(0.,0.,0.,0.,0.,0.,0.);
#453=(
CONVERSION_BASED_UNIT('degree',#455)
NAMED_UNIT(#452)
PLANE_ANGLE_UNIT()
);
#454=(
NAMED_UNIT(*)
PLANE_ANGLE_UNIT()
SI_UNIT($,.RADIAN.)
);
#455=PLANE_ANGLE_MEASURE_WITH_UNIT(PLANE_ANGLE_MEASURE(0.01745329252),#454);
#456=SHAPE_DEFINITION_REPRESENTATION(#457,#458);
#457=PRODUCT_DEFINITION_SHAPE('',$,#460);
#458=SHAPE_REPRESENTATION('',(#201),#448);
#459=PRODUCT_DEFINITION_CONTEXT('part definition',#464,'design');
#460=PRODUCT_DEFINITION('TR40063C','TR40063C',#461,#459);
#461=PRODUCT_DEFINITION_FORMATION('',$,#466);
#462=PRODUCT_RELATED_PRODUCT_CATEGORY('TR40063C','TR40063C',(#466));
#463=APPLICATION_PROTOCOL_DEFINITION('international standard',
'automotive_design',2009,#464);
#464=APPLICATION_CONTEXT(
'Core Data for Automotive Mechanical Design Process');
#465=PRODUCT_CONTEXT('part definition',#464,'mechanical');
#466=PRODUCT('TR40063C','TR40063C',$,(#465));
#467=PRESENTATION_STYLE_ASSIGNMENT((#468));
#468=SURFACE_STYLE_USAGE(.BOTH.,#469);
#469=SURFACE_SIDE_STYLE('',(#470));
#470=SURFACE_STYLE_FILL_AREA(#471);
#471=FILL_AREA_STYLE('',(#472));
#472=FILL_AREA_STYLE_COLOUR('',#473);
#473=COLOUR_RGB('',0.8,0.8,0.8);
ENDSEC;
END-ISO-10303-21;
