ISO-10303-21;
HEADER;
/* Generated by software containing ST-Developer
 * from STEP Tools, Inc. (www.steptools.com) 
 */

FILE_DESCRIPTION(
/* description */ (''),
/* implementation_level */ '2;1');

FILE_NAME(
/* name */ 'C:\\Users\\Eugenio\\Desktop\\so10\\SO103550.stp',
/* time_stamp */ '2019-10-16T14:15:45+02:00',
/* author */ ('Eugenio'),
/* organization */ (''),
/* preprocessor_version */ 'ST-DEVELOPER v16.5',
/* originating_system */ 'Autodesk Inventor 2017',
/* authorisation */ '');

FILE_SCHEMA (('AUTOMOTIVE_DESIGN { 1 0 10303 214 3 1 1 }'));
ENDSEC;

DATA;
#10=MECHANICAL_DESIGN_GEOMETRIC_PRESENTATION_REPRESENTATION('',(#18,#19,
#21,#20),#186);
#11=SHAPE_REPRESENTATION_RELATIONSHIP('SRR','None',#195,#12);
#12=ADVANCED_BREP_SHAPE_REPRESENTATION('',(#13),#185);
#13=MANIFOLD_SOLID_BREP('Solido1',#106);
#14=CYLINDRICAL_SURFACE('',#111,177.5);
#15=CYLINDRICAL_SURFACE('',#115,167.5);
#16=CYLINDRICAL_SURFACE('',#119,177.5);
#17=CYLINDRICAL_SURFACE('',#123,191.5);
#18=STYLED_ITEM('',(#205),#99);
#19=STYLED_ITEM('',(#205),#101);
#20=STYLED_ITEM('',(#205),#103);
#21=STYLED_ITEM('',(#204),#13);
#22=FACE_BOUND('',#39,.T.);
#23=FACE_BOUND('',#41,.T.);
#24=FACE_BOUND('',#43,.T.);
#25=FACE_BOUND('',#45,.T.);
#26=FACE_BOUND('',#47,.T.);
#27=FACE_BOUND('',#49,.T.);
#28=FACE_BOUND('',#51,.T.);
#29=FACE_BOUND('',#53,.T.);
#30=FACE_OUTER_BOUND('',#38,.T.);
#31=FACE_OUTER_BOUND('',#40,.T.);
#32=FACE_OUTER_BOUND('',#42,.T.);
#33=FACE_OUTER_BOUND('',#44,.T.);
#34=FACE_OUTER_BOUND('',#46,.T.);
#35=FACE_OUTER_BOUND('',#48,.T.);
#36=FACE_OUTER_BOUND('',#50,.T.);
#37=FACE_OUTER_BOUND('',#52,.T.);
#38=EDGE_LOOP('',(#78));
#39=EDGE_LOOP('',(#79));
#40=EDGE_LOOP('',(#80));
#41=EDGE_LOOP('',(#81));
#42=EDGE_LOOP('',(#82));
#43=EDGE_LOOP('',(#83));
#44=EDGE_LOOP('',(#84));
#45=EDGE_LOOP('',(#85));
#46=EDGE_LOOP('',(#86));
#47=EDGE_LOOP('',(#87));
#48=EDGE_LOOP('',(#88));
#49=EDGE_LOOP('',(#89));
#50=EDGE_LOOP('',(#90));
#51=EDGE_LOOP('',(#91));
#52=EDGE_LOOP('',(#92));
#53=EDGE_LOOP('',(#93));
#54=CIRCLE('',#109,191.5);
#55=CIRCLE('',#110,177.5);
#56=CIRCLE('',#112,177.5);
#57=CIRCLE('',#114,167.5);
#58=CIRCLE('',#116,167.5);
#59=CIRCLE('',#118,177.5);
#60=CIRCLE('',#120,177.5);
#61=CIRCLE('',#122,191.5);
#62=VERTEX_POINT('',#160);
#63=VERTEX_POINT('',#162);
#64=VERTEX_POINT('',#165);
#65=VERTEX_POINT('',#168);
#66=VERTEX_POINT('',#171);
#67=VERTEX_POINT('',#174);
#68=VERTEX_POINT('',#177);
#69=VERTEX_POINT('',#180);
#70=EDGE_CURVE('',#62,#62,#54,.T.);
#71=EDGE_CURVE('',#63,#63,#55,.T.);
#72=EDGE_CURVE('',#64,#64,#56,.T.);
#73=EDGE_CURVE('',#65,#65,#57,.T.);
#74=EDGE_CURVE('',#66,#66,#58,.T.);
#75=EDGE_CURVE('',#67,#67,#59,.T.);
#76=EDGE_CURVE('',#68,#68,#60,.T.);
#77=EDGE_CURVE('',#69,#69,#61,.T.);
#78=ORIENTED_EDGE('',*,*,#70,.T.);
#79=ORIENTED_EDGE('',*,*,#71,.F.);
#80=ORIENTED_EDGE('',*,*,#71,.T.);
#81=ORIENTED_EDGE('',*,*,#72,.F.);
#82=ORIENTED_EDGE('',*,*,#72,.T.);
#83=ORIENTED_EDGE('',*,*,#73,.F.);
#84=ORIENTED_EDGE('',*,*,#73,.T.);
#85=ORIENTED_EDGE('',*,*,#74,.F.);
#86=ORIENTED_EDGE('',*,*,#75,.F.);
#87=ORIENTED_EDGE('',*,*,#74,.T.);
#88=ORIENTED_EDGE('',*,*,#75,.T.);
#89=ORIENTED_EDGE('',*,*,#76,.F.);
#90=ORIENTED_EDGE('',*,*,#77,.F.);
#91=ORIENTED_EDGE('',*,*,#76,.T.);
#92=ORIENTED_EDGE('',*,*,#77,.T.);
#93=ORIENTED_EDGE('',*,*,#70,.F.);
#94=PLANE('',#108);
#95=PLANE('',#113);
#96=PLANE('',#117);
#97=PLANE('',#121);
#98=ADVANCED_FACE('',(#30,#22),#94,.T.);
#99=ADVANCED_FACE('',(#31,#23),#14,.F.);
#100=ADVANCED_FACE('',(#32,#24),#95,.T.);
#101=ADVANCED_FACE('',(#33,#25),#15,.F.);
#102=ADVANCED_FACE('',(#34,#26),#96,.T.);
#103=ADVANCED_FACE('',(#35,#27),#16,.F.);
#104=ADVANCED_FACE('',(#36,#28),#97,.T.);
#105=ADVANCED_FACE('',(#37,#29),#17,.T.);
#106=CLOSED_SHELL('',(#98,#99,#100,#101,#102,#103,#104,#105));
#107=AXIS2_PLACEMENT_3D('placement',#158,#124,#125);
#108=AXIS2_PLACEMENT_3D('',#159,#126,#127);
#109=AXIS2_PLACEMENT_3D('',#161,#128,#129);
#110=AXIS2_PLACEMENT_3D('',#163,#130,#131);
#111=AXIS2_PLACEMENT_3D('',#164,#132,#133);
#112=AXIS2_PLACEMENT_3D('',#166,#134,#135);
#113=AXIS2_PLACEMENT_3D('',#167,#136,#137);
#114=AXIS2_PLACEMENT_3D('',#169,#138,#139);
#115=AXIS2_PLACEMENT_3D('',#170,#140,#141);
#116=AXIS2_PLACEMENT_3D('',#172,#142,#143);
#117=AXIS2_PLACEMENT_3D('',#173,#144,#145);
#118=AXIS2_PLACEMENT_3D('',#175,#146,#147);
#119=AXIS2_PLACEMENT_3D('',#176,#148,#149);
#120=AXIS2_PLACEMENT_3D('',#178,#150,#151);
#121=AXIS2_PLACEMENT_3D('',#179,#152,#153);
#122=AXIS2_PLACEMENT_3D('',#181,#154,#155);
#123=AXIS2_PLACEMENT_3D('',#182,#156,#157);
#124=DIRECTION('axis',(0.,0.,1.));
#125=DIRECTION('refdir',(1.,0.,0.));
#126=DIRECTION('center_axis',(-1.,0.,0.));
#127=DIRECTION('ref_axis',(0.,0.,1.));
#128=DIRECTION('center_axis',(-1.,0.,0.));
#129=DIRECTION('ref_axis',(0.,0.,1.));
#130=DIRECTION('center_axis',(-1.,0.,0.));
#131=DIRECTION('ref_axis',(0.,0.,1.));
#132=DIRECTION('center_axis',(-1.,0.,0.));
#133=DIRECTION('ref_axis',(0.,-1.,0.));
#134=DIRECTION('center_axis',(-1.,0.,0.));
#135=DIRECTION('ref_axis',(0.,0.,1.));
#136=DIRECTION('center_axis',(-1.,0.,0.));
#137=DIRECTION('ref_axis',(0.,0.,1.));
#138=DIRECTION('center_axis',(-1.,0.,0.));
#139=DIRECTION('ref_axis',(0.,0.,1.));
#140=DIRECTION('center_axis',(-1.,0.,0.));
#141=DIRECTION('ref_axis',(0.,-1.,0.));
#142=DIRECTION('center_axis',(-1.,0.,0.));
#143=DIRECTION('ref_axis',(0.,0.,1.));
#144=DIRECTION('center_axis',(1.,0.,0.));
#145=DIRECTION('ref_axis',(0.,0.,-1.));
#146=DIRECTION('center_axis',(-1.,0.,0.));
#147=DIRECTION('ref_axis',(0.,0.,1.));
#148=DIRECTION('center_axis',(-1.,0.,0.));
#149=DIRECTION('ref_axis',(0.,-1.,0.));
#150=DIRECTION('center_axis',(-1.,0.,0.));
#151=DIRECTION('ref_axis',(0.,0.,1.));
#152=DIRECTION('center_axis',(1.,0.,0.));
#153=DIRECTION('ref_axis',(0.,0.,-1.));
#154=DIRECTION('center_axis',(-1.,0.,0.));
#155=DIRECTION('ref_axis',(0.,0.,1.));
#156=DIRECTION('center_axis',(-1.,0.,0.));
#157=DIRECTION('ref_axis',(0.,-1.,0.));
#158=CARTESIAN_POINT('',(0.,0.,0.));
#159=CARTESIAN_POINT('Origin',(1235.35496012808,-177.5,0.));
#160=CARTESIAN_POINT('',(1235.35496012808,-191.5,0.));
#161=CARTESIAN_POINT('Origin',(1235.35496012808,0.,0.));
#162=CARTESIAN_POINT('',(1235.35496012808,-177.5,0.));
#163=CARTESIAN_POINT('Origin',(1235.35496012808,0.,0.));
#164=CARTESIAN_POINT('Origin',(1327.85496012808,0.,0.));
#165=CARTESIAN_POINT('',(1420.35496012808,-177.5,0.));
#166=CARTESIAN_POINT('Origin',(1420.35496012808,0.,0.));
#167=CARTESIAN_POINT('Origin',(1420.35496012808,-167.5,0.));
#168=CARTESIAN_POINT('',(1420.35496012808,-167.5,0.));
#169=CARTESIAN_POINT('Origin',(1420.35496012808,0.,0.));
#170=CARTESIAN_POINT('Origin',(1425.35496012808,0.,0.));
#171=CARTESIAN_POINT('',(1430.35496012808,-167.5,0.));
#172=CARTESIAN_POINT('Origin',(1430.35496012808,0.,0.));
#173=CARTESIAN_POINT('Origin',(1430.35496012808,-177.5,0.));
#174=CARTESIAN_POINT('',(1430.35496012808,-177.5,0.));
#175=CARTESIAN_POINT('Origin',(1430.35496012808,0.,0.));
#176=CARTESIAN_POINT('Origin',(1522.85496012808,0.,0.));
#177=CARTESIAN_POINT('',(1615.35496012808,-177.5,0.));
#178=CARTESIAN_POINT('Origin',(1615.35496012808,0.,0.));
#179=CARTESIAN_POINT('Origin',(1615.35496012808,-191.5,0.));
#180=CARTESIAN_POINT('',(1615.35496012808,-191.5,0.));
#181=CARTESIAN_POINT('Origin',(1615.35496012808,0.,0.));
#182=CARTESIAN_POINT('Origin',(1425.35496012808,0.,0.));
#183=UNCERTAINTY_MEASURE_WITH_UNIT(LENGTH_MEASURE(0.01),#187,
'DISTANCE_ACCURACY_VALUE',
'Maximum model space distance between geometric entities at asserted c
onnectivities');
#184=UNCERTAINTY_MEASURE_WITH_UNIT(LENGTH_MEASURE(1.E-6),#187,
'DISTANCE_ACCURACY_VALUE',
'Maximum model space distance between geometric entities at asserted c
onnectivities');
#185=(
GEOMETRIC_REPRESENTATION_CONTEXT(3)
GLOBAL_UNCERTAINTY_ASSIGNED_CONTEXT((#183))
GLOBAL_UNIT_ASSIGNED_CONTEXT((#187,#190,#188))
REPRESENTATION_CONTEXT('','3D')
);
#186=(
GEOMETRIC_REPRESENTATION_CONTEXT(3)
GLOBAL_UNCERTAINTY_ASSIGNED_CONTEXT((#184))
GLOBAL_UNIT_ASSIGNED_CONTEXT((#187,#190,#188))
REPRESENTATION_CONTEXT('','3D')
);
#187=(
LENGTH_UNIT()
NAMED_UNIT(*)
SI_UNIT(.MILLI.,.METRE.)
);
#188=(
NAMED_UNIT(*)
SI_UNIT($,.STERADIAN.)
SOLID_ANGLE_UNIT()
);
#189=DIMENSIONAL_EXPONENTS(0.,0.,0.,0.,0.,0.,0.);
#190=(
CONVERSION_BASED_UNIT('degree',#192)
NAMED_UNIT(#189)
PLANE_ANGLE_UNIT()
);
#191=(
NAMED_UNIT(*)
PLANE_ANGLE_UNIT()
SI_UNIT($,.RADIAN.)
);
#192=PLANE_ANGLE_MEASURE_WITH_UNIT(PLANE_ANGLE_MEASURE(0.01745329252),#191);
#193=SHAPE_DEFINITION_REPRESENTATION(#194,#195);
#194=PRODUCT_DEFINITION_SHAPE('',$,#197);
#195=SHAPE_REPRESENTATION('',(#107),#185);
#196=PRODUCT_DEFINITION_CONTEXT('part definition',#201,'design');
#197=PRODUCT_DEFINITION('SO103550','SO103550',#198,#196);
#198=PRODUCT_DEFINITION_FORMATION('',$,#203);
#199=PRODUCT_RELATED_PRODUCT_CATEGORY('SO103550','SO103550',(#203));
#200=APPLICATION_PROTOCOL_DEFINITION('international standard',
'automotive_design',2009,#201);
#201=APPLICATION_CONTEXT(
'Core Data for Automotive Mechanical Design Process');
#202=PRODUCT_CONTEXT('part definition',#201,'mechanical');
#203=PRODUCT('SO103550','SO103550',$,(#202));
#204=PRESENTATION_STYLE_ASSIGNMENT((#206));
#205=PRESENTATION_STYLE_ASSIGNMENT((#207));
#206=SURFACE_STYLE_USAGE(.BOTH.,#208);
#207=SURFACE_STYLE_USAGE(.BOTH.,#209);
#208=SURFACE_SIDE_STYLE('',(#210));
#209=SURFACE_SIDE_STYLE('',(#211));
#210=SURFACE_STYLE_FILL_AREA(#212);
#211=SURFACE_STYLE_FILL_AREA(#213);
#212=FILL_AREA_STYLE('',(#214));
#213=FILL_AREA_STYLE('',(#215));
#214=FILL_AREA_STYLE_COLOUR('',#216);
#215=FILL_AREA_STYLE_COLOUR('',#217);
#216=COLOUR_RGB('',0.6,0.6,0.6);
#217=COLOUR_RGB('',0.949019607843137,0.949019607843137,1.);
ENDSEC;
END-ISO-10303-21;
