ISO-10303-21;
HEADER;
/* Generated by software containing ST-Developer
 * from STEP Tools, Inc. (www.steptools.com) 
 */

FILE_DESCRIPTION(
/* description */ (''),
/* implementation_level */ '2;1');

FILE_NAME(
/* name */ 
'Q:\\Ric010\\FF7\\FIPlastiCAD\\FIP\\Lavoro\\PVC Fittings\\PVC Fittings
 STEP\\TIV\\TIV025.ipt.stp',
/* time_stamp */ '2013-10-01T14:55:40+02:00',
/* author */ ('bfaro'),
/* organization */ (''),
/* preprocessor_version */ 'ST-DEVELOPER v15.2',
/* originating_system */ 'Autodesk Inventor 2014',
/* authorisation */ '');

FILE_SCHEMA (('AUTOMOTIVE_DESIGN { 1 0 10303 214 3 1 1 }'));
ENDSEC;

DATA;
#10=SHAPE_REPRESENTATION_RELATIONSHIP('SRR','None',#323,#11);
#11=ADVANCED_BREP_SHAPE_REPRESENTATION($,(#176),#314);
#12=STYLED_ITEM($,(#331),#176);
#13=PLANE($,#201);
#14=PLANE($,#202);
#15=PLANE($,#203);
#16=PLANE($,#204);
#17=PLANE($,#205);
#18=PLANE($,#206);
#19=FACE_BOUND($,#60,.T.);
#20=FACE_BOUND($,#61,.T.);
#21=FACE_BOUND($,#62,.T.);
#22=FACE_BOUND($,#63,.T.);
#23=FACE_BOUND($,#65,.T.);
#24=FACE_BOUND($,#66,.T.);
#25=FACE_BOUND($,#67,.T.);
#26=FACE_BOUND($,#68,.T.);
#27=FACE_BOUND($,#70,.T.);
#28=FACE_BOUND($,#72,.T.);
#29=FACE_BOUND($,#74,.T.);
#30=FACE_BOUND($,#76,.T.);
#31=FACE_BOUND($,#77,.T.);
#32=FACE_BOUND($,#78,.T.);
#33=FACE_BOUND($,#80,.T.);
#34=FACE_BOUND($,#82,.T.);
#35=FACE_BOUND($,#83,.T.);
#36=FACE_BOUND($,#84,.T.);
#37=FACE_BOUND($,#85,.T.);
#38=FACE_BOUND($,#86,.T.);
#39=CIRCLE($,#181,12.);
#40=CIRCLE($,#183,12.);
#41=CIRCLE($,#184,12.);
#42=CIRCLE($,#186,12.5);
#43=CIRCLE($,#187,12.5);
#44=CIRCLE($,#191,16.5);
#45=CIRCLE($,#192,16.5);
#46=CIRCLE($,#194,16.5);
#47=CIRCLE($,#196,12.5);
#48=CIRCLE($,#197,12.5);
#49=CIRCLE($,#199,12.5);
#50=CIRCLE($,#200,12.5);
#51=FACE_OUTER_BOUND($,#59,.T.);
#52=FACE_OUTER_BOUND($,#64,.T.);
#53=FACE_OUTER_BOUND($,#69,.T.);
#54=FACE_OUTER_BOUND($,#71,.T.);
#55=FACE_OUTER_BOUND($,#73,.T.);
#56=FACE_OUTER_BOUND($,#75,.T.);
#57=FACE_OUTER_BOUND($,#79,.T.);
#58=FACE_OUTER_BOUND($,#81,.T.);
#59=EDGE_LOOP($,(#123,#124));
#60=EDGE_LOOP($,(#125));
#61=EDGE_LOOP($,(#126,#127));
#62=EDGE_LOOP($,(#128));
#63=EDGE_LOOP($,(#129));
#64=EDGE_LOOP($,(#130));
#65=EDGE_LOOP($,(#131));
#66=EDGE_LOOP($,(#132,#133));
#67=EDGE_LOOP($,(#134));
#68=EDGE_LOOP($,(#135));
#69=EDGE_LOOP($,(#136,#137));
#70=EDGE_LOOP($,(#138));
#71=EDGE_LOOP($,(#139));
#72=EDGE_LOOP($,(#140));
#73=EDGE_LOOP($,(#141));
#74=EDGE_LOOP($,(#142));
#75=EDGE_LOOP($,(#143));
#76=EDGE_LOOP($,(#144));
#77=EDGE_LOOP($,(#145));
#78=EDGE_LOOP($,(#146));
#79=EDGE_LOOP($,(#147));
#80=EDGE_LOOP($,(#148));
#81=EDGE_LOOP($,(#149));
#82=EDGE_LOOP($,(#150));
#83=EDGE_LOOP($,(#151));
#84=EDGE_LOOP($,(#152));
#85=EDGE_LOOP($,(#153));
#86=EDGE_LOOP($,(#154));
#87=ELLIPSE($,#179,16.9705627488581,12.);
#88=ELLIPSE($,#180,16.9705627480962,12.);
#89=ELLIPSE($,#189,23.334523778632,16.5);
#90=ELLIPSE($,#190,23.33452377968,16.5);
#91=VERTEX_POINT($,#269);
#92=VERTEX_POINT($,#270);
#93=VERTEX_POINT($,#273);
#94=VERTEX_POINT($,#276);
#95=VERTEX_POINT($,#278);
#96=VERTEX_POINT($,#281);
#97=VERTEX_POINT($,#283);
#98=VERTEX_POINT($,#286);
#99=VERTEX_POINT($,#287);
#100=VERTEX_POINT($,#290);
#101=VERTEX_POINT($,#292);
#102=VERTEX_POINT($,#295);
#103=VERTEX_POINT($,#298);
#104=VERTEX_POINT($,#300);
#105=VERTEX_POINT($,#303);
#106=VERTEX_POINT($,#305);
#107=EDGE_CURVE($,#91,#92,#87,.T.);
#108=EDGE_CURVE($,#92,#91,#88,.T.);
#109=EDGE_CURVE($,#93,#93,#39,.T.);
#110=EDGE_CURVE($,#94,#94,#40,.T.);
#111=EDGE_CURVE($,#95,#95,#41,.T.);
#112=EDGE_CURVE($,#96,#96,#42,.T.);
#113=EDGE_CURVE($,#97,#97,#43,.T.);
#114=EDGE_CURVE($,#98,#99,#89,.T.);
#115=EDGE_CURVE($,#98,#99,#90,.T.);
#116=EDGE_CURVE($,#100,#100,#44,.T.);
#117=EDGE_CURVE($,#101,#101,#45,.T.);
#118=EDGE_CURVE($,#102,#102,#46,.T.);
#119=EDGE_CURVE($,#103,#103,#47,.T.);
#120=EDGE_CURVE($,#104,#104,#48,.T.);
#121=EDGE_CURVE($,#105,#105,#49,.T.);
#122=EDGE_CURVE($,#106,#106,#50,.T.);
#123=ORIENTED_EDGE($,*,*,#107,.F.);
#124=ORIENTED_EDGE($,*,*,#108,.F.);
#125=ORIENTED_EDGE($,*,*,#109,.F.);
#126=ORIENTED_EDGE($,*,*,#107,.T.);
#127=ORIENTED_EDGE($,*,*,#108,.T.);
#128=ORIENTED_EDGE($,*,*,#110,.F.);
#129=ORIENTED_EDGE($,*,*,#111,.F.);
#130=ORIENTED_EDGE($,*,*,#112,.T.);
#131=ORIENTED_EDGE($,*,*,#113,.F.);
#132=ORIENTED_EDGE($,*,*,#114,.F.);
#133=ORIENTED_EDGE($,*,*,#115,.T.);
#134=ORIENTED_EDGE($,*,*,#116,.T.);
#135=ORIENTED_EDGE($,*,*,#117,.F.);
#136=ORIENTED_EDGE($,*,*,#115,.F.);
#137=ORIENTED_EDGE($,*,*,#114,.T.);
#138=ORIENTED_EDGE($,*,*,#118,.F.);
#139=ORIENTED_EDGE($,*,*,#119,.T.);
#140=ORIENTED_EDGE($,*,*,#120,.F.);
#141=ORIENTED_EDGE($,*,*,#121,.T.);
#142=ORIENTED_EDGE($,*,*,#122,.F.);
#143=ORIENTED_EDGE($,*,*,#116,.F.);
#144=ORIENTED_EDGE($,*,*,#113,.T.);
#145=ORIENTED_EDGE($,*,*,#110,.T.);
#146=ORIENTED_EDGE($,*,*,#112,.F.);
#147=ORIENTED_EDGE($,*,*,#117,.T.);
#148=ORIENTED_EDGE($,*,*,#119,.F.);
#149=ORIENTED_EDGE($,*,*,#118,.T.);
#150=ORIENTED_EDGE($,*,*,#121,.F.);
#151=ORIENTED_EDGE($,*,*,#111,.T.);
#152=ORIENTED_EDGE($,*,*,#120,.T.);
#153=ORIENTED_EDGE($,*,*,#109,.T.);
#154=ORIENTED_EDGE($,*,*,#122,.T.);
#155=CYLINDRICAL_SURFACE($,#178,12.);
#156=CYLINDRICAL_SURFACE($,#182,12.);
#157=CYLINDRICAL_SURFACE($,#185,12.5);
#158=CYLINDRICAL_SURFACE($,#188,16.5);
#159=CYLINDRICAL_SURFACE($,#193,16.5);
#160=CYLINDRICAL_SURFACE($,#195,12.5);
#161=CYLINDRICAL_SURFACE($,#198,12.5);
#162=ADVANCED_FACE($,(#51,#19),#155,.F.);
#163=ADVANCED_FACE($,(#20,#21,#22),#156,.F.);
#164=ADVANCED_FACE($,(#52,#23),#157,.F.);
#165=ADVANCED_FACE($,(#24,#25,#26),#158,.T.);
#166=ADVANCED_FACE($,(#53,#27),#159,.T.);
#167=ADVANCED_FACE($,(#54,#28),#160,.F.);
#168=ADVANCED_FACE($,(#55,#29),#161,.F.);
#169=ADVANCED_FACE($,(#56,#30),#13,.T.);
#170=ADVANCED_FACE($,(#31,#32),#14,.T.);
#171=ADVANCED_FACE($,(#57,#33),#15,.T.);
#172=ADVANCED_FACE($,(#58,#34),#16,.T.);
#173=ADVANCED_FACE($,(#35,#36),#17,.T.);
#174=ADVANCED_FACE($,(#37,#38),#18,.T.);
#175=CLOSED_SHELL($,(#162,#163,#164,#165,#166,#167,#168,#169,#170,#171,
#172,#173,#174));
#176=MANIFOLD_SOLID_BREP('Solido1',#175);
#177=AXIS2_PLACEMENT_3D('placement',#267,#207,#208);
#178=AXIS2_PLACEMENT_3D($,#268,#209,#210);
#179=AXIS2_PLACEMENT_3D($,#271,#211,#212);
#180=AXIS2_PLACEMENT_3D($,#272,#213,#214);
#181=AXIS2_PLACEMENT_3D($,#274,#215,#216);
#182=AXIS2_PLACEMENT_3D($,#275,#217,#218);
#183=AXIS2_PLACEMENT_3D($,#277,#219,#220);
#184=AXIS2_PLACEMENT_3D($,#279,#221,#222);
#185=AXIS2_PLACEMENT_3D($,#280,#223,#224);
#186=AXIS2_PLACEMENT_3D($,#282,#225,#226);
#187=AXIS2_PLACEMENT_3D($,#284,#227,#228);
#188=AXIS2_PLACEMENT_3D($,#285,#229,#230);
#189=AXIS2_PLACEMENT_3D($,#288,#231,#232);
#190=AXIS2_PLACEMENT_3D($,#289,#233,#234);
#191=AXIS2_PLACEMENT_3D($,#291,#235,#236);
#192=AXIS2_PLACEMENT_3D($,#293,#237,#238);
#193=AXIS2_PLACEMENT_3D($,#294,#239,#240);
#194=AXIS2_PLACEMENT_3D($,#296,#241,#242);
#195=AXIS2_PLACEMENT_3D($,#297,#243,#244);
#196=AXIS2_PLACEMENT_3D($,#299,#245,#246);
#197=AXIS2_PLACEMENT_3D($,#301,#247,#248);
#198=AXIS2_PLACEMENT_3D($,#302,#249,#250);
#199=AXIS2_PLACEMENT_3D($,#304,#251,#252);
#200=AXIS2_PLACEMENT_3D($,#306,#253,#254);
#201=AXIS2_PLACEMENT_3D($,#307,#255,#256);
#202=AXIS2_PLACEMENT_3D($,#308,#257,#258);
#203=AXIS2_PLACEMENT_3D($,#309,#259,#260);
#204=AXIS2_PLACEMENT_3D($,#310,#261,#262);
#205=AXIS2_PLACEMENT_3D($,#311,#263,#264);
#206=AXIS2_PLACEMENT_3D($,#312,#265,#266);
#207=DIRECTION('axis',(0.,0.,1.));
#208=DIRECTION('refdir',(1.,0.,0.));
#209=DIRECTION('center_axis',(-1.,0.,-4.4896573218403E-011));
#210=DIRECTION('ref_axis',(-4.4896573218403E-011,0.,1.));
#211=DIRECTION('center_axis',(0.707106781202421,0.,-0.707106781170674));
#212=DIRECTION('ref_axis',(0.707106781170674,0.,0.707106781202421));
#213=DIRECTION('center_axis',(0.707106781170674,0.,0.707106781202421));
#214=DIRECTION('ref_axis',(-0.707106781202421,0.,0.707106781170674));
#215=DIRECTION('center_axis',(-1.,0.,-4.489664E-011));
#216=DIRECTION('ref_axis',(-4.4896573218403E-011,0.,1.));
#217=DIRECTION('center_axis',(0.,0.,-1.));
#218=DIRECTION('ref_axis',(-1.,0.,0.));
#219=DIRECTION('center_axis',(0.,0.,1.));
#220=DIRECTION('ref_axis',(-1.,0.,0.));
#221=DIRECTION('center_axis',(0.,0.,-1.));
#222=DIRECTION('ref_axis',(-1.,0.,0.));
#223=DIRECTION('center_axis',(0.,0.,1.));
#224=DIRECTION('ref_axis',(1.,0.,0.));
#225=DIRECTION('center_axis',(0.,0.,1.));
#226=DIRECTION('ref_axis',(1.,0.,0.));
#227=DIRECTION('center_axis',(0.,0.,1.));
#228=DIRECTION('ref_axis',(1.,0.,0.));
#229=DIRECTION('center_axis',(0.,0.,1.));
#230=DIRECTION('ref_axis',(1.,0.,0.));
#231=DIRECTION('center_axis',(0.707106781171048,0.,0.707106781202047));
#232=DIRECTION('ref_axis',(-0.707106781202047,0.,0.707106781171048));
#233=DIRECTION('center_axis',(-0.707106781202047,0.,0.707106781171048));
#234=DIRECTION('ref_axis',(0.707106781171047,0.,0.707106781202048));
#235=DIRECTION('center_axis',(0.,0.,1.));
#236=DIRECTION('ref_axis',(1.,0.,0.));
#237=DIRECTION('center_axis',(0.,0.,1.));
#238=DIRECTION('ref_axis',(1.,0.,0.));
#239=DIRECTION('center_axis',(1.,0.,4.489664E-011));
#240=DIRECTION('ref_axis',(4.489664E-011,0.,-1.));
#241=DIRECTION('center_axis',(1.,0.,4.489664E-011));
#242=DIRECTION('ref_axis',(4.489664E-011,0.,-1.));
#243=DIRECTION('center_axis',(0.,0.,1.));
#244=DIRECTION('ref_axis',(1.,0.,0.));
#245=DIRECTION('center_axis',(0.,0.,1.));
#246=DIRECTION('ref_axis',(1.,0.,0.));
#247=DIRECTION('center_axis',(0.,0.,1.));
#248=DIRECTION('ref_axis',(1.,0.,0.));
#249=DIRECTION('center_axis',(1.,1.86581349636111E-014,4.48947418316097E-011));
#250=DIRECTION('ref_axis',(4.48945769448981E-011,0.,-1.));
#251=DIRECTION('center_axis',(1.,0.,4.489664E-011));
#252=DIRECTION('ref_axis',(4.489664E-011,0.,-1.));
#253=DIRECTION('center_axis',(1.,0.,4.489664E-011));
#254=DIRECTION('ref_axis',(4.489664E-011,0.,-1.));
#255=DIRECTION('center_axis',(0.,0.,-1.));
#256=DIRECTION('ref_axis',(-1.,0.,0.));
#257=DIRECTION('center_axis',(0.,0.,-1.));
#258=DIRECTION('ref_axis',(-1.,0.,0.));
#259=DIRECTION('center_axis',(0.,0.,1.));
#260=DIRECTION('ref_axis',(1.,0.,0.));
#261=DIRECTION('center_axis',(1.,0.,4.489664E-011));
#262=DIRECTION('ref_axis',(4.48963533017377E-011,0.,-1.));
#263=DIRECTION('center_axis',(0.,0.,1.));
#264=DIRECTION('ref_axis',(1.,0.,0.));
#265=DIRECTION('center_axis',(1.,0.,4.489664E-011));
#266=DIRECTION('ref_axis',(4.48967085731056E-011,0.,-1.));
#267=CARTESIAN_POINT('',(0.,0.,0.));
#268=CARTESIAN_POINT('Origin',(14.,0.,33.000000000629));
#269=CARTESIAN_POINT('',(0.,12.,33.0000000000005));
#270=CARTESIAN_POINT('',(0.,-12.,33.0000000000005));
#271=CARTESIAN_POINT('Origin',(-2.22044604925031E-015,0.,33.0000000000005));
#272=CARTESIAN_POINT('Origin',(2.22044604925031E-015,0.,33.0000000000005));
#273=CARTESIAN_POINT('',(14.0000000005388,1.46957615897682E-015,21.000000000629));
#274=CARTESIAN_POINT('Origin',(14.,0.,33.000000000629));
#275=CARTESIAN_POINT('Origin',(0.,0.,47.));
#276=CARTESIAN_POINT('',(12.,1.46957615897682E-015,19.));
#277=CARTESIAN_POINT('Origin',(0.,0.,19.));
#278=CARTESIAN_POINT('',(12.,1.46957615897682E-015,47.));
#279=CARTESIAN_POINT('Origin',(0.,0.,47.));
#280=CARTESIAN_POINT('Origin',(2.22044604925031E-015,0.,9.5));
#281=CARTESIAN_POINT('',(-12.5,-1.530758E-015,19.));
#282=CARTESIAN_POINT('Origin',(0.,0.,19.));
#283=CARTESIAN_POINT('',(-12.5,-1.530758E-015,0.));
#284=CARTESIAN_POINT('Origin',(0.,0.,0.));
#285=CARTESIAN_POINT('Origin',(0.,0.,0.));
#286=CARTESIAN_POINT('',(-1.360773E-025,-16.5,33.));
#287=CARTESIAN_POINT('',(4.535909E-026,16.5,33.));
#288=CARTESIAN_POINT('Origin',(0.,0.,33.));
#289=CARTESIAN_POINT('Origin',(0.,0.,33.));
#290=CARTESIAN_POINT('',(16.5,-4.041201E-015,0.));
#291=CARTESIAN_POINT('Origin',(0.,0.,0.));
#292=CARTESIAN_POINT('',(-16.5,-2.0206E-015,66.));
#293=CARTESIAN_POINT('Origin',(0.,0.,66.));
#294=CARTESIAN_POINT('Origin',(0.,0.,33.));
#295=CARTESIAN_POINT('',(32.9999999992592,-2.0206E-015,49.5000000014816));
#296=CARTESIAN_POINT('Origin',(33.,0.,33.000000001482));
#297=CARTESIAN_POINT('Origin',(2.22044604925031E-015,0.,56.5));
#298=CARTESIAN_POINT('',(-12.5,-1.530758E-015,66.));
#299=CARTESIAN_POINT('Origin',(0.,0.,66.));
#300=CARTESIAN_POINT('',(-12.5,-1.530758E-015,47.));
#301=CARTESIAN_POINT('Origin',(0.,0.,47.));
#302=CARTESIAN_POINT('Origin',(23.5,0.,33.0000000010556));
#303=CARTESIAN_POINT('',(32.9999999994388,-1.530758E-015,45.500000001482));
#304=CARTESIAN_POINT('Origin',(33.,0.,33.000000001482));
#305=CARTESIAN_POINT('',(13.9999999994388,-1.530758E-015,45.500000000629));
#306=CARTESIAN_POINT('Origin',(14.,0.,33.000000000629));
#307=CARTESIAN_POINT('Origin',(0.,0.,0.));
#308=CARTESIAN_POINT('Origin',(0.,0.,19.));
#309=CARTESIAN_POINT('Origin',(0.,0.,66.));
#310=CARTESIAN_POINT('Origin',(33.,0.,33.000000001482));
#311=CARTESIAN_POINT('Origin',(0.,0.,47.));
#312=CARTESIAN_POINT('Origin',(14.,0.,33.000000000629));
#313=UNCERTAINTY_MEASURE_WITH_UNIT(LENGTH_MEASURE(0.01),#315,
'DISTANCE_ACCURACY_VALUE',
'Maximum model space distance between geometric entities at asserted c
onnectivities');
#314=(
GEOMETRIC_REPRESENTATION_CONTEXT(3)
GLOBAL_UNCERTAINTY_ASSIGNED_CONTEXT((#313))
GLOBAL_UNIT_ASSIGNED_CONTEXT((#315,#318,#316))
REPRESENTATION_CONTEXT('','3D')
);
#315=(
LENGTH_UNIT()
NAMED_UNIT(*)
SI_UNIT(.MILLI.,.METRE.)
);
#316=(
NAMED_UNIT(*)
SI_UNIT($,.STERADIAN.)
SOLID_ANGLE_UNIT()
);
#317=DIMENSIONAL_EXPONENTS(0.,0.,0.,0.,0.,0.,0.);
#318=(
CONVERSION_BASED_UNIT('degree',#320)
NAMED_UNIT(#317)
PLANE_ANGLE_UNIT()
);
#319=(
NAMED_UNIT(*)
PLANE_ANGLE_UNIT()
SI_UNIT($,.RADIAN.)
);
#320=PLANE_ANGLE_MEASURE_WITH_UNIT(PLANE_ANGLE_MEASURE(0.01745329252),#319);
#321=SHAPE_DEFINITION_REPRESENTATION(#322,#323);
#322=PRODUCT_DEFINITION_SHAPE('',$,#325);
#323=SHAPE_REPRESENTATION('',(#177),#314);
#324=PRODUCT_DEFINITION_CONTEXT('3D Mechanical Parts',#328,'design');
#325=PRODUCT_DEFINITION('TIV025','TIV025',#326,#324);
#326=PRODUCT_DEFINITION_FORMATION('',$,#330);
#327=APPLICATION_PROTOCOL_DEFINITION('international standard',
'automotive_design',2009,#328);
#328=APPLICATION_CONTEXT(
'Core Data for Automotive Mechanical Design Process');
#329=PRODUCT_CONTEXT('3D Mechanical Parts',#328,'mechanical');
#330=PRODUCT('TIV025','TIV025',$,(#329));
#331=PRESENTATION_STYLE_ASSIGNMENT((#332));
#332=SURFACE_STYLE_USAGE(.BOTH.,#333);
#333=SURFACE_SIDE_STYLE($,(#334));
#334=SURFACE_STYLE_FILL_AREA(#335);
#335=FILL_AREA_STYLE($,(#336));
#336=FILL_AREA_STYLE_COLOUR($,#337);
#337=COLOUR_RGB('',0.509803921568627,0.509803921568627,0.588235294117647);
ENDSEC;
END-ISO-10303-21;
