ISO-10303-21;
HEADER;
FILE_DESCRIPTION( ( '' ), '1' );
FILE_NAME( '//se01002/users/anro/AGRU_70712050011_PE_100-RC_schwarz_Rohr_12m_500X45_4__SDR11__ISO_S-5_05.stp', '2017-12-12T08:08:19', ( '' ), ( '' ), ' ', ' ', ' ' );
FILE_SCHEMA( ( 'automotive_design' ) );
ENDSEC;
DATA;
#1 = MECHANICAL_DESIGN_GEOMETRIC_PRESENTATION_REPRESENTATION( ' ', ( #10, #11, #12, #13, #14, #15, #16, #17, #18, #19, #20, #21, #22, #23, #24, #25, #26, #27, #28, #29, #30, #31, #32, #33, #34, #35, #36 ), #6 );
#2 = PRODUCT_DEFINITION_CONTEXT( '', #37, 'design' );
#3 = APPLICATION_PROTOCOL_DEFINITION( 'INTERNATIONAL STANDARD', 'automotive_design', 1994, #37 );
#4 = PRODUCT_CATEGORY_RELATIONSHIP( 'NONE', 'NONE', #38, #39 );
#5 = SHAPE_DEFINITION_REPRESENTATION( #40, #41 );
#6 =  ( GEOMETRIC_REPRESENTATION_CONTEXT( 3 )GLOBAL_UNCERTAINTY_ASSIGNED_CONTEXT( ( #44 ) )GLOBAL_UNIT_ASSIGNED_CONTEXT( ( #46, #47, #48 ) )REPRESENTATION_CONTEXT( 'NONE', 'WORKSPACE' ) );
#10 = STYLED_ITEM( '', ( #50 ), #51 );
#11 = STYLED_ITEM( '', ( #52 ), #53 );
#12 = STYLED_ITEM( '', ( #54 ), #55 );
#13 = STYLED_ITEM( '', ( #56 ), #57 );
#14 = STYLED_ITEM( '', ( #58 ), #59 );
#15 = STYLED_ITEM( '', ( #60 ), #61 );
#16 = STYLED_ITEM( '', ( #62 ), #63 );
#17 = STYLED_ITEM( '', ( #64 ), #65 );
#18 = STYLED_ITEM( '', ( #66 ), #67 );
#19 = STYLED_ITEM( '', ( #68 ), #69 );
#20 = STYLED_ITEM( '', ( #70 ), #71 );
#21 = STYLED_ITEM( '', ( #72 ), #73 );
#22 = STYLED_ITEM( '', ( #74 ), #75 );
#23 = STYLED_ITEM( '', ( #76 ), #77 );
#24 = STYLED_ITEM( '', ( #78 ), #79 );
#25 = STYLED_ITEM( '', ( #80 ), #81 );
#26 = STYLED_ITEM( '', ( #82 ), #83 );
#27 = STYLED_ITEM( '', ( #84 ), #85 );
#28 = STYLED_ITEM( '', ( #86 ), #87 );
#29 = STYLED_ITEM( '', ( #88 ), #89 );
#30 = STYLED_ITEM( '', ( #90 ), #91 );
#31 = STYLED_ITEM( '', ( #92 ), #93 );
#32 = STYLED_ITEM( '', ( #94 ), #95 );
#33 = STYLED_ITEM( '', ( #96 ), #97 );
#34 = STYLED_ITEM( '', ( #98 ), #99 );
#35 = STYLED_ITEM( '', ( #100 ), #101 );
#36 = STYLED_ITEM( '', ( #102 ), #103 );
#37 = APPLICATION_CONTEXT( ' ' );
#38 = PRODUCT_CATEGORY( 'part', 'NONE' );
#39 = PRODUCT_RELATED_PRODUCT_CATEGORY( 'detail', ' ', ( #104 ) );
#40 = PRODUCT_DEFINITION_SHAPE( 'NONE', 'NONE', #105 );
#41 = ADVANCED_BREP_SHAPE_REPRESENTATION( '1', ( #53, #106 ), #6 );
#44 = UNCERTAINTY_MEASURE_WITH_UNIT( LENGTH_MEASURE( 1.00000000000000E-006 ), #46, '', '' );
#46 =  ( CONVERSION_BASED_UNIT( 'MILLIMETRE', #109 )LENGTH_UNIT(  )NAMED_UNIT( #112 ) );
#47 =  ( NAMED_UNIT( #114 )PLANE_ANGLE_UNIT(  )SI_UNIT( $, .RADIAN. ) );
#48 =  ( NAMED_UNIT( #114 )SOLID_ANGLE_UNIT(  )SI_UNIT( $, .STERADIAN. ) );
#50 = PRESENTATION_STYLE_ASSIGNMENT( ( #120 ) );
#51 = EDGE_CURVE( '', #87, #65, #121, .T. );
#52 = PRESENTATION_STYLE_ASSIGNMENT( ( #122 ) );
#53 = MANIFOLD_SOLID_BREP( '1', #123 );
#54 = PRESENTATION_STYLE_ASSIGNMENT( ( #124 ) );
#55 = EDGE_CURVE( '', #65, #87, #125, .T. );
#56 = PRESENTATION_STYLE_ASSIGNMENT( ( #126 ) );
#57 = ADVANCED_FACE( '', ( #127, #128 ), #129, .T. );
#58 = PRESENTATION_STYLE_ASSIGNMENT( ( #130 ) );
#59 = EDGE_CURVE( '', #65, #77, #131, .T. );
#60 = PRESENTATION_STYLE_ASSIGNMENT( ( #132 ) );
#61 = ADVANCED_FACE( '', ( #133 ), #134, .T. );
#62 = PRESENTATION_STYLE_ASSIGNMENT( ( #135 ) );
#63 = VERTEX_POINT( '', #136 );
#64 = PRESENTATION_STYLE_ASSIGNMENT( ( #137 ) );
#65 = VERTEX_POINT( '', #138 );
#66 = PRESENTATION_STYLE_ASSIGNMENT( ( #139 ) );
#67 = ADVANCED_FACE( '', ( #140, #141 ), #142, .F. );
#68 = PRESENTATION_STYLE_ASSIGNMENT( ( #143 ) );
#69 = EDGE_CURVE( '', #63, #87, #144, .T. );
#70 = PRESENTATION_STYLE_ASSIGNMENT( ( #145 ) );
#71 = EDGE_CURVE( '', #81, #97, #146, .T. );
#72 = PRESENTATION_STYLE_ASSIGNMENT( ( #147 ) );
#73 = EDGE_CURVE( '', #97, #81, #148, .T. );
#74 = PRESENTATION_STYLE_ASSIGNMENT( ( #149 ) );
#75 = EDGE_CURVE( '', #95, #101, #150, .T. );
#76 = PRESENTATION_STYLE_ASSIGNMENT( ( #151 ) );
#77 = VERTEX_POINT( '', #152 );
#78 = PRESENTATION_STYLE_ASSIGNMENT( ( #153 ) );
#79 = EDGE_CURVE( '', #97, #101, #154, .T. );
#80 = PRESENTATION_STYLE_ASSIGNMENT( ( #155 ) );
#81 = VERTEX_POINT( '', #156 );
#82 = PRESENTATION_STYLE_ASSIGNMENT( ( #157 ) );
#83 = ADVANCED_FACE( '', ( #158 ), #159, .F. );
#84 = PRESENTATION_STYLE_ASSIGNMENT( ( #160 ) );
#85 = ADVANCED_FACE( '', ( #161 ), #162, .T. );
#86 = PRESENTATION_STYLE_ASSIGNMENT( ( #163 ) );
#87 = VERTEX_POINT( '', #164 );
#88 = PRESENTATION_STYLE_ASSIGNMENT( ( #165 ) );
#89 = ADVANCED_FACE( '', ( #166 ), #167, .F. );
#90 = PRESENTATION_STYLE_ASSIGNMENT( ( #168 ) );
#91 = EDGE_CURVE( '', #63, #77, #169, .T. );
#92 = PRESENTATION_STYLE_ASSIGNMENT( ( #170 ) );
#93 = EDGE_CURVE( '', #101, #95, #171, .T. );
#94 = PRESENTATION_STYLE_ASSIGNMENT( ( #172 ) );
#95 = VERTEX_POINT( '', #173 );
#96 = PRESENTATION_STYLE_ASSIGNMENT( ( #174 ) );
#97 = VERTEX_POINT( '', #175 );
#98 = PRESENTATION_STYLE_ASSIGNMENT( ( #176 ) );
#99 = EDGE_CURVE( '', #95, #81, #177, .T. );
#100 = PRESENTATION_STYLE_ASSIGNMENT( ( #178 ) );
#101 = VERTEX_POINT( '', #179 );
#102 = PRESENTATION_STYLE_ASSIGNMENT( ( #180 ) );
#103 = EDGE_CURVE( '', #77, #63, #181, .T. );
#104 = PRODUCT( '1', '1', 'PART-1-DESC', ( #182 ) );
#105 = PRODUCT_DEFINITION( 'NONE', 'NONE', #183, #2 );
#106 = AXIS2_PLACEMENT_3D( '', #184, #185, #186 );
#109 = LENGTH_MEASURE_WITH_UNIT( LENGTH_MEASURE( 1.00000000000000 ), #187 );
#112 = DIMENSIONAL_EXPONENTS( 1.00000000000000, 0.000000000000000, 0.000000000000000, 0.000000000000000, 0.000000000000000, 0.000000000000000, 0.000000000000000 );
#114 = DIMENSIONAL_EXPONENTS( 0.000000000000000, 0.000000000000000, 0.000000000000000, 0.000000000000000, 0.000000000000000, 0.000000000000000, 0.000000000000000 );
#120 = CURVE_STYLE( '', #188, POSITIVE_LENGTH_MEASURE( 1.00000000000000E-006 ), #189 );
#121 = CIRCLE( '', #190, 250.000000000000 );
#122 = SURFACE_STYLE_USAGE( .BOTH., #191 );
#123 = CLOSED_SHELL( '', ( #61, #83, #89, #85, #57, #67 ) );
#124 = CURVE_STYLE( '', #192, POSITIVE_LENGTH_MEASURE( 1.00000000000000E-006 ), #193 );
#125 = CIRCLE( '', #194, 250.000000000000 );
#126 = SURFACE_STYLE_USAGE( .BOTH., #195 );
#127 = FACE_OUTER_BOUND( '', #196, .T. );
#128 = FACE_BOUND( '', #197, .T. );
#129 = PLANE( '', #198 );
#130 = CURVE_STYLE( '', #199, POSITIVE_LENGTH_MEASURE( 1.00000000000000E-006 ), #200 );
#131 = LINE( '', #201, #202 );
#132 = SURFACE_STYLE_USAGE( .BOTH., #203 );
#133 = FACE_OUTER_BOUND( '', #204, .T. );
#134 = CYLINDRICAL_SURFACE( '', #205, 250.000000000000 );
#135 = POINT_STYLE( ' ', #206, POSITIVE_LENGTH_MEASURE( 1.00000000000000E-006 ), #207 );
#136 = CARTESIAN_POINT( '', ( 0.000000000000000, 0.000000000000000, -250.000000000000 ) );
#137 = POINT_STYLE( ' ', #208, POSITIVE_LENGTH_MEASURE( 1.00000000000000E-006 ), #209 );
#138 = CARTESIAN_POINT( '', ( 5000.00000000000, 3.06151588455594E-014, 250.000000000000 ) );
#139 = SURFACE_STYLE_USAGE( .BOTH., #210 );
#140 = FACE_OUTER_BOUND( '', #211, .T. );
#141 = FACE_BOUND( '', #212, .T. );
#142 = PLANE( '', #213 );
#143 = CURVE_STYLE( '', #214, POSITIVE_LENGTH_MEASURE( 1.00000000000000E-006 ), #215 );
#144 = LINE( '', #216, #217 );
#145 = CURVE_STYLE( '', #218, POSITIVE_LENGTH_MEASURE( 1.00000000000000E-006 ), #219 );
#146 = CIRCLE( '', #220, 204.600000000000 );
#147 = CURVE_STYLE( '', #221, POSITIVE_LENGTH_MEASURE( 1.00000000000000E-006 ), #222 );
#148 = CIRCLE( '', #223, 204.600000000000 );
#149 = CURVE_STYLE( '', #224, POSITIVE_LENGTH_MEASURE( 1.00000000000000E-006 ), #225 );
#150 = CIRCLE( '', #226, 204.600000000000 );
#151 = POINT_STYLE( ' ', #227, POSITIVE_LENGTH_MEASURE( 1.00000000000000E-006 ), #228 );
#152 = CARTESIAN_POINT( '', ( 0.000000000000000, 3.06151588455594E-014, 250.000000000000 ) );
#153 = CURVE_STYLE( '', #229, POSITIVE_LENGTH_MEASURE( 1.00000000000000E-006 ), #230 );
#154 = LINE( '', #231, #232 );
#155 = POINT_STYLE( ' ', #233, POSITIVE_LENGTH_MEASURE( 1.00000000000000E-006 ), #234 );
#156 = CARTESIAN_POINT( '', ( 5000.00000000000, 0.000000000000000, -204.600000000000 ) );
#157 = SURFACE_STYLE_USAGE( .BOTH., #235 );
#158 = FACE_OUTER_BOUND( '', #236, .T. );
#159 = CYLINDRICAL_SURFACE( '', #237, 204.600000000000 );
#160 = SURFACE_STYLE_USAGE( .BOTH., #238 );
#161 = FACE_OUTER_BOUND( '', #239, .T. );
#162 = CYLINDRICAL_SURFACE( '', #240, 250.000000000000 );
#163 = POINT_STYLE( ' ', #241, POSITIVE_LENGTH_MEASURE( 1.00000000000000E-006 ), #242 );
#164 = CARTESIAN_POINT( '', ( 5000.00000000000, 0.000000000000000, -250.000000000000 ) );
#165 = SURFACE_STYLE_USAGE( .BOTH., #243 );
#166 = FACE_OUTER_BOUND( '', #244, .T. );
#167 = CYLINDRICAL_SURFACE( '', #245, 204.600000000000 );
#168 = CURVE_STYLE( '', #246, POSITIVE_LENGTH_MEASURE( 1.00000000000000E-006 ), #247 );
#169 = CIRCLE( '', #248, 250.000000000000 );
#170 = CURVE_STYLE( '', #249, POSITIVE_LENGTH_MEASURE( 1.00000000000000E-006 ), #250 );
#171 = CIRCLE( '', #251, 204.600000000000 );
#172 = POINT_STYLE( ' ', #252, POSITIVE_LENGTH_MEASURE( 1.00000000000000E-006 ), #253 );
#173 = CARTESIAN_POINT( '', ( 0.000000000000000, 0.000000000000000, -204.600000000000 ) );
#174 = POINT_STYLE( ' ', #254, POSITIVE_LENGTH_MEASURE( 1.00000000000000E-006 ), #255 );
#175 = CARTESIAN_POINT( '', ( 5000.00000000000, 2.50554459992058E-014, 204.600000000000 ) );
#176 = CURVE_STYLE( '', #256, POSITIVE_LENGTH_MEASURE( 1.00000000000000E-006 ), #257 );
#177 = LINE( '', #258, #259 );
#178 = POINT_STYLE( ' ', #260, POSITIVE_LENGTH_MEASURE( 1.00000000000000E-006 ), #261 );
#179 = CARTESIAN_POINT( '', ( 0.000000000000000, 2.50554459992058E-014, 204.600000000000 ) );
#180 = CURVE_STYLE( '', #262, POSITIVE_LENGTH_MEASURE( 1.00000000000000E-006 ), #263 );
#181 = CIRCLE( '', #264, 250.000000000000 );
#182 = PRODUCT_CONTEXT( '', #37, 'mechanical' );
#183 = PRODUCT_DEFINITION_FORMATION_WITH_SPECIFIED_SOURCE( ' ', 'NONE', #104, .NOT_KNOWN. );
#184 = CARTESIAN_POINT( '', ( 0.000000000000000, 0.000000000000000, 0.000000000000000 ) );
#185 = DIRECTION( '', ( 0.000000000000000, 0.000000000000000, 1.00000000000000 ) );
#186 = DIRECTION( '', ( 1.00000000000000, 0.000000000000000, 0.000000000000000 ) );
#187 =  ( NAMED_UNIT( #112 )LENGTH_UNIT(  )SI_UNIT( .MILLI., .METRE. ) );
#188 = DRAUGHTING_PRE_DEFINED_CURVE_FONT( 'continuous' );
#189 = COLOUR_RGB( '', 0.689999997615810, 0.689999997615810, 0.689999997615810 );
#190 = AXIS2_PLACEMENT_3D( '', #266, #267, #268 );
#191 = SURFACE_SIDE_STYLE( '', ( #269 ) );
#192 = DRAUGHTING_PRE_DEFINED_CURVE_FONT( 'continuous' );
#193 = COLOUR_RGB( '', 0.689999997615810, 0.689999997615810, 0.689999997615810 );
#194 = AXIS2_PLACEMENT_3D( '', #270, #271, #272 );
#195 = SURFACE_SIDE_STYLE( '', ( #273 ) );
#196 = EDGE_LOOP( '', ( #274, #275 ) );
#197 = EDGE_LOOP( '', ( #276, #277 ) );
#198 = AXIS2_PLACEMENT_3D( '', #278, #279, #280 );
#199 = DRAUGHTING_PRE_DEFINED_CURVE_FONT( 'continuous' );
#200 = COLOUR_RGB( '', 0.689999997615810, 0.689999997615810, 0.689999997615810 );
#201 = CARTESIAN_POINT( '', ( 0.000000000000000, 3.06151588455594E-014, 250.000000000000 ) );
#202 = VECTOR( '', #281, 1.00000000000000 );
#203 = SURFACE_SIDE_STYLE( '', ( #282 ) );
#204 = EDGE_LOOP( '', ( #283, #284, #285, #286 ) );
#205 = AXIS2_PLACEMENT_3D( '', #287, #288, #289 );
#206 = PRE_DEFINED_MARKER( '' );
#207 = COLOUR_RGB( '', 0.689999997615810, 0.689999997615810, 0.689999997615810 );
#208 = PRE_DEFINED_MARKER( '' );
#209 = COLOUR_RGB( '', 0.689999997615810, 0.689999997615810, 0.689999997615810 );
#210 = SURFACE_SIDE_STYLE( '', ( #290 ) );
#211 = EDGE_LOOP( '', ( #291, #292 ) );
#212 = EDGE_LOOP( '', ( #293, #294 ) );
#213 = AXIS2_PLACEMENT_3D( '', #295, #296, #297 );
#214 = DRAUGHTING_PRE_DEFINED_CURVE_FONT( 'continuous' );
#215 = COLOUR_RGB( '', 0.689999997615810, 0.689999997615810, 0.689999997615810 );
#216 = CARTESIAN_POINT( '', ( 0.000000000000000, -3.06151588455594E-014, -250.000000000000 ) );
#217 = VECTOR( '', #298, 1.00000000000000 );
#218 = DRAUGHTING_PRE_DEFINED_CURVE_FONT( 'continuous' );
#219 = COLOUR_RGB( '', 0.689999997615810, 0.689999997615810, 0.689999997615810 );
#220 = AXIS2_PLACEMENT_3D( '', #299, #300, #301 );
#221 = DRAUGHTING_PRE_DEFINED_CURVE_FONT( 'continuous' );
#222 = COLOUR_RGB( '', 0.689999997615810, 0.689999997615810, 0.689999997615810 );
#223 = AXIS2_PLACEMENT_3D( '', #302, #303, #304 );
#224 = DRAUGHTING_PRE_DEFINED_CURVE_FONT( 'continuous' );
#225 = COLOUR_RGB( '', 0.689999997615810, 0.689999997615810, 0.689999997615810 );
#226 = AXIS2_PLACEMENT_3D( '', #305, #306, #307 );
#227 = PRE_DEFINED_MARKER( '' );
#228 = COLOUR_RGB( '', 0.689999997615810, 0.689999997615810, 0.689999997615810 );
#229 = DRAUGHTING_PRE_DEFINED_CURVE_FONT( 'continuous' );
#230 = COLOUR_RGB( '', 0.689999997615810, 0.689999997615810, 0.689999997615810 );
#231 = CARTESIAN_POINT( '', ( 0.000000000000000, 2.50554459992058E-014, 204.600000000000 ) );
#232 = VECTOR( '', #308, 1.00000000000000 );
#233 = PRE_DEFINED_MARKER( '' );
#234 = COLOUR_RGB( '', 0.689999997615810, 0.689999997615810, 0.689999997615810 );
#235 = SURFACE_SIDE_STYLE( '', ( #309 ) );
#236 = EDGE_LOOP( '', ( #310, #311, #312, #313 ) );
#237 = AXIS2_PLACEMENT_3D( '', #314, #315, #316 );
#238 = SURFACE_SIDE_STYLE( '', ( #317 ) );
#239 = EDGE_LOOP( '', ( #318, #319, #320, #321 ) );
#240 = AXIS2_PLACEMENT_3D( '', #322, #323, #324 );
#241 = PRE_DEFINED_MARKER( '' );
#242 = COLOUR_RGB( '', 0.689999997615810, 0.689999997615810, 0.689999997615810 );
#243 = SURFACE_SIDE_STYLE( '', ( #325 ) );
#244 = EDGE_LOOP( '', ( #326, #327, #328, #329 ) );
#245 = AXIS2_PLACEMENT_3D( '', #330, #331, #332 );
#246 = DRAUGHTING_PRE_DEFINED_CURVE_FONT( 'continuous' );
#247 = COLOUR_RGB( '', 0.689999997615810, 0.689999997615810, 0.689999997615810 );
#248 = AXIS2_PLACEMENT_3D( '', #333, #334, #335 );
#249 = DRAUGHTING_PRE_DEFINED_CURVE_FONT( 'continuous' );
#250 = COLOUR_RGB( '', 0.689999997615810, 0.689999997615810, 0.689999997615810 );
#251 = AXIS2_PLACEMENT_3D( '', #336, #337, #338 );
#252 = PRE_DEFINED_MARKER( '' );
#253 = COLOUR_RGB( '', 0.689999997615810, 0.689999997615810, 0.689999997615810 );
#254 = PRE_DEFINED_MARKER( '' );
#255 = COLOUR_RGB( '', 0.689999997615810, 0.689999997615810, 0.689999997615810 );
#256 = DRAUGHTING_PRE_DEFINED_CURVE_FONT( 'continuous' );
#257 = COLOUR_RGB( '', 0.689999997615810, 0.689999997615810, 0.689999997615810 );
#258 = CARTESIAN_POINT( '', ( 0.000000000000000, -2.50554459992058E-014, -204.600000000000 ) );
#259 = VECTOR( '', #339, 1.00000000000000 );
#260 = PRE_DEFINED_MARKER( '' );
#261 = COLOUR_RGB( '', 0.689999997615810, 0.689999997615810, 0.689999997615810 );
#262 = DRAUGHTING_PRE_DEFINED_CURVE_FONT( 'continuous' );
#263 = COLOUR_RGB( '', 0.689999997615810, 0.689999997615810, 0.689999997615810 );
#264 = AXIS2_PLACEMENT_3D( '', #340, #341, #342 );
#266 = CARTESIAN_POINT( '', ( 5000.00000000000, 0.000000000000000, 0.000000000000000 ) );
#267 = DIRECTION( '', ( -1.00000000000000, 0.000000000000000, 0.000000000000000 ) );
#268 = DIRECTION( '', ( 0.000000000000000, 0.000000000000000, -1.00000000000000 ) );
#269 = SURFACE_STYLE_FILL_AREA( #343 );
#270 = CARTESIAN_POINT( '', ( 5000.00000000000, 0.000000000000000, 0.000000000000000 ) );
#271 = DIRECTION( '', ( -1.00000000000000, 0.000000000000000, 0.000000000000000 ) );
#272 = DIRECTION( '', ( 0.000000000000000, 0.000000000000000, -1.00000000000000 ) );
#273 = SURFACE_STYLE_FILL_AREA( #344 );
#274 = ORIENTED_EDGE( '', *, *, #51, .F. );
#275 = ORIENTED_EDGE( '', *, *, #55, .F. );
#276 = ORIENTED_EDGE( '', *, *, #71, .F. );
#277 = ORIENTED_EDGE( '', *, *, #73, .F. );
#278 = CARTESIAN_POINT( '', ( 5000.00000000000, 0.000000000000000, 0.000000000000000 ) );
#279 = DIRECTION( '', ( 1.00000000000000, 0.000000000000000, 0.000000000000000 ) );
#280 = DIRECTION( '', ( 0.000000000000000, 0.000000000000000, -1.00000000000000 ) );
#281 = DIRECTION( '', ( -1.00000000000000, -0.000000000000000, -0.000000000000000 ) );
#282 = SURFACE_STYLE_FILL_AREA( #345 );
#283 = ORIENTED_EDGE( '', *, *, #69, .F. );
#284 = ORIENTED_EDGE( '', *, *, #91, .T. );
#285 = ORIENTED_EDGE( '', *, *, #59, .F. );
#286 = ORIENTED_EDGE( '', *, *, #55, .T. );
#287 = CARTESIAN_POINT( '', ( 0.000000000000000, 0.000000000000000, 0.000000000000000 ) );
#288 = DIRECTION( '', ( -1.00000000000000, -0.000000000000000, -0.000000000000000 ) );
#289 = DIRECTION( '', ( 0.000000000000000, 0.000000000000000, -1.00000000000000 ) );
#290 = SURFACE_STYLE_FILL_AREA( #346 );
#291 = ORIENTED_EDGE( '', *, *, #91, .F. );
#292 = ORIENTED_EDGE( '', *, *, #103, .F. );
#293 = ORIENTED_EDGE( '', *, *, #75, .T. );
#294 = ORIENTED_EDGE( '', *, *, #93, .T. );
#295 = CARTESIAN_POINT( '', ( 0.000000000000000, 0.000000000000000, 0.000000000000000 ) );
#296 = DIRECTION( '', ( 1.00000000000000, 0.000000000000000, 0.000000000000000 ) );
#297 = DIRECTION( '', ( 0.000000000000000, 0.000000000000000, -1.00000000000000 ) );
#298 = DIRECTION( '', ( 1.00000000000000, 0.000000000000000, 0.000000000000000 ) );
#299 = CARTESIAN_POINT( '', ( 5000.00000000000, 0.000000000000000, 0.000000000000000 ) );
#300 = DIRECTION( '', ( 1.00000000000000, 0.000000000000000, 0.000000000000000 ) );
#301 = DIRECTION( '', ( 0.000000000000000, 0.000000000000000, -1.00000000000000 ) );
#302 = CARTESIAN_POINT( '', ( 5000.00000000000, 0.000000000000000, 0.000000000000000 ) );
#303 = DIRECTION( '', ( 1.00000000000000, 0.000000000000000, 0.000000000000000 ) );
#304 = DIRECTION( '', ( 0.000000000000000, 0.000000000000000, -1.00000000000000 ) );
#305 = CARTESIAN_POINT( '', ( 0.000000000000000, 0.000000000000000, 0.000000000000000 ) );
#306 = DIRECTION( '', ( 1.00000000000000, -0.000000000000000, 0.000000000000000 ) );
#307 = DIRECTION( '', ( 0.000000000000000, 0.000000000000000, -1.00000000000000 ) );
#308 = DIRECTION( '', ( -1.00000000000000, 0.000000000000000, 0.000000000000000 ) );
#309 = SURFACE_STYLE_FILL_AREA( #347 );
#310 = ORIENTED_EDGE( '', *, *, #99, .F. );
#311 = ORIENTED_EDGE( '', *, *, #93, .F. );
#312 = ORIENTED_EDGE( '', *, *, #79, .F. );
#313 = ORIENTED_EDGE( '', *, *, #73, .T. );
#314 = CARTESIAN_POINT( '', ( 0.000000000000000, 0.000000000000000, 0.000000000000000 ) );
#315 = DIRECTION( '', ( -1.00000000000000, -0.000000000000000, -0.000000000000000 ) );
#316 = DIRECTION( '', ( 0.000000000000000, 0.000000000000000, -1.00000000000000 ) );
#317 = SURFACE_STYLE_FILL_AREA( #348 );
#318 = ORIENTED_EDGE( '', *, *, #69, .T. );
#319 = ORIENTED_EDGE( '', *, *, #51, .T. );
#320 = ORIENTED_EDGE( '', *, *, #59, .T. );
#321 = ORIENTED_EDGE( '', *, *, #103, .T. );
#322 = CARTESIAN_POINT( '', ( 0.000000000000000, 0.000000000000000, 0.000000000000000 ) );
#323 = DIRECTION( '', ( -1.00000000000000, -0.000000000000000, -0.000000000000000 ) );
#324 = DIRECTION( '', ( 0.000000000000000, 0.000000000000000, -1.00000000000000 ) );
#325 = SURFACE_STYLE_FILL_AREA( #349 );
#326 = ORIENTED_EDGE( '', *, *, #99, .T. );
#327 = ORIENTED_EDGE( '', *, *, #71, .T. );
#328 = ORIENTED_EDGE( '', *, *, #79, .T. );
#329 = ORIENTED_EDGE( '', *, *, #75, .F. );
#330 = CARTESIAN_POINT( '', ( 0.000000000000000, 0.000000000000000, 0.000000000000000 ) );
#331 = DIRECTION( '', ( -1.00000000000000, -0.000000000000000, -0.000000000000000 ) );
#332 = DIRECTION( '', ( 0.000000000000000, 0.000000000000000, -1.00000000000000 ) );
#333 = CARTESIAN_POINT( '', ( 0.000000000000000, 0.000000000000000, 0.000000000000000 ) );
#334 = DIRECTION( '', ( 1.00000000000000, -0.000000000000000, 0.000000000000000 ) );
#335 = DIRECTION( '', ( 0.000000000000000, 0.000000000000000, -1.00000000000000 ) );
#336 = CARTESIAN_POINT( '', ( 0.000000000000000, 0.000000000000000, 0.000000000000000 ) );
#337 = DIRECTION( '', ( 1.00000000000000, -0.000000000000000, 0.000000000000000 ) );
#338 = DIRECTION( '', ( 0.000000000000000, 0.000000000000000, -1.00000000000000 ) );
#339 = DIRECTION( '', ( 1.00000000000000, 0.000000000000000, 0.000000000000000 ) );
#340 = CARTESIAN_POINT( '', ( 0.000000000000000, 0.000000000000000, 0.000000000000000 ) );
#341 = DIRECTION( '', ( 1.00000000000000, -0.000000000000000, 0.000000000000000 ) );
#342 = DIRECTION( '', ( 0.000000000000000, 0.000000000000000, -1.00000000000000 ) );
#343 = FILL_AREA_STYLE( '', ( #350 ) );
#344 = FILL_AREA_STYLE( '', ( #351 ) );
#345 = FILL_AREA_STYLE( '', ( #352 ) );
#346 = FILL_AREA_STYLE( '', ( #353 ) );
#347 = FILL_AREA_STYLE( '', ( #354 ) );
#348 = FILL_AREA_STYLE( '', ( #355 ) );
#349 = FILL_AREA_STYLE( '', ( #356 ) );
#350 = FILL_AREA_STYLE_COLOUR( '', #357 );
#351 = FILL_AREA_STYLE_COLOUR( '', #358 );
#352 = FILL_AREA_STYLE_COLOUR( '', #359 );
#353 = FILL_AREA_STYLE_COLOUR( '', #360 );
#354 = FILL_AREA_STYLE_COLOUR( '', #361 );
#355 = FILL_AREA_STYLE_COLOUR( '', #362 );
#356 = FILL_AREA_STYLE_COLOUR( '', #363 );
#357 = COLOUR_RGB( '', 0.689999997615810, 0.689999997615810, 0.689999997615810 );
#358 = COLOUR_RGB( '', 0.689999997615810, 0.689999997615810, 0.689999997615810 );
#359 = COLOUR_RGB( '', 0.689999997615810, 0.689999997615810, 0.689999997615810 );
#360 = COLOUR_RGB( '', 0.689999997615810, 0.689999997615810, 0.689999997615810 );
#361 = COLOUR_RGB( '', 0.689999997615810, 0.689999997615810, 0.689999997615810 );
#362 = COLOUR_RGB( '', 0.689999997615810, 0.689999997615810, 0.689999997615810 );
#363 = COLOUR_RGB( '', 0.689999997615810, 0.689999997615810, 0.689999997615810 );
ENDSEC;
END-ISO-10303-21;
