ISO-10303-21;
HEADER;
/* Generated by software containing ST-Developer
 * from STEP Tools, Inc. (www.steptools.com) 
 */
/* OPTION: using custom renumber hook */

FILE_DESCRIPTION(
/* description */ ('STEP AP203'),
/* implementation_level */ '2;1');

FILE_NAME(
/* name */ '30065906321(architecture400)',
/* time_stamp */ '2022-06-20T12:53:39+02:00',
/* author */ ('License CC BY-ND 4.0'),
/* organization */ ('CADENAS'),
/* preprocessor_version */ 'ST-DEVELOPER v18.102',
/* originating_system */ 'PARTsolutions',
/* authorisation */ '  ');

FILE_SCHEMA (('CONFIG_CONTROL_DESIGN'));
ENDSEC;

DATA;
#10=PROPERTY_DEFINITION_REPRESENTATION(#14,#12);
#11=PROPERTY_DEFINITION_REPRESENTATION(#15,#13);
#12=REPRESENTATION('',(#16),#411);
#13=REPRESENTATION('',(#17),#411);
#14=PROPERTY_DEFINITION('pmi validation property','',#416);
#15=PROPERTY_DEFINITION('pmi validation property','',#416);
#16=VALUE_REPRESENTATION_ITEM('number of annotations',COUNT_MEASURE(0.));
#17=VALUE_REPRESENTATION_ITEM('number of views',COUNT_MEASURE(0.));
#18=SHAPE_REPRESENTATION_RELATIONSHIP('','',#183,#19);
#19=ADVANCED_BREP_SHAPE_REPRESENTATION('',(#181),#411);
#20=CONICAL_SURFACE('',#195,45.,0.785398163397445);
#21=CONICAL_SURFACE('',#196,47.15,0.78539816339744);
#22=CONICAL_SURFACE('',#208,31.5,0.78539816339743);
#23=PLANE('',#191);
#24=PLANE('',#200);
#25=PLANE('',#203);
#26=B_SPLINE_CURVE_WITH_KNOTS('',3,(#268,#269,#270,#271,#272,#273,#274,
#275,#276,#277,#278,#279,#280,#281,#282,#283,#284,#285,#286,#287,#288,#289,
#290,#291,#292,#293,#294,#295,#296,#297,#298,#299,#300,#301,#302,#303,#304,
#305,#306,#307,#308,#309,#310,#311,#312,#313,#314,#315,#316,#317,#318,#319,
#320,#321),.UNSPECIFIED.,.T.,.F.,(1,1,1,1,1,1,1,1,1,1,1,1,1,1,1,1,1,1,1,
1,1,1,1,1,1,1,1,1,1,1,1,1,1,1,1,1,1,1,1,1,1,1,1,1,1,1,1,1,1,1,1,1,1,1,1,
1,1,1),(-0.00867330924483736,-0.00578220616322492,-0.00289110308161247,
0.,0.00289110308161246,0.00578220616322491,0.0115644123264498,0.0144555154080623,
0.0173466184896747,0.0231288246528996,0.0289110308161246,0.0346932369793495,
0.0375843400609619,0.0404754431425744,0.0433665462241868,0.0462576493057993,
0.0491487523874117,0.0520398554690242,0.0578220616322491,0.0607131647138616,
0.063604267795474,0.0664953708770865,0.0693864739586989,0.0722775770403114,
0.0751686801219238,0.0780597832035363,0.0809508862851488,0.0867330924483737,
0.0896241955299861,0.0925152986115986,0.095406401693211,0.0982975047748235,
0.104079710938048,0.106970814019661,0.109861917101273,0.115644123264498,
0.121426329427723,0.124317432509336,0.127208535590948,0.130099638672561,
0.132990741754173,0.138772947917398,0.14166405099901,0.144555154080623,
0.147446257162235,0.150337360243848,0.15322846332546,0.156119566407073,
0.161901772570298,0.167683978733522,0.173466184896747,0.17635728797836,
0.179248391059972,0.182139494141585,0.185030597223197,0.18792170030481,
0.190812803386422,0.196595009549647),.UNSPECIFIED.);
#27=B_SPLINE_CURVE_WITH_KNOTS('',3,(#326,#327,#328,#329,#330,#331,#332,
#333,#334,#335,#336,#337,#338,#339,#340,#341,#342,#343,#344,#345,#346,#347,
#348,#349,#350,#351,#352,#353,#354,#355,#356,#357,#358,#359,#360,#361,#362,
#363,#364,#365,#366,#367,#368,#369,#370,#371,#372,#373,#374,#375,#376,#377,
#378,#379),.UNSPECIFIED.,.T.,.F.,(1,1,1,1,1,1,1,1,1,1,1,1,1,1,1,1,1,1,1,
1,1,1,1,1,1,1,1,1,1,1,1,1,1,1,1,1,1,1,1,1,1,1,1,1,1,1,1,1,1,1,1,1,1,1,1,
1,1,1),(-0.010042215863507,-0.00669481057567137,-0.0033474052878357,0.,
0.00334740528783568,0.00669481057567135,0.0133896211513427,0.0167370264391784,
0.0200844317270141,0.0267792423026854,0.0334740528783568,0.0401688634540281,
0.0435162687418638,0.0468636740296995,0.0502110793175351,0.0535584846053708,
0.0569058898932065,0.0602532951810422,0.0669481057567135,0.0702955110445492,
0.0736429163323849,0.0769903216202205,0.0803377269080562,0.0836851321958919,
0.0870325374837276,0.0903799427715632,0.0937273480593989,0.10042215863507,
0.103769563922906,0.107116969210742,0.110464374498577,0.113811779786413,
0.120506590362084,0.12385399564992,0.127201400937756,0.133896211513427,
0.140591022089098,0.143938427376934,0.14728583266477,0.150633237952605,
0.153980643240441,0.160675453816112,0.164022859103948,0.167370264391784,
0.170717669679619,0.174065074967455,0.177412480255291,0.180759885543126,
0.187454696118798,0.194149506694469,0.200844317270141,0.204191722557976,
0.207539127845812,0.210886533133648,0.214233938421483,0.217581343709319,
0.220928748997155,0.227623559572826),.UNSPECIFIED.);
#28=ORIENTED_EDGE('',*,*,#56,.T.);
#29=ORIENTED_EDGE('',*,*,#57,.T.);
#30=ORIENTED_EDGE('',*,*,#58,.T.);
#31=ORIENTED_EDGE('',*,*,#59,.F.);
#32=ORIENTED_EDGE('',*,*,#60,.F.);
#33=ORIENTED_EDGE('',*,*,#61,.T.);
#34=ORIENTED_EDGE('',*,*,#62,.F.);
#35=ORIENTED_EDGE('',*,*,#56,.F.);
#36=ORIENTED_EDGE('',*,*,#63,.F.);
#37=ORIENTED_EDGE('',*,*,#62,.T.);
#38=ORIENTED_EDGE('',*,*,#61,.F.);
#39=ORIENTED_EDGE('',*,*,#63,.T.);
#40=ORIENTED_EDGE('',*,*,#64,.F.);
#41=ORIENTED_EDGE('',*,*,#59,.T.);
#42=ORIENTED_EDGE('',*,*,#65,.F.);
#43=ORIENTED_EDGE('',*,*,#64,.T.);
#44=ORIENTED_EDGE('',*,*,#57,.F.);
#45=ORIENTED_EDGE('',*,*,#65,.T.);
#46=ORIENTED_EDGE('',*,*,#60,.T.);
#47=ORIENTED_EDGE('',*,*,#66,.T.);
#48=ORIENTED_EDGE('',*,*,#67,.F.);
#49=ORIENTED_EDGE('',*,*,#68,.F.);
#50=ORIENTED_EDGE('',*,*,#69,.F.);
#51=ORIENTED_EDGE('',*,*,#67,.T.);
#52=ORIENTED_EDGE('',*,*,#66,.F.);
#53=ORIENTED_EDGE('',*,*,#69,.T.);
#54=ORIENTED_EDGE('',*,*,#58,.F.);
#55=ORIENTED_EDGE('',*,*,#68,.T.);
#56=EDGE_CURVE('',#70,#70,#84,.F.);
#57=EDGE_CURVE('',#71,#71,#85,.F.);
#58=EDGE_CURVE('',#72,#72,#26,.T.);
#59=EDGE_CURVE('',#73,#73,#86,.T.);
#60=EDGE_CURVE('',#74,#74,#27,.T.);
#61=EDGE_CURVE('',#75,#75,#87,.T.);
#62=EDGE_CURVE('',#76,#76,#88,.T.);
#63=EDGE_CURVE('',#77,#77,#89,.T.);
#64=EDGE_CURVE('',#78,#78,#90,.T.);
#65=EDGE_CURVE('',#79,#79,#91,.T.);
#66=EDGE_CURVE('',#80,#80,#92,.T.);
#67=EDGE_CURVE('',#81,#81,#93,.T.);
#68=EDGE_CURVE('',#82,#82,#94,.F.);
#69=EDGE_CURVE('',#83,#83,#95,.T.);
#70=VERTEX_POINT('',#265);
#71=VERTEX_POINT('',#267);
#72=VERTEX_POINT('',#322);
#73=VERTEX_POINT('',#325);
#74=VERTEX_POINT('',#380);
#75=VERTEX_POINT('',#382);
#76=VERTEX_POINT('',#385);
#77=VERTEX_POINT('',#388);
#78=VERTEX_POINT('',#392);
#79=VERTEX_POINT('',#395);
#80=VERTEX_POINT('',#399);
#81=VERTEX_POINT('',#402);
#82=VERTEX_POINT('',#404);
#83=VERTEX_POINT('',#407);
#84=CIRCLE('',#186,40.7);
#85=CIRCLE('',#187,40.7);
#86=CIRCLE('',#189,47.15);
#87=CIRCLE('',#190,47.15);
#88=CIRCLE('',#192,45.);
#89=CIRCLE('',#194,45.);
#90=CIRCLE('',#197,45.);
#91=CIRCLE('',#199,45.);
#92=CIRCLE('',#202,33.);
#93=CIRCLE('',#204,31.5);
#94=CIRCLE('',#205,28.5);
#95=CIRCLE('',#207,31.5);
#96=EDGE_LOOP('',(#28));
#97=EDGE_LOOP('',(#29));
#98=EDGE_LOOP('',(#30));
#99=EDGE_LOOP('',(#31));
#100=EDGE_LOOP('',(#32));
#101=EDGE_LOOP('',(#33));
#102=EDGE_LOOP('',(#34));
#103=EDGE_LOOP('',(#35));
#104=EDGE_LOOP('',(#36));
#105=EDGE_LOOP('',(#37));
#106=EDGE_LOOP('',(#38));
#107=EDGE_LOOP('',(#39));
#108=EDGE_LOOP('',(#40));
#109=EDGE_LOOP('',(#41));
#110=EDGE_LOOP('',(#42));
#111=EDGE_LOOP('',(#43));
#112=EDGE_LOOP('',(#44));
#113=EDGE_LOOP('',(#45));
#114=EDGE_LOOP('',(#46));
#115=EDGE_LOOP('',(#47));
#116=EDGE_LOOP('',(#48));
#117=EDGE_LOOP('',(#49));
#118=EDGE_LOOP('',(#50));
#119=EDGE_LOOP('',(#51));
#120=EDGE_LOOP('',(#52));
#121=EDGE_LOOP('',(#53));
#122=EDGE_LOOP('',(#54));
#123=EDGE_LOOP('',(#55));
#124=FACE_BOUND('',#96,.T.);
#125=FACE_BOUND('',#97,.T.);
#126=FACE_BOUND('',#98,.T.);
#127=FACE_BOUND('',#99,.T.);
#128=FACE_BOUND('',#100,.T.);
#129=FACE_BOUND('',#101,.T.);
#130=FACE_BOUND('',#102,.T.);
#131=FACE_BOUND('',#103,.T.);
#132=FACE_BOUND('',#104,.T.);
#133=FACE_BOUND('',#105,.T.);
#134=FACE_BOUND('',#106,.T.);
#135=FACE_BOUND('',#107,.T.);
#136=FACE_BOUND('',#108,.T.);
#137=FACE_BOUND('',#109,.T.);
#138=FACE_BOUND('',#110,.T.);
#139=FACE_BOUND('',#111,.T.);
#140=FACE_BOUND('',#112,.T.);
#141=FACE_BOUND('',#113,.T.);
#142=FACE_BOUND('',#114,.T.);
#143=FACE_BOUND('',#115,.T.);
#144=FACE_BOUND('',#116,.T.);
#145=FACE_BOUND('',#117,.T.);
#146=FACE_BOUND('',#118,.T.);
#147=FACE_BOUND('',#119,.T.);
#148=FACE_BOUND('',#120,.T.);
#149=FACE_BOUND('',#121,.T.);
#150=FACE_BOUND('',#122,.T.);
#151=FACE_BOUND('',#123,.T.);
#152=CYLINDRICAL_SURFACE('',#185,40.7);
#153=CYLINDRICAL_SURFACE('',#188,47.15);
#154=CYLINDRICAL_SURFACE('',#193,45.);
#155=CYLINDRICAL_SURFACE('',#198,45.);
#156=CYLINDRICAL_SURFACE('',#201,33.);
#157=CYLINDRICAL_SURFACE('',#206,31.5);
#158=CYLINDRICAL_SURFACE('',#209,28.5);
#159=ADVANCED_FACE('',(#124,#125,#126),#152,.F.);
#160=ADVANCED_FACE('',(#127,#128,#129),#153,.T.);
#161=ADVANCED_FACE('',(#130,#131),#23,.F.);
#162=ADVANCED_FACE('',(#132,#133),#154,.T.);
#163=ADVANCED_FACE('',(#134,#135),#20,.T.);
#164=ADVANCED_FACE('',(#136,#137),#21,.T.);
#165=ADVANCED_FACE('',(#138,#139),#155,.T.);
#166=ADVANCED_FACE('',(#140,#141),#24,.F.);
#167=ADVANCED_FACE('',(#142,#143),#156,.T.);
#168=ADVANCED_FACE('',(#144,#145),#25,.F.);
#169=ADVANCED_FACE('',(#146,#147),#157,.T.);
#170=ADVANCED_FACE('',(#148,#149),#22,.T.);
#171=ADVANCED_FACE('',(#150,#151),#158,.F.);
#172=CLOSED_SHELL('',(#159,#160,#161,#162,#163,#164,#165,#166,#167,#168,
#169,#170,#171));
#173=STYLED_ITEM('',(#174),#181);
#174=PRESENTATION_STYLE_ASSIGNMENT((#175));
#175=SURFACE_STYLE_USAGE(.BOTH.,#176);
#176=SURFACE_SIDE_STYLE('',(#177));
#177=SURFACE_STYLE_FILL_AREA(#178);
#178=FILL_AREA_STYLE('',(#179));
#179=FILL_AREA_STYLE_COLOUR('',#180);
#180=COLOUR_RGB('',0.689999997615814,0.689999997615814,0.689999997615814);
#181=MANIFOLD_SOLID_BREP('30065906321(architecture400)',#172);
#182=SHAPE_DEFINITION_REPRESENTATION(#416,#183);
#183=SHAPE_REPRESENTATION('30065906321(architecture400)',(#184),#411);
#184=AXIS2_PLACEMENT_3D('',#262,#210,#211);
#185=AXIS2_PLACEMENT_3D('',#263,#212,#213);
#186=AXIS2_PLACEMENT_3D('',#264,#214,#215);
#187=AXIS2_PLACEMENT_3D('',#266,#216,#217);
#188=AXIS2_PLACEMENT_3D('',#323,#218,#219);
#189=AXIS2_PLACEMENT_3D('',#324,#220,#221);
#190=AXIS2_PLACEMENT_3D('',#381,#222,#223);
#191=AXIS2_PLACEMENT_3D('',#383,#224,#225);
#192=AXIS2_PLACEMENT_3D('',#384,#226,#227);
#193=AXIS2_PLACEMENT_3D('',#386,#228,#229);
#194=AXIS2_PLACEMENT_3D('',#387,#230,#231);
#195=AXIS2_PLACEMENT_3D('',#389,#232,#233);
#196=AXIS2_PLACEMENT_3D('',#390,#234,#235);
#197=AXIS2_PLACEMENT_3D('',#391,#236,#237);
#198=AXIS2_PLACEMENT_3D('',#393,#238,#239);
#199=AXIS2_PLACEMENT_3D('',#394,#240,#241);
#200=AXIS2_PLACEMENT_3D('',#396,#242,#243);
#201=AXIS2_PLACEMENT_3D('',#397,#244,#245);
#202=AXIS2_PLACEMENT_3D('',#398,#246,#247);
#203=AXIS2_PLACEMENT_3D('',#400,#248,#249);
#204=AXIS2_PLACEMENT_3D('',#401,#250,#251);
#205=AXIS2_PLACEMENT_3D('',#403,#252,#253);
#206=AXIS2_PLACEMENT_3D('',#405,#254,#255);
#207=AXIS2_PLACEMENT_3D('',#406,#256,#257);
#208=AXIS2_PLACEMENT_3D('',#408,#258,#259);
#209=AXIS2_PLACEMENT_3D('',#409,#260,#261);
#210=DIRECTION('',(0.,0.,1.));
#211=DIRECTION('',(1.,0.,0.));
#212=DIRECTION('',(-1.,0.,0.));
#213=DIRECTION('',(0.,0.,1.));
#214=DIRECTION('',(1.,0.,0.));
#215=DIRECTION('',(0.,0.,-1.));
#216=DIRECTION('',(-1.,0.,0.));
#217=DIRECTION('',(0.,0.,1.));
#218=DIRECTION('',(1.,0.,0.));
#219=DIRECTION('',(0.,0.,-1.));
#220=DIRECTION('',(1.,0.,0.));
#221=DIRECTION('',(0.,0.,-1.));
#222=DIRECTION('',(1.,0.,0.));
#223=DIRECTION('',(0.,0.,-1.));
#224=DIRECTION('',(1.,0.,0.));
#225=DIRECTION('',(0.,0.,-1.));
#226=DIRECTION('',(1.,0.,0.));
#227=DIRECTION('',(0.,0.,-1.));
#228=DIRECTION('',(1.,0.,0.));
#229=DIRECTION('',(0.,0.,-1.));
#230=DIRECTION('',(1.,0.,0.));
#231=DIRECTION('',(0.,0.,-1.));
#232=DIRECTION('',(1.,0.,0.));
#233=DIRECTION('',(0.,0.,-1.));
#234=DIRECTION('',(-1.,0.,0.));
#235=DIRECTION('',(0.,0.,1.));
#236=DIRECTION('',(1.,0.,0.));
#237=DIRECTION('',(0.,0.,-1.));
#238=DIRECTION('',(1.,0.,0.));
#239=DIRECTION('',(0.,0.,-1.));
#240=DIRECTION('',(1.,0.,0.));
#241=DIRECTION('',(0.,0.,-1.));
#242=DIRECTION('',(-1.,0.,0.));
#243=DIRECTION('',(0.,0.,1.));
#244=DIRECTION('',(0.,0.,-1.));
#245=DIRECTION('',(-1.,0.,0.));
#246=DIRECTION('',(0.,0.,-1.));
#247=DIRECTION('',(-1.,0.,0.));
#248=DIRECTION('',(0.,0.,-1.));
#249=DIRECTION('',(-1.,0.,0.));
#250=DIRECTION('',(0.,0.,-1.));
#251=DIRECTION('',(-1.,0.,0.));
#252=DIRECTION('',(0.,0.,-1.));
#253=DIRECTION('',(-1.,0.,0.));
#254=DIRECTION('',(0.,0.,-1.));
#255=DIRECTION('',(-1.,0.,0.));
#256=DIRECTION('',(0.,0.,-1.));
#257=DIRECTION('',(-1.,0.,0.));
#258=DIRECTION('',(0.,0.,-1.));
#259=DIRECTION('',(-1.,0.,0.));
#260=DIRECTION('',(0.,0.,-1.));
#261=DIRECTION('',(-1.,0.,0.));
#262=CARTESIAN_POINT('',(0.,0.,0.));
#263=CARTESIAN_POINT('',(1.,0.,0.));
#264=CARTESIAN_POINT('',(-230.,0.,0.));
#265=CARTESIAN_POINT('',(-230.,0.,-40.7));
#266=CARTESIAN_POINT('',(0.,0.,0.));
#267=CARTESIAN_POINT('',(0.,0.,40.7));
#268=CARTESIAN_POINT('',(-86.6013230756104,-2.92704733308098,40.6289521779244));
#269=CARTESIAN_POINT('',(-86.4493999802974,0.00206371177835691,40.7354817354407));
#270=CARTESIAN_POINT('',(-86.6010770032002,2.91879248596752,40.6291208803128));
#271=CARTESIAN_POINT('',(-87.1825927791591,6.70111968372165,40.2236276672128));
#272=CARTESIAN_POINT('',(-88.3434131149035,10.3831623865284,39.4243041332441));
#273=CARTESIAN_POINT('',(-89.9645076095611,13.7127605055721,38.3493124069375));
#274=CARTESIAN_POINT('',(-91.9033026931518,16.8733903319985,37.1031352055219));
#275=CARTESIAN_POINT('',(-94.7913718701187,20.3373716166688,35.3457733319361));
#276=CARTESIAN_POINT('',(-98.9939012765779,23.7841951330215,33.0973988690665));
#277=CARTESIAN_POINT('',(-102.93046203009,25.9333740043103,31.3916102456195));
#278=CARTESIAN_POINT('',(-106.446248031081,27.2353841704086,30.2516346481889));
#279=CARTESIAN_POINT('',(-109.189457456435,27.9495386879868,29.5891653268074));
#280=CARTESIAN_POINT('',(-112.030889875926,28.3952296075977,29.1591011356772));
#281=CARTESIAN_POINT('',(-114.973450748481,28.5496145354237,29.0068735484703));
#282=CARTESIAN_POINT('',(-117.851498080109,28.406165787221,29.1483985485812));
#283=CARTESIAN_POINT('',(-121.685899703296,27.8218064611407,29.7127711133891));
#284=CARTESIAN_POINT('',(-125.273553191097,26.6963761799543,30.7481013847586));
#285=CARTESIAN_POINT('',(-128.598798732091,25.0961544347068,32.0560135502391));
#286=CARTESIAN_POINT('',(-130.906575864079,23.6984474649827,33.1058566462112));
#287=CARTESIAN_POINT('',(-133.060001305051,22.1021296117637,34.1959004277527));
#288=CARTESIAN_POINT('',(-135.074278361531,20.2910914030505,35.3040951945177));
#289=CARTESIAN_POINT('',(-136.909408071254,18.2940390303807,36.3816670358528));
#290=CARTESIAN_POINT('',(-138.544284825197,16.1357230112799,37.3912081720841));
#291=CARTESIAN_POINT('',(-139.98477776882,13.8061298394012,38.3162006452629));
#292=CARTESIAN_POINT('',(-141.642826743307,10.4217738292899,39.4146858696162));
#293=CARTESIAN_POINT('',(-142.790764496987,6.81831942825747,40.20521293689));
#294=CARTESIAN_POINT('',(-143.396737500293,2.95590509717867,40.6275579785539));
#295=CARTESIAN_POINT('',(-143.548420664756,0.0606396398550808,40.7339723001166));
#296=CARTESIAN_POINT('',(-143.409188541215,-2.83264366673283,40.6362788153696));
#297=CARTESIAN_POINT('',(-142.820227101526,-6.69894329319031,40.2256469738919));
#298=CARTESIAN_POINT('',(-141.682337761238,-10.3212576573542,39.4415048387773));
#299=CARTESIAN_POINT('',(-140.036528891427,-13.7117444843543,38.3500641502051));
#300=CARTESIAN_POINT('',(-138.120865017992,-16.8388426843928,37.1180374624373));
#301=CARTESIAN_POINT('',(-135.186845663103,-20.3583325811879,35.3344221381561));
#302=CARTESIAN_POINT('',(-131.738567229282,-23.1904610558278,33.4860861765009));
#303=CARTESIAN_POINT('',(-128.615193689981,-25.087774497272,32.0627779492173));
#304=CARTESIAN_POINT('',(-126.147572805379,-26.2770798113495,31.091131029111));
#305=CARTESIAN_POINT('',(-123.543108804932,-27.2384172035621,30.248927709639));
#306=CARTESIAN_POINT('',(-119.838024831884,-28.2012362291358,29.3548393759885));
#307=CARTESIAN_POINT('',(-115.980426198506,-28.600918511822,28.9556217259786));
#308=CARTESIAN_POINT('',(-112.065864163198,-28.398083085498,29.1563776964777));
#309=CARTESIAN_POINT('',(-109.231475087565,-27.9592954392747,29.5799934860535));
#310=CARTESIAN_POINT('',(-106.447845962398,-27.2358654334583,30.2511378595557));
#311=CARTESIAN_POINT('',(-103.842702769457,-26.2728207189891,31.0947625919628));
#312=CARTESIAN_POINT('',(-101.37976250865,-25.0848869649945,32.0649942245462));
#313=CARTESIAN_POINT('',(-98.2581969356385,-23.1881915464733,33.4876666788584));
#314=CARTESIAN_POINT('',(-94.8019534552102,-20.3490171168857,35.3406245995831));
#315=CARTESIAN_POINT('',(-91.2879723519461,-16.1225845073191,37.4781867675026));
#316=CARTESIAN_POINT('',(-89.0866946472462,-12.1225892862324,38.9264042614408));
#317=CARTESIAN_POINT('',(-87.7577454875407,-8.53743306589804,39.8277130701697));
#318=CARTESIAN_POINT('',(-87.039733132245,-5.7608001278936,40.3232289609858));
#319=CARTESIAN_POINT('',(-86.6013230756104,-2.92704733308098,40.6289521779244));
#320=CARTESIAN_POINT('',(-86.4493999802974,0.00206371177835691,40.7354817354407));
#321=CARTESIAN_POINT('',(-86.6010770032002,2.91879248596752,40.6291208803128));
#322=CARTESIAN_POINT('',(-86.5,0.,40.7));
#323=CARTESIAN_POINT('',(0.,0.,0.));
#324=CARTESIAN_POINT('',(-55.15,0.,0.));
#325=CARTESIAN_POINT('',(-55.15,0.,-47.15));
#326=CARTESIAN_POINT('',(-147.882685305091,3.38910330124118,47.0677802373631));
#327=CARTESIAN_POINT('',(-148.058584642378,-0.00241044947363035,47.1910600789894));
#328=CARTESIAN_POINT('',(-147.882976125395,-3.37946150334662,47.0679794466794));
#329=CARTESIAN_POINT('',(-147.20971476632,-7.75878722467716,46.5987491818506));
#330=CARTESIAN_POINT('',(-145.865724214419,-12.0220770327969,45.6737752592332));
#331=CARTESIAN_POINT('',(-143.988761651614,-15.8773891484895,44.4297919947838));
#332=CARTESIAN_POINT('',(-141.74392473754,-19.5370909636554,42.9877282547053));
#333=CARTESIAN_POINT('',(-138.399809639132,-23.5482172270738,40.9541144412042));
#334=CARTESIAN_POINT('',(-133.533527253452,-27.5395200818393,38.352444258769));
#335=CARTESIAN_POINT('',(-128.975187734688,-30.0281494311129,36.3788352979072));
#336=CARTESIAN_POINT('',(-124.90428188957,-31.5357299339187,35.0600397738187));
#337=CARTESIAN_POINT('',(-121.727859970159,-32.3626483424399,34.2936820380108));
#338=CARTESIAN_POINT('',(-118.438052661047,-32.8786648814964,33.7962403130971));
#339=CARTESIAN_POINT('',(-115.030959910448,-33.0574468774321,33.6201316275923));
#340=CARTESIAN_POINT('',(-111.698616282087,-32.8913762331386,33.7838128666917));
#341=CARTESIAN_POINT('',(-107.259149134533,-32.2148771934625,34.4365412166953));
#342=CARTESIAN_POINT('',(-103.104928317883,-30.9118503920199,35.6341644548897));
#343=CARTESIAN_POINT('',(-99.2543427851559,-29.0588869723623,37.1474049980563));
#344=CARTESIAN_POINT('',(-96.5819755943347,-27.4403940707903,38.3621414861284));
#345=CARTESIAN_POINT('',(-94.0884409072103,-25.5919526006716,39.6234190147695));
#346=CARTESIAN_POINT('',(-91.7562125922139,-23.4950670511826,40.9056531346255));
#347=CARTESIAN_POINT('',(-89.6310464277826,-21.1823901970807,42.1527245184328));
#348=CARTESIAN_POINT('',(-87.7380269731464,-18.6832164592708,43.3209639183301));
#349=CARTESIAN_POINT('',(-86.0701769716386,-15.9858870431127,44.3913324311958));
#350=CARTESIAN_POINT('',(-84.1504223831433,-12.0673347892041,45.6624991547975));
#351=CARTESIAN_POINT('',(-82.8212368467111,-7.89487842599781,46.5773668607447));
#352=CARTESIAN_POINT('',(-82.1196083140393,-3.42300476485073,47.0661329824628));
#353=CARTESIAN_POINT('',(-81.9439386999769,-0.0704673763507988,47.1893133331126));
#354=CARTESIAN_POINT('',(-82.1050943837814,3.27923487927202,47.0762934853809));
#355=CARTESIAN_POINT('',(-82.786922115481,7.75586329371241,46.6011543918789));
#356=CARTESIAN_POINT('',(-84.1042442655653,11.9498548128219,45.6938263536073));
#357=CARTESIAN_POINT('',(-86.009859261734,15.8758953408101,44.4307786211856));
#358=CARTESIAN_POINT('',(-88.22789525429,19.4968165750601,43.0050959536327));
#359=CARTESIAN_POINT('',(-91.6251795467997,23.5722528689237,40.9411139849553));
#360=CARTESIAN_POINT('',(-95.6179373137948,26.8517078288242,38.8024053523236));
#361=CARTESIAN_POINT('',(-99.2345400333902,29.0487436296307,37.1555773044303));
#362=CARTESIAN_POINT('',(-102.092131778641,30.4260316212748,36.031299568204));
#363=CARTESIAN_POINT('',(-105.107683858233,31.5391263908006,35.0570112516561));
#364=CARTESIAN_POINT('',(-109.397778728361,32.6539932135335,34.0227030689178));
#365=CARTESIAN_POINT('',(-113.863702187536,33.1168226820001,33.560874903998));
#366=CARTESIAN_POINT('',(-118.396776778773,32.8820617036496,33.7929993234551));
#367=CARTESIAN_POINT('',(-121.678392624826,32.3741048207762,34.2829200074954));
#368=CARTESIAN_POINT('',(-124.901541917822,31.5365744446769,35.0592066110359));
#369=CARTESIAN_POINT('',(-127.918375168951,30.4214202781398,36.0352287156095));
#370=CARTESIAN_POINT('',(-130.770117732787,29.046025210651,37.1576466466438));
#371=CARTESIAN_POINT('',(-134.384668527459,26.8499129971075,38.8036548828686));
#372=CARTESIAN_POINT('',(-138.386940999895,23.5623227621667,40.9477968820025));
#373=CARTESIAN_POINT('',(-142.45606581876,18.6682686096213,43.4215100740192));
#374=CARTESIAN_POINT('',(-145.004844613155,14.0366154069181,45.0974141172588));
#375=CARTESIAN_POINT('',(-146.54337776837,9.88636761027451,46.1403048563973));
#376=CARTESIAN_POINT('',(-147.375067688298,6.67042982172897,46.7139737524495));
#377=CARTESIAN_POINT('',(-147.882685305091,3.38910330124118,47.0677802373631));
#378=CARTESIAN_POINT('',(-148.058584642378,-0.00241044947363035,47.1910600789894));
#379=CARTESIAN_POINT('',(-147.882976125395,-3.37946150334662,47.0679794466794));
#380=CARTESIAN_POINT('',(-148.,0.,47.15));
#381=CARTESIAN_POINT('',(-174.85,0.,0.));
#382=CARTESIAN_POINT('',(-174.85,0.,-47.15));
#383=CARTESIAN_POINT('',(-230.,0.,0.));
#384=CARTESIAN_POINT('',(-230.,0.,0.));
#385=CARTESIAN_POINT('',(-230.,0.,-45.));
#386=CARTESIAN_POINT('',(0.,0.,0.));
#387=CARTESIAN_POINT('',(-177.,0.,0.));
#388=CARTESIAN_POINT('',(-177.,0.,-45.));
#389=CARTESIAN_POINT('',(-177.,0.,0.));
#390=CARTESIAN_POINT('',(-55.15,0.,0.));
#391=CARTESIAN_POINT('',(-53.,0.,0.));
#392=CARTESIAN_POINT('',(-53.,0.,-45.));
#393=CARTESIAN_POINT('',(0.,0.,0.));
#394=CARTESIAN_POINT('',(0.,0.,0.));
#395=CARTESIAN_POINT('',(0.,0.,-45.));
#396=CARTESIAN_POINT('',(0.,0.,45.));
#397=CARTESIAN_POINT('',(-115.,0.,0.));
#398=CARTESIAN_POINT('',(-115.,0.,55.4999999999999));
#399=CARTESIAN_POINT('',(-148.,0.,55.4999999999999));
#400=CARTESIAN_POINT('',(-115.,0.,95.));
#401=CARTESIAN_POINT('',(-115.,0.,95.));
#402=CARTESIAN_POINT('',(-146.5,0.,95.));
#403=CARTESIAN_POINT('',(-115.,0.,95.));
#404=CARTESIAN_POINT('',(-143.5,0.,95.));
#405=CARTESIAN_POINT('',(-115.,0.,0.));
#406=CARTESIAN_POINT('',(-115.,0.,57.));
#407=CARTESIAN_POINT('',(-146.5,0.,57.));
#408=CARTESIAN_POINT('',(-115.,0.,57.));
#409=CARTESIAN_POINT('',(-115.,0.,96.));
#410=MECHANICAL_DESIGN_GEOMETRIC_PRESENTATION_REPRESENTATION('',(#173),
#411);
#411=(
GEOMETRIC_REPRESENTATION_CONTEXT(3)
GLOBAL_UNCERTAINTY_ASSIGNED_CONTEXT((#412))
GLOBAL_UNIT_ASSIGNED_CONTEXT((#415,#414,#413))
REPRESENTATION_CONTEXT('30065906321(architecture400)',
'TOP_LEVEL_ASSEMBLY_PART')
);
#412=UNCERTAINTY_MEASURE_WITH_UNIT(LENGTH_MEASURE(0.005),#415,
'DISTANCE_ACCURACY_VALUE','Maximum Tolerance applied to model');
#413=(
NAMED_UNIT(*)
SI_UNIT($,.STERADIAN.)
SOLID_ANGLE_UNIT()
);
#414=(
NAMED_UNIT(*)
PLANE_ANGLE_UNIT()
SI_UNIT($,.RADIAN.)
);
#415=(
LENGTH_UNIT()
NAMED_UNIT(*)
SI_UNIT(.MILLI.,.METRE.)
);
#416=PRODUCT_DEFINITION_SHAPE('','',#417);
#417=PRODUCT_DEFINITION('','',#419,#418);
#418=DESIGN_CONTEXT('',#425,'design');
#419=PRODUCT_DEFINITION_FORMATION_WITH_SPECIFIED_SOURCE('','',#421,
 .NOT_KNOWN.);
#420=PRODUCT_RELATED_PRODUCT_CATEGORY('','',(#421));
#421=PRODUCT('30065906321(architecture400)',
'30065906321(architecture400)','30065906321(architecture400)',(#423));
#422=PRODUCT_CATEGORY('','');
#423=MECHANICAL_CONTEXT('',#425,'mechanical');
#424=APPLICATION_PROTOCOL_DEFINITION('international standard',
'config_control_design',2010,#425);
#425=APPLICATION_CONTEXT(
'configuration controlled 3D designs of mechanical parts and assemblie
s');
ENDSEC;
END-ISO-10303-21;
