ISO-10303-21;
HEADER;
FILE_DESCRIPTION( ( 'STEP AP214' ), '1' );
FILE_NAME( 'p:/temp/worker_62/temp/exporttempdir_4440_256_rCiGY/format_0/3000171H.stp', '2021-11-29T07:15:32', ( 'License CC BY-ND 4.0' ), ( 'CADENAS' ), ' ', 'PARTsolutions', ' ' );
FILE_SCHEMA( ( 'AUTOMOTIVE_DESIGN { 1 0 10303 214 1 1 1 1 }' ) );
ENDSEC;
DATA;
#1 = PRODUCT_DEFINITION_CONTEXT( '', #14, 'design' );
#2 = APPLICATION_PROTOCOL_DEFINITION( 'international standard', 'automotive_design', 2001, #14 );
#3 = PRODUCT_CATEGORY_RELATIONSHIP( 'NONE', 'NONE', #15, #16 );
#4 = SHAPE_DEFINITION_REPRESENTATION( #17, #18 );
#5 = PRODUCT_CATEGORY_RELATIONSHIP( 'NONE', 'NONE', #15, #19 );
#6 = CONTEXT_DEPENDENT_SHAPE_REPRESENTATION( #20, #21 );
#7 = SHAPE_DEFINITION_REPRESENTATION( #22, #23 );
#8 = SHAPE_REPRESENTATION_RELATIONSHIP( 'NONE', 'NONE', #23, #24 );
#9 = MECHANICAL_DESIGN_GEOMETRIC_PRESENTATION_REPRESENTATION( ' ', ( #25, #26, #27, #28, #29, #30, #31, #32, #33, #34, #35, #36 ), #10 );
#10 =  ( GEOMETRIC_REPRESENTATION_CONTEXT( 3 )GLOBAL_UNCERTAINTY_ASSIGNED_CONTEXT( ( #39 ) )GLOBAL_UNIT_ASSIGNED_CONTEXT( ( #41, #42, #43 ) )REPRESENTATION_CONTEXT( 'NONE', 'WORKSPACE' ) );
#14 = APPLICATION_CONTEXT( 'core data for automotive mechanical design processes' );
#15 = PRODUCT_CATEGORY( 'part', 'NONE' );
#16 = PRODUCT_RELATED_PRODUCT_CATEGORY( 'detail', ' ', ( #45 ) );
#17 = PRODUCT_DEFINITION_SHAPE( 'NONE', 'NONE', #46 );
#18 = SHAPE_REPRESENTATION( '3000171H', ( #47, #48 ), #49 );
#19 = PRODUCT_RELATED_PRODUCT_CATEGORY( 'detail', ' ', ( #50 ) );
#20 = ( REPRESENTATION_RELATIONSHIP( '', '', #23, #18 )REPRESENTATION_RELATIONSHIP_WITH_TRANSFORMATION( #53 )SHAPE_REPRESENTATION_RELATIONSHIP(  ) );
#21 = PRODUCT_DEFINITION_SHAPE( 'NAUO-PROD-DEF', 'NAUO-PROD-DEF', #55 );
#22 = PRODUCT_DEFINITION_SHAPE( 'NONE', 'NONE', #56 );
#23 = SHAPE_REPRESENTATION( '_3000171H-P1', ( #47 ), #49 );
#24 = ADVANCED_BREP_SHAPE_REPRESENTATION( '_3000171H-P1', ( #57 ), #10 );
#25 = STYLED_ITEM( '', ( #58 ), #59 );
#26 = STYLED_ITEM( '', ( #60 ), #61 );
#27 = STYLED_ITEM( '', ( #62 ), #63 );
#28 = STYLED_ITEM( '', ( #64 ), #65 );
#29 = STYLED_ITEM( '', ( #66 ), #67 );
#30 = STYLED_ITEM( '', ( #68 ), #69 );
#31 = STYLED_ITEM( '', ( #70 ), #71 );
#32 = STYLED_ITEM( '', ( #72 ), #73 );
#33 = STYLED_ITEM( '', ( #74 ), #75 );
#34 = STYLED_ITEM( '', ( #76 ), #77 );
#35 = STYLED_ITEM( '', ( #78 ), #79 );
#36 = STYLED_ITEM( '', ( #80 ), #81 );
#39 = UNCERTAINTY_MEASURE_WITH_UNIT( LENGTH_MEASURE( 0.00100000000000000 ), #41, '', '' );
#41 =  ( CONVERSION_BASED_UNIT( 'MILLIMETRE', #84 )LENGTH_UNIT(  )NAMED_UNIT( #87 ) );
#42 =  ( NAMED_UNIT( #89 )PLANE_ANGLE_UNIT(  )SI_UNIT( $, .RADIAN. ) );
#43 =  ( NAMED_UNIT( #89 )SI_UNIT( $, .STERADIAN. )SOLID_ANGLE_UNIT(  ) );
#45 = PRODUCT( '3000171H', '3000171H', 'PART-3000171H-DESC', ( #95 ) );
#46 = PRODUCT_DEFINITION( 'NONE', 'NONE', #96, #1 );
#47 = AXIS2_PLACEMENT_3D( '', #97, #98, #99 );
#48 = AXIS2_PLACEMENT_3D( '', #100, #101, #102 );
#49 =  ( GEOMETRIC_REPRESENTATION_CONTEXT( 3 )GLOBAL_UNCERTAINTY_ASSIGNED_CONTEXT( ( #105 ) )GLOBAL_UNIT_ASSIGNED_CONTEXT( ( #107, #108, #109 ) )REPRESENTATION_CONTEXT( 'NONE', 'WORKSPACE' ) );
#50 = PRODUCT( '_3000171H-P1', '_3000171H-P1', 'PART-_3000171H-P1-DESC', ( #95 ) );
#53 = ITEM_DEFINED_TRANSFORMATION( '', '', #47, #48 );
#55 = NEXT_ASSEMBLY_USAGE_OCCURRENCE( 'NAUO1', '_3000171H-P1', '_3000171H-P1', #46, #56, $ );
#56 = PRODUCT_DEFINITION( '_3000171H-P1', '_3000171H-P1', #111, #1 );
#57 = MANIFOLD_SOLID_BREP( '_3000171H-P1', #112 );
#58 = PRESENTATION_STYLE_ASSIGNMENT( ( #113 ) );
#59 = ADVANCED_FACE( '', ( #114, #115 ), #116, .T. );
#60 = PRESENTATION_STYLE_ASSIGNMENT( ( #117 ) );
#61 = ADVANCED_FACE( '', ( #118, #119 ), #120, .T. );
#62 = PRESENTATION_STYLE_ASSIGNMENT( ( #121 ) );
#63 = ADVANCED_FACE( '', ( #122, #123 ), #124, .F. );
#64 = PRESENTATION_STYLE_ASSIGNMENT( ( #125 ) );
#65 = ADVANCED_FACE( '', ( #126, #127 ), #128, .T. );
#66 = PRESENTATION_STYLE_ASSIGNMENT( ( #129 ) );
#67 = ADVANCED_FACE( '', ( #130, #131 ), #132, .F. );
#68 = PRESENTATION_STYLE_ASSIGNMENT( ( #133 ) );
#69 = ADVANCED_FACE( '', ( #134, #135 ), #136, .T. );
#70 = PRESENTATION_STYLE_ASSIGNMENT( ( #137 ) );
#71 = ADVANCED_FACE( '', ( #138, #139 ), #140, .T. );
#72 = PRESENTATION_STYLE_ASSIGNMENT( ( #141 ) );
#73 = ADVANCED_FACE( '', ( #142, #143 ), #144, .T. );
#74 = PRESENTATION_STYLE_ASSIGNMENT( ( #145 ) );
#75 = ADVANCED_FACE( '', ( #146, #147 ), #148, .T. );
#76 = PRESENTATION_STYLE_ASSIGNMENT( ( #149 ) );
#77 = ADVANCED_FACE( '', ( #150, #151 ), #152, .F. );
#78 = PRESENTATION_STYLE_ASSIGNMENT( ( #153 ) );
#79 = ADVANCED_FACE( '', ( #154, #155 ), #156, .T. );
#80 = PRESENTATION_STYLE_ASSIGNMENT( ( #157 ) );
#81 = ADVANCED_FACE( '', ( #158, #159 ), #160, .T. );
#84 = LENGTH_MEASURE_WITH_UNIT( LENGTH_MEASURE( 1.00000000000000 ), #161 );
#87 = DIMENSIONAL_EXPONENTS( 1.00000000000000, 0.000000000000000, 0.000000000000000, 0.000000000000000, 0.000000000000000, 0.000000000000000, 0.000000000000000 );
#89 = DIMENSIONAL_EXPONENTS( 0.000000000000000, 0.000000000000000, 0.000000000000000, 0.000000000000000, 0.000000000000000, 0.000000000000000, 0.000000000000000 );
#95 = PRODUCT_CONTEXT( '', #14, 'mechanical' );
#96 = PRODUCT_DEFINITION_FORMATION_WITH_SPECIFIED_SOURCE( ' ', 'NONE', #45, .NOT_KNOWN. );
#97 = CARTESIAN_POINT( '', ( 0.000000000000000, 0.000000000000000, 0.000000000000000 ) );
#98 = DIRECTION( '', ( 0.000000000000000, 0.000000000000000, 1.00000000000000 ) );
#99 = DIRECTION( '', ( 1.00000000000000, 0.000000000000000, 0.000000000000000 ) );
#100 = CARTESIAN_POINT( '', ( 0.000000000000000, 0.000000000000000, 0.000000000000000 ) );
#101 = DIRECTION( '', ( 0.000000000000000, 0.000000000000000, 1.00000000000000 ) );
#102 = DIRECTION( '', ( 1.00000000000000, 0.000000000000000, 0.000000000000000 ) );
#105 = UNCERTAINTY_MEASURE_WITH_UNIT( LENGTH_MEASURE( 0.00100000000000000 ), #107, '', '' );
#107 =  ( CONVERSION_BASED_UNIT( 'MILLIMETRE', #164 )LENGTH_UNIT(  )NAMED_UNIT( #167 ) );
#108 =  ( NAMED_UNIT( #169 )PLANE_ANGLE_UNIT(  )SI_UNIT( $, .RADIAN. ) );
#109 =  ( NAMED_UNIT( #169 )SI_UNIT( $, .STERADIAN. )SOLID_ANGLE_UNIT(  ) );
#111 = PRODUCT_DEFINITION_FORMATION_WITH_SPECIFIED_SOURCE( ' ', 'NONE', #50, .NOT_KNOWN. );
#112 = CLOSED_SHELL( '', ( #69, #61, #65, #75, #81, #71, #73, #77, #67, #79, #59, #63 ) );
#113 = SURFACE_STYLE_USAGE( .BOTH., #175 );
#114 = FACE_BOUND( '', #176, .T. );
#115 = FACE_OUTER_BOUND( '', #177, .T. );
#116 = PLANE( '', #178 );
#117 = SURFACE_STYLE_USAGE( .BOTH., #179 );
#118 = FACE_OUTER_BOUND( '', #180, .T. );
#119 = FACE_BOUND( '', #181, .T. );
#120 = PLANE( '', #182 );
#121 = SURFACE_STYLE_USAGE( .BOTH., #183 );
#122 = FACE_OUTER_BOUND( '', #184, .T. );
#123 = FACE_OUTER_BOUND( '', #185, .T. );
#124 = CYLINDRICAL_SURFACE( '', #186, 200.000000000000 );
#125 = SURFACE_STYLE_USAGE( .BOTH., #187 );
#126 = FACE_OUTER_BOUND( '', #188, .T. );
#127 = FACE_OUTER_BOUND( '', #189, .T. );
#128 = TOROIDAL_SURFACE( '', #190, 400.000000000000, 200.000000000000 );
#129 = SURFACE_STYLE_USAGE( .BOTH., #191 );
#130 = FACE_OUTER_BOUND( '', #192, .T. );
#131 = FACE_OUTER_BOUND( '', #193, .T. );
#132 = TOROIDAL_SURFACE( '', #194, 400.000000000000, 195.500000000000 );
#133 = SURFACE_STYLE_USAGE( .BOTH., #195 );
#134 = FACE_OUTER_BOUND( '', #196, .T. );
#135 = FACE_OUTER_BOUND( '', #197, .T. );
#136 = TOROIDAL_SURFACE( '', #198, 200.000000000000, 4.50000000000000 );
#137 = SURFACE_STYLE_USAGE( .BOTH., #199 );
#138 = FACE_OUTER_BOUND( '', #200, .T. );
#139 = FACE_OUTER_BOUND( '', #201, .T. );
#140 = CYLINDRICAL_SURFACE( '', #202, 204.500000000000 );
#141 = SURFACE_STYLE_USAGE( .BOTH., #203 );
#142 = FACE_OUTER_BOUND( '', #204, .T. );
#143 = FACE_BOUND( '', #205, .T. );
#144 = PLANE( '', #206 );
#145 = SURFACE_STYLE_USAGE( .BOTH., #207 );
#146 = FACE_BOUND( '', #208, .T. );
#147 = FACE_OUTER_BOUND( '', #209, .T. );
#148 = PLANE( '', #210 );
#149 = SURFACE_STYLE_USAGE( .BOTH., #211 );
#150 = FACE_OUTER_BOUND( '', #212, .T. );
#151 = FACE_OUTER_BOUND( '', #213, .T. );
#152 = CYLINDRICAL_SURFACE( '', #214, 200.000000000000 );
#153 = SURFACE_STYLE_USAGE( .BOTH., #215 );
#154 = FACE_OUTER_BOUND( '', #216, .T. );
#155 = FACE_OUTER_BOUND( '', #217, .T. );
#156 = CYLINDRICAL_SURFACE( '', #218, 204.500000000000 );
#157 = SURFACE_STYLE_USAGE( .BOTH., #219 );
#158 = FACE_OUTER_BOUND( '', #220, .T. );
#159 = FACE_OUTER_BOUND( '', #221, .T. );
#160 = TOROIDAL_SURFACE( '', #222, 200.000000000000, 4.50000000000000 );
#161 =  ( LENGTH_UNIT(  )NAMED_UNIT( #87 )SI_UNIT( .MILLI., .METRE. ) );
#164 = LENGTH_MEASURE_WITH_UNIT( LENGTH_MEASURE( 1.00000000000000 ), #224 );
#167 = DIMENSIONAL_EXPONENTS( 1.00000000000000, 0.000000000000000, 0.000000000000000, 0.000000000000000, 0.000000000000000, 0.000000000000000, 0.000000000000000 );
#169 = DIMENSIONAL_EXPONENTS( 0.000000000000000, 0.000000000000000, 0.000000000000000, 0.000000000000000, 0.000000000000000, 0.000000000000000, 0.000000000000000 );
#175 = SURFACE_SIDE_STYLE( '', ( #225 ) );
#176 = EDGE_LOOP( '', ( #226 ) );
#177 = EDGE_LOOP( '', ( #227 ) );
#178 = AXIS2_PLACEMENT_3D( '', #228, #229, #230 );
#179 = SURFACE_SIDE_STYLE( '', ( #231 ) );
#180 = EDGE_LOOP( '', ( #232 ) );
#181 = EDGE_LOOP( '', ( #233 ) );
#182 = AXIS2_PLACEMENT_3D( '', #234, #235, #236 );
#183 = SURFACE_SIDE_STYLE( '', ( #237 ) );
#184 = EDGE_LOOP( '', ( #238 ) );
#185 = EDGE_LOOP( '', ( #239 ) );
#186 = AXIS2_PLACEMENT_3D( '', #240, #241, #242 );
#187 = SURFACE_SIDE_STYLE( '', ( #243 ) );
#188 = EDGE_LOOP( '', ( #244 ) );
#189 = EDGE_LOOP( '', ( #245 ) );
#190 = AXIS2_PLACEMENT_3D( '', #246, #247, #248 );
#191 = SURFACE_SIDE_STYLE( '', ( #249 ) );
#192 = EDGE_LOOP( '', ( #250 ) );
#193 = EDGE_LOOP( '', ( #251 ) );
#194 = AXIS2_PLACEMENT_3D( '', #252, #253, #254 );
#195 = SURFACE_SIDE_STYLE( '', ( #255 ) );
#196 = EDGE_LOOP( '', ( #256 ) );
#197 = EDGE_LOOP( '', ( #257 ) );
#198 = AXIS2_PLACEMENT_3D( '', #258, #259, #260 );
#199 = SURFACE_SIDE_STYLE( '', ( #261 ) );
#200 = EDGE_LOOP( '', ( #262 ) );
#201 = EDGE_LOOP( '', ( #263 ) );
#202 = AXIS2_PLACEMENT_3D( '', #264, #265, #266 );
#203 = SURFACE_SIDE_STYLE( '', ( #267 ) );
#204 = EDGE_LOOP( '', ( #268 ) );
#205 = EDGE_LOOP( '', ( #269 ) );
#206 = AXIS2_PLACEMENT_3D( '', #270, #271, #272 );
#207 = SURFACE_SIDE_STYLE( '', ( #273 ) );
#208 = EDGE_LOOP( '', ( #274 ) );
#209 = EDGE_LOOP( '', ( #275 ) );
#210 = AXIS2_PLACEMENT_3D( '', #276, #277, #278 );
#211 = SURFACE_SIDE_STYLE( '', ( #279 ) );
#212 = EDGE_LOOP( '', ( #280 ) );
#213 = EDGE_LOOP( '', ( #281 ) );
#214 = AXIS2_PLACEMENT_3D( '', #282, #283, #284 );
#215 = SURFACE_SIDE_STYLE( '', ( #285 ) );
#216 = EDGE_LOOP( '', ( #286 ) );
#217 = EDGE_LOOP( '', ( #287 ) );
#218 = AXIS2_PLACEMENT_3D( '', #288, #289, #290 );
#219 = SURFACE_SIDE_STYLE( '', ( #291 ) );
#220 = EDGE_LOOP( '', ( #292 ) );
#221 = EDGE_LOOP( '', ( #293 ) );
#222 = AXIS2_PLACEMENT_3D( '', #294, #295, #296 );
#224 =  ( LENGTH_UNIT(  )NAMED_UNIT( #167 )SI_UNIT( .MILLI., .METRE. ) );
#225 = SURFACE_STYLE_FILL_AREA( #298 );
#226 = ORIENTED_EDGE( '', *, *, #299, .T. );
#227 = ORIENTED_EDGE( '', *, *, #300, .F. );
#228 = CARTESIAN_POINT( '', ( 300.297943852697, 231.276695296637, 0.000000000000000 ) );
#229 = DIRECTION( '', ( 0.707106781186548, 0.707106781186547, 0.000000000000000 ) );
#230 = DIRECTION( '', ( -0.707106781186547, 0.707106781186548, 0.000000000000000 ) );
#231 = SURFACE_STYLE_FILL_AREA( #301 );
#232 = ORIENTED_EDGE( '', *, *, #302, .T. );
#233 = ORIENTED_EDGE( '', *, *, #303, .T. );
#234 = CARTESIAN_POINT( '', ( 255.396663247351, 199.103336752649, 0.000000000000000 ) );
#235 = DIRECTION( '', ( -0.707106781186548, -0.707106781186547, 0.000000000000000 ) );
#236 = DIRECTION( '', ( 0.707106781186547, -0.707106781186548, 0.000000000000000 ) );
#237 = SURFACE_STYLE_FILL_AREA( #304 );
#238 = ORIENTED_EDGE( '', *, *, #305, .T. );
#239 = ORIENTED_EDGE( '', *, *, #299, .F. );
#240 = CARTESIAN_POINT( '', ( 78.6199679507141, 298.805392899952, 0.000000000000000 ) );
#241 = DIRECTION( '', ( 0.707106781186548, 0.707106781186547, -0.000000000000000 ) );
#242 = DIRECTION( '', ( 0.707106781186547, -0.707106781186548, 0.000000000000000 ) );
#243 = SURFACE_STYLE_FILL_AREA( #306 );
#244 = ORIENTED_EDGE( '', *, *, #307, .T. );
#245 = ORIENTED_EDGE( '', *, *, #303, .F. );
#246 = CARTESIAN_POINT( '', ( 400.000000000000, 54.5000000000000, 0.000000000000000 ) );
#247 = DIRECTION( '', ( -0.000000000000000, 0.000000000000000, -1.00000000000000 ) );
#248 = DIRECTION( '', ( -1.00000000000000, 0.000000000000000, 0.000000000000000 ) );
#249 = SURFACE_STYLE_FILL_AREA( #308 );
#250 = ORIENTED_EDGE( '', *, *, #309, .T. );
#251 = ORIENTED_EDGE( '', *, *, #310, .T. );
#252 = CARTESIAN_POINT( '', ( 400.000000000000, 54.5000000000000, 0.000000000000000 ) );
#253 = DIRECTION( '', ( -0.000000000000000, 0.000000000000000, -1.00000000000000 ) );
#254 = DIRECTION( '', ( -1.00000000000000, 0.000000000000000, 0.000000000000000 ) );
#255 = SURFACE_STYLE_FILL_AREA( #311 );
#256 = ORIENTED_EDGE( '', *, *, #310, .F. );
#257 = ORIENTED_EDGE( '', *, *, #305, .F. );
#258 = CARTESIAN_POINT( '', ( 117.157287525381, 337.342712474619, 0.000000000000000 ) );
#259 = DIRECTION( '', ( -0.707106781186548, -0.707106781186547, 0.000000000000000 ) );
#260 = DIRECTION( '', ( 0.707106781186547, -0.707106781186548, 0.000000000000000 ) );
#261 = SURFACE_STYLE_FILL_AREA( #312 );
#262 = ORIENTED_EDGE( '', *, *, #313, .T. );
#263 = ORIENTED_EDGE( '', *, *, #314, .F. );
#264 = CARTESIAN_POINT( '', ( 0.000000000000000, 0.000000000000000, 0.000000000000000 ) );
#265 = DIRECTION( '', ( -0.000000000000000, 1.00000000000000, 0.000000000000000 ) );
#266 = DIRECTION( '', ( 0.000000000000000, 0.000000000000000, -1.00000000000000 ) );
#267 = SURFACE_STYLE_FILL_AREA( #315 );
#268 = ORIENTED_EDGE( '', *, *, #314, .T. );
#269 = ORIENTED_EDGE( '', *, *, #316, .F. );
#270 = CARTESIAN_POINT( '', ( 200.000000000000, 0.000000000000000, 0.000000000000000 ) );
#271 = DIRECTION( '', ( 0.000000000000000, -1.00000000000000, -0.000000000000000 ) );
#272 = DIRECTION( '', ( 0.000000000000000, 0.000000000000000, -1.00000000000000 ) );
#273 = SURFACE_STYLE_FILL_AREA( #317 );
#274 = ORIENTED_EDGE( '', *, *, #307, .F. );
#275 = ORIENTED_EDGE( '', *, *, #313, .F. );
#276 = CARTESIAN_POINT( '', ( 204.500000000000, 54.5000000000000, 0.000000000000000 ) );
#277 = DIRECTION( '', ( 0.000000000000000, 1.00000000000000, 0.000000000000000 ) );
#278 = DIRECTION( '', ( 0.000000000000000, -0.000000000000000, 1.00000000000000 ) );
#279 = SURFACE_STYLE_FILL_AREA( #318 );
#280 = ORIENTED_EDGE( '', *, *, #316, .T. );
#281 = ORIENTED_EDGE( '', *, *, #319, .F. );
#282 = CARTESIAN_POINT( '', ( 0.000000000000000, 0.000000000000000, 0.000000000000000 ) );
#283 = DIRECTION( '', ( -0.000000000000000, 1.00000000000000, 0.000000000000000 ) );
#284 = DIRECTION( '', ( 0.000000000000000, 0.000000000000000, -1.00000000000000 ) );
#285 = SURFACE_STYLE_FILL_AREA( #320 );
#286 = ORIENTED_EDGE( '', *, *, #300, .T. );
#287 = ORIENTED_EDGE( '', *, *, #302, .F. );
#288 = CARTESIAN_POINT( '', ( 78.6199679507141, 298.805392899952, 0.000000000000000 ) );
#289 = DIRECTION( '', ( 0.707106781186548, 0.707106781186547, -0.000000000000000 ) );
#290 = DIRECTION( '', ( 0.707106781186547, -0.707106781186548, 0.000000000000000 ) );
#291 = SURFACE_STYLE_FILL_AREA( #321 );
#292 = ORIENTED_EDGE( '', *, *, #319, .T. );
#293 = ORIENTED_EDGE( '', *, *, #309, .F. );
#294 = CARTESIAN_POINT( '', ( 0.000000000000000, 54.5000000000000, 0.000000000000000 ) );
#295 = DIRECTION( '', ( 0.000000000000000, -1.00000000000000, -0.000000000000000 ) );
#296 = DIRECTION( '', ( 0.000000000000000, 0.000000000000000, -1.00000000000000 ) );
#298 = FILL_AREA_STYLE( '', ( #322 ) );
#299 = EDGE_CURVE( '', #323, #323, #324, .T. );
#300 = EDGE_CURVE( '', #325, #325, #326, .T. );
#301 = FILL_AREA_STYLE( '', ( #327 ) );
#302 = EDGE_CURVE( '', #328, #328, #329, .T. );
#303 = EDGE_CURVE( '', #330, #330, #331, .T. );
#304 = FILL_AREA_STYLE( '', ( #332 ) );
#305 = EDGE_CURVE( '', #333, #333, #334, .T. );
#306 = FILL_AREA_STYLE( '', ( #335 ) );
#307 = EDGE_CURVE( '', #336, #336, #337, .T. );
#308 = FILL_AREA_STYLE( '', ( #338 ) );
#309 = EDGE_CURVE( '', #339, #339, #340, .T. );
#310 = EDGE_CURVE( '', #341, #341, #342, .T. );
#311 = FILL_AREA_STYLE( '', ( #343 ) );
#312 = FILL_AREA_STYLE( '', ( #344 ) );
#313 = EDGE_CURVE( '', #345, #345, #346, .T. );
#314 = EDGE_CURVE( '', #347, #347, #348, .T. );
#315 = FILL_AREA_STYLE( '', ( #349 ) );
#316 = EDGE_CURVE( '', #350, #350, #351, .T. );
#317 = FILL_AREA_STYLE( '', ( #352 ) );
#318 = FILL_AREA_STYLE( '', ( #353 ) );
#319 = EDGE_CURVE( '', #354, #354, #355, .T. );
#320 = FILL_AREA_STYLE( '', ( #356 ) );
#321 = FILL_AREA_STYLE( '', ( #357 ) );
#322 = FILL_AREA_STYLE_COLOUR( '', #358 );
#323 = VERTEX_POINT( '', #359 );
#324 = CIRCLE( '', #360, 200.000000000000 );
#325 = VERTEX_POINT( '', #361 );
#326 = CIRCLE( '', #362, 204.500000000000 );
#327 = FILL_AREA_STYLE_COLOUR( '', #363 );
#328 = VERTEX_POINT( '', #364 );
#329 = CIRCLE( '', #365, 204.500000000000 );
#330 = VERTEX_POINT( '', #366 );
#331 = CIRCLE( '', #367, 200.000000000000 );
#332 = FILL_AREA_STYLE_COLOUR( '', #368 );
#333 = VERTEX_POINT( '', #369 );
#334 = CIRCLE( '', #370, 200.000000000000 );
#335 = FILL_AREA_STYLE_COLOUR( '', #371 );
#336 = VERTEX_POINT( '', #372 );
#337 = CIRCLE( '', #373, 200.000000000000 );
#338 = FILL_AREA_STYLE_COLOUR( '', #374 );
#339 = VERTEX_POINT( '', #375 );
#340 = CIRCLE( '', #376, 195.500000000000 );
#341 = VERTEX_POINT( '', #377 );
#342 = CIRCLE( '', #378, 195.500000000000 );
#343 = FILL_AREA_STYLE_COLOUR( '', #379 );
#344 = FILL_AREA_STYLE_COLOUR( '', #380 );
#345 = VERTEX_POINT( '', #381 );
#346 = CIRCLE( '', #382, 204.500000000000 );
#347 = VERTEX_POINT( '', #383 );
#348 = CIRCLE( '', #384, 204.500000000000 );
#349 = FILL_AREA_STYLE_COLOUR( '', #385 );
#350 = VERTEX_POINT( '', #386 );
#351 = CIRCLE( '', #387, 200.000000000000 );
#352 = FILL_AREA_STYLE_COLOUR( '', #388 );
#353 = FILL_AREA_STYLE_COLOUR( '', #389 );
#354 = VERTEX_POINT( '', #390 );
#355 = CIRCLE( '', #391, 200.000000000000 );
#356 = FILL_AREA_STYLE_COLOUR( '', #392 );
#357 = FILL_AREA_STYLE_COLOUR( '', #393 );
#358 = COLOUR_RGB( '', 0.000000000000000, 0.000000000000000, 0.000000000000000 );
#359 = CARTESIAN_POINT( '', ( 297.115963337357, 234.458675811976, 0.000000000000000 ) );
#360 = AXIS2_PLACEMENT_3D( '', #394, #395, #396 );
#361 = CARTESIAN_POINT( '', ( 300.297943852697, 231.276695296637, 0.000000000000000 ) );
#362 = AXIS2_PLACEMENT_3D( '', #397, #398, #399 );
#363 = COLOUR_RGB( '', 0.000000000000000, 0.000000000000000, 0.000000000000000 );
#364 = CARTESIAN_POINT( '', ( 261.760624278030, 192.739375721970, 0.000000000000000 ) );
#365 = AXIS2_PLACEMENT_3D( '', #400, #401, #402 );
#366 = CARTESIAN_POINT( '', ( 258.578643762691, 195.921356237310, 0.000000000000000 ) );
#367 = AXIS2_PLACEMENT_3D( '', #403, #404, #405 );
#368 = COLOUR_RGB( '', 0.000000000000000, 0.000000000000000, 0.000000000000000 );
#369 = CARTESIAN_POINT( '', ( 261.760624278030, 199.103336752649, 0.000000000000000 ) );
#370 = AXIS2_PLACEMENT_3D( '', #406, #407, #408 );
#371 = COLOUR_RGB( '', 0.000000000000000, 0.000000000000000, 0.000000000000000 );
#372 = CARTESIAN_POINT( '', ( 200.000000000000, 54.5000000000000, 0.000000000000000 ) );
#373 = AXIS2_PLACEMENT_3D( '', #409, #410, #411 );
#374 = COLOUR_RGB( '', 0.000000000000000, 0.000000000000000, 0.000000000000000 );
#375 = CARTESIAN_POINT( '', ( 0.000000000000000, 54.5000000000000, -195.500000000000 ) );
#376 = AXIS2_PLACEMENT_3D( '', #412, #413, #414 );
#377 = CARTESIAN_POINT( '', ( 255.396663247351, 199.103336752649, 0.000000000000000 ) );
#378 = AXIS2_PLACEMENT_3D( '', #415, #416, #417 );
#379 = COLOUR_RGB( '', 0.000000000000000, 0.000000000000000, 0.000000000000000 );
#380 = COLOUR_RGB( '', 0.000000000000000, 0.000000000000000, 0.000000000000000 );
#381 = CARTESIAN_POINT( '', ( 0.000000000000000, 54.5000000000000, -204.500000000000 ) );
#382 = AXIS2_PLACEMENT_3D( '', #418, #419, #420 );
#383 = CARTESIAN_POINT( '', ( 0.000000000000000, 0.000000000000000, -204.500000000000 ) );
#384 = AXIS2_PLACEMENT_3D( '', #421, #422, #423 );
#385 = COLOUR_RGB( '', 0.000000000000000, 0.000000000000000, 0.000000000000000 );
#386 = CARTESIAN_POINT( '', ( 0.000000000000000, 0.000000000000000, -200.000000000000 ) );
#387 = AXIS2_PLACEMENT_3D( '', #424, #425, #426 );
#388 = COLOUR_RGB( '', 0.000000000000000, 0.000000000000000, 0.000000000000000 );
#389 = COLOUR_RGB( '', 0.000000000000000, 0.000000000000000, 0.000000000000000 );
#390 = CARTESIAN_POINT( '', ( 0.000000000000000, 50.0000000000000, -200.000000000000 ) );
#391 = AXIS2_PLACEMENT_3D( '', #427, #428, #429 );
#392 = COLOUR_RGB( '', 0.000000000000000, 0.000000000000000, 0.000000000000000 );
#393 = COLOUR_RGB( '', 0.000000000000000, 0.000000000000000, 0.000000000000000 );
#394 = CARTESIAN_POINT( '', ( 155.694607100048, 375.880032049286, 0.000000000000000 ) );
#395 = DIRECTION( '', ( -0.707106781186548, -0.707106781186547, 0.000000000000000 ) );
#396 = DIRECTION( '', ( 0.707106781186547, -0.707106781186548, 0.000000000000000 ) );
#397 = CARTESIAN_POINT( '', ( 155.694607100048, 375.880032049286, 0.000000000000000 ) );
#398 = DIRECTION( '', ( -0.707106781186548, -0.707106781186547, 0.000000000000000 ) );
#399 = DIRECTION( '', ( 0.707106781186547, -0.707106781186548, 0.000000000000000 ) );
#400 = CARTESIAN_POINT( '', ( 117.157287525381, 337.342712474619, 0.000000000000000 ) );
#401 = DIRECTION( '', ( -0.707106781186548, -0.707106781186547, 0.000000000000000 ) );
#402 = DIRECTION( '', ( 0.707106781186547, -0.707106781186548, 0.000000000000000 ) );
#403 = CARTESIAN_POINT( '', ( 117.157287525381, 337.342712474619, 0.000000000000000 ) );
#404 = DIRECTION( '', ( 0.707106781186548, 0.707106781186548, 0.000000000000000 ) );
#405 = DIRECTION( '', ( 0.707106781186547, -0.707106781186547, 0.000000000000000 ) );
#406 = CARTESIAN_POINT( '', ( 120.339268040720, 340.524692989959, 0.000000000000000 ) );
#407 = DIRECTION( '', ( -0.707106781186548, -0.707106781186547, 0.000000000000000 ) );
#408 = DIRECTION( '', ( 0.707106781186547, -0.707106781186548, 0.000000000000000 ) );
#409 = CARTESIAN_POINT( '', ( -8.32667268468867E-14, 54.5000000000000, 0.000000000000000 ) );
#410 = DIRECTION( '', ( -0.000000000000000, 1.00000000000000, 0.000000000000000 ) );
#411 = DIRECTION( '', ( 1.00000000000000, 0.000000000000000, 0.000000000000000 ) );
#412 = CARTESIAN_POINT( '', ( 0.000000000000000, 54.5000000000000, 0.000000000000000 ) );
#413 = DIRECTION( '', ( 0.000000000000000, -1.00000000000000, -0.000000000000000 ) );
#414 = DIRECTION( '', ( 0.000000000000000, 0.000000000000000, -1.00000000000000 ) );
#415 = CARTESIAN_POINT( '', ( 117.157287525381, 337.342712474619, 0.000000000000000 ) );
#416 = DIRECTION( '', ( 0.707106781186548, 0.707106781186548, 0.000000000000000 ) );
#417 = DIRECTION( '', ( 0.707106781186547, -0.707106781186547, 0.000000000000000 ) );
#418 = CARTESIAN_POINT( '', ( 0.000000000000000, 54.5000000000000, 0.000000000000000 ) );
#419 = DIRECTION( '', ( 0.000000000000000, -1.00000000000000, -0.000000000000000 ) );
#420 = DIRECTION( '', ( 0.000000000000000, 0.000000000000000, -1.00000000000000 ) );
#421 = CARTESIAN_POINT( '', ( 0.000000000000000, 0.000000000000000, 0.000000000000000 ) );
#422 = DIRECTION( '', ( 0.000000000000000, -1.00000000000000, -0.000000000000000 ) );
#423 = DIRECTION( '', ( 0.000000000000000, 0.000000000000000, -1.00000000000000 ) );
#424 = CARTESIAN_POINT( '', ( 0.000000000000000, 0.000000000000000, 0.000000000000000 ) );
#425 = DIRECTION( '', ( 0.000000000000000, -1.00000000000000, -0.000000000000000 ) );
#426 = DIRECTION( '', ( 0.000000000000000, 0.000000000000000, -1.00000000000000 ) );
#427 = CARTESIAN_POINT( '', ( 0.000000000000000, 50.0000000000000, 0.000000000000000 ) );
#428 = DIRECTION( '', ( 0.000000000000000, -1.00000000000000, -0.000000000000000 ) );
#429 = DIRECTION( '', ( 0.000000000000000, 0.000000000000000, -1.00000000000000 ) );
ENDSEC;
END-ISO-10303-21;
