ISO-10303-21;
HEADER;
/* Generated by software containing ST-Developer
 * from STEP Tools, Inc. (www.steptools.com) 
 */

FILE_DESCRIPTION(
/* description */ (''),
/* implementation_level */ '2;1');

FILE_NAME(
/* name */ 
'Q:\\Ric010\\FF7\\FIPlastiCAD\\FIP\\Lavoro\\PVC Fittings\\PVC Fittings
 STEP\\TIFV\\TIFV040114.ipt.stp',
/* time_stamp */ '2013-10-01T14:55:21+02:00',
/* author */ ('bfaro'),
/* organization */ (''),
/* preprocessor_version */ 'ST-DEVELOPER v15.2',
/* originating_system */ 'Autodesk Inventor 2014',
/* authorisation */ '');

FILE_SCHEMA (('AUTOMOTIVE_DESIGN { 1 0 10303 214 3 1 1 }'));
ENDSEC;

DATA;
#10=SHAPE_REPRESENTATION_RELATIONSHIP('SRR','None',#324,#11);
#11=ADVANCED_BREP_SHAPE_REPRESENTATION($,(#177),#315);
#12=PLANE($,#202);
#13=PLANE($,#203);
#14=PLANE($,#204);
#15=PLANE($,#205);
#16=PLANE($,#206);
#17=PLANE($,#207);
#18=STYLED_ITEM($,(#333),#168);
#19=STYLED_ITEM($,(#332),#177);
#20=ELLIPSE($,#184,35.3553390593274,25.);
#21=ELLIPSE($,#185,35.3553390593274,25.);
#22=ELLIPSE($,#189,22.6274169979695,16.);
#23=ELLIPSE($,#190,22.6274169979695,16.);
#24=FACE_BOUND($,#53,.T.);
#25=FACE_BOUND($,#55,.T.);
#26=FACE_BOUND($,#56,.T.);
#27=FACE_BOUND($,#58,.T.);
#28=FACE_BOUND($,#59,.T.);
#29=FACE_BOUND($,#61,.T.);
#30=FACE_BOUND($,#63,.T.);
#31=FACE_BOUND($,#65,.T.);
#32=FACE_BOUND($,#67,.T.);
#33=FACE_BOUND($,#69,.T.);
#34=FACE_BOUND($,#71,.T.);
#35=FACE_BOUND($,#73,.T.);
#36=FACE_BOUND($,#75,.T.);
#37=FACE_BOUND($,#77,.T.);
#38=FACE_BOUND($,#79,.T.);
#39=FACE_OUTER_BOUND($,#52,.T.);
#40=FACE_OUTER_BOUND($,#54,.T.);
#41=FACE_OUTER_BOUND($,#57,.T.);
#42=FACE_OUTER_BOUND($,#60,.T.);
#43=FACE_OUTER_BOUND($,#62,.T.);
#44=FACE_OUTER_BOUND($,#64,.T.);
#45=FACE_OUTER_BOUND($,#66,.T.);
#46=FACE_OUTER_BOUND($,#68,.T.);
#47=FACE_OUTER_BOUND($,#70,.T.);
#48=FACE_OUTER_BOUND($,#72,.T.);
#49=FACE_OUTER_BOUND($,#74,.T.);
#50=FACE_OUTER_BOUND($,#76,.T.);
#51=FACE_OUTER_BOUND($,#78,.T.);
#52=EDGE_LOOP($,(#124));
#53=EDGE_LOOP($,(#125));
#54=EDGE_LOOP($,(#126));
#55=EDGE_LOOP($,(#127,#128));
#56=EDGE_LOOP($,(#129));
#57=EDGE_LOOP($,(#130));
#58=EDGE_LOOP($,(#131,#132));
#59=EDGE_LOOP($,(#133));
#60=EDGE_LOOP($,(#134));
#61=EDGE_LOOP($,(#135));
#62=EDGE_LOOP($,(#136,#137));
#63=EDGE_LOOP($,(#138));
#64=EDGE_LOOP($,(#139));
#65=EDGE_LOOP($,(#140));
#66=EDGE_LOOP($,(#141,#142));
#67=EDGE_LOOP($,(#143));
#68=EDGE_LOOP($,(#144));
#69=EDGE_LOOP($,(#145));
#70=EDGE_LOOP($,(#146));
#71=EDGE_LOOP($,(#147));
#72=EDGE_LOOP($,(#148));
#73=EDGE_LOOP($,(#149));
#74=EDGE_LOOP($,(#150));
#75=EDGE_LOOP($,(#151));
#76=EDGE_LOOP($,(#152));
#77=EDGE_LOOP($,(#153));
#78=EDGE_LOOP($,(#154));
#79=EDGE_LOOP($,(#155));
#80=CIRCLE($,#180,20.);
#81=CIRCLE($,#181,20.);
#82=CIRCLE($,#183,25.);
#83=CIRCLE($,#186,25.);
#84=CIRCLE($,#188,16.);
#85=CIRCLE($,#191,16.);
#86=CIRCLE($,#193,20.);
#87=CIRCLE($,#194,20.);
#88=CIRCLE($,#196,25.);
#89=CIRCLE($,#198,19.5);
#90=CIRCLE($,#199,19.5);
#91=CIRCLE($,#201,16.);
#92=VERTEX_POINT($,#270);
#93=VERTEX_POINT($,#272);
#94=VERTEX_POINT($,#275);
#95=VERTEX_POINT($,#277);
#96=VERTEX_POINT($,#278);
#97=VERTEX_POINT($,#281);
#98=VERTEX_POINT($,#284);
#99=VERTEX_POINT($,#286);
#100=VERTEX_POINT($,#287);
#101=VERTEX_POINT($,#290);
#102=VERTEX_POINT($,#293);
#103=VERTEX_POINT($,#295);
#104=VERTEX_POINT($,#298);
#105=VERTEX_POINT($,#301);
#106=VERTEX_POINT($,#303);
#107=VERTEX_POINT($,#306);
#108=EDGE_CURVE($,#92,#92,#80,.T.);
#109=EDGE_CURVE($,#93,#93,#81,.T.);
#110=EDGE_CURVE($,#94,#94,#82,.T.);
#111=EDGE_CURVE($,#95,#96,#20,.T.);
#112=EDGE_CURVE($,#96,#95,#21,.T.);
#113=EDGE_CURVE($,#97,#97,#83,.T.);
#114=EDGE_CURVE($,#98,#98,#84,.T.);
#115=EDGE_CURVE($,#99,#100,#22,.T.);
#116=EDGE_CURVE($,#100,#99,#23,.T.);
#117=EDGE_CURVE($,#101,#101,#85,.T.);
#118=EDGE_CURVE($,#102,#102,#86,.T.);
#119=EDGE_CURVE($,#103,#103,#87,.T.);
#120=EDGE_CURVE($,#104,#104,#88,.T.);
#121=EDGE_CURVE($,#105,#105,#89,.T.);
#122=EDGE_CURVE($,#106,#106,#90,.T.);
#123=EDGE_CURVE($,#107,#107,#91,.T.);
#124=ORIENTED_EDGE($,*,*,#108,.F.);
#125=ORIENTED_EDGE($,*,*,#109,.T.);
#126=ORIENTED_EDGE($,*,*,#110,.T.);
#127=ORIENTED_EDGE($,*,*,#111,.T.);
#128=ORIENTED_EDGE($,*,*,#112,.T.);
#129=ORIENTED_EDGE($,*,*,#113,.F.);
#130=ORIENTED_EDGE($,*,*,#114,.F.);
#131=ORIENTED_EDGE($,*,*,#115,.F.);
#132=ORIENTED_EDGE($,*,*,#116,.F.);
#133=ORIENTED_EDGE($,*,*,#117,.T.);
#134=ORIENTED_EDGE($,*,*,#118,.F.);
#135=ORIENTED_EDGE($,*,*,#119,.T.);
#136=ORIENTED_EDGE($,*,*,#111,.F.);
#137=ORIENTED_EDGE($,*,*,#112,.F.);
#138=ORIENTED_EDGE($,*,*,#120,.F.);
#139=ORIENTED_EDGE($,*,*,#121,.F.);
#140=ORIENTED_EDGE($,*,*,#122,.T.);
#141=ORIENTED_EDGE($,*,*,#115,.T.);
#142=ORIENTED_EDGE($,*,*,#116,.T.);
#143=ORIENTED_EDGE($,*,*,#123,.T.);
#144=ORIENTED_EDGE($,*,*,#120,.T.);
#145=ORIENTED_EDGE($,*,*,#122,.F.);
#146=ORIENTED_EDGE($,*,*,#121,.T.);
#147=ORIENTED_EDGE($,*,*,#123,.F.);
#148=ORIENTED_EDGE($,*,*,#113,.T.);
#149=ORIENTED_EDGE($,*,*,#109,.F.);
#150=ORIENTED_EDGE($,*,*,#108,.T.);
#151=ORIENTED_EDGE($,*,*,#117,.F.);
#152=ORIENTED_EDGE($,*,*,#119,.F.);
#153=ORIENTED_EDGE($,*,*,#114,.T.);
#154=ORIENTED_EDGE($,*,*,#110,.F.);
#155=ORIENTED_EDGE($,*,*,#118,.T.);
#156=CYLINDRICAL_SURFACE($,#179,20.);
#157=CYLINDRICAL_SURFACE($,#182,25.);
#158=CYLINDRICAL_SURFACE($,#187,16.);
#159=CYLINDRICAL_SURFACE($,#192,20.);
#160=CYLINDRICAL_SURFACE($,#195,25.);
#161=CYLINDRICAL_SURFACE($,#197,19.5);
#162=CYLINDRICAL_SURFACE($,#200,16.);
#163=ADVANCED_FACE($,(#39,#24),#156,.F.);
#164=ADVANCED_FACE($,(#40,#25,#26),#157,.T.);
#165=ADVANCED_FACE($,(#41,#27,#28),#158,.F.);
#166=ADVANCED_FACE($,(#42,#29),#159,.F.);
#167=ADVANCED_FACE($,(#43,#30),#160,.T.);
#168=ADVANCED_FACE($,(#44,#31),#161,.F.);
#169=ADVANCED_FACE($,(#45,#32),#162,.F.);
#170=ADVANCED_FACE($,(#46,#33),#12,.T.);
#171=ADVANCED_FACE($,(#47,#34),#13,.T.);
#172=ADVANCED_FACE($,(#48,#35),#14,.T.);
#173=ADVANCED_FACE($,(#49,#36),#15,.T.);
#174=ADVANCED_FACE($,(#50,#37),#16,.T.);
#175=ADVANCED_FACE($,(#51,#38),#17,.T.);
#176=CLOSED_SHELL($,(#163,#164,#165,#166,#167,#168,#169,#170,#171,#172,
#173,#174,#175));
#177=MANIFOLD_SOLID_BREP('D6',#176);
#178=AXIS2_PLACEMENT_3D('placement',#268,#208,#209);
#179=AXIS2_PLACEMENT_3D($,#269,#210,#211);
#180=AXIS2_PLACEMENT_3D($,#271,#212,#213);
#181=AXIS2_PLACEMENT_3D($,#273,#214,#215);
#182=AXIS2_PLACEMENT_3D($,#274,#216,#217);
#183=AXIS2_PLACEMENT_3D($,#276,#218,#219);
#184=AXIS2_PLACEMENT_3D($,#279,#220,#221);
#185=AXIS2_PLACEMENT_3D($,#280,#222,#223);
#186=AXIS2_PLACEMENT_3D($,#282,#224,#225);
#187=AXIS2_PLACEMENT_3D($,#283,#226,#227);
#188=AXIS2_PLACEMENT_3D($,#285,#228,#229);
#189=AXIS2_PLACEMENT_3D($,#288,#230,#231);
#190=AXIS2_PLACEMENT_3D($,#289,#232,#233);
#191=AXIS2_PLACEMENT_3D($,#291,#234,#235);
#192=AXIS2_PLACEMENT_3D($,#292,#236,#237);
#193=AXIS2_PLACEMENT_3D($,#294,#238,#239);
#194=AXIS2_PLACEMENT_3D($,#296,#240,#241);
#195=AXIS2_PLACEMENT_3D($,#297,#242,#243);
#196=AXIS2_PLACEMENT_3D($,#299,#244,#245);
#197=AXIS2_PLACEMENT_3D($,#300,#246,#247);
#198=AXIS2_PLACEMENT_3D($,#302,#248,#249);
#199=AXIS2_PLACEMENT_3D($,#304,#250,#251);
#200=AXIS2_PLACEMENT_3D($,#305,#252,#253);
#201=AXIS2_PLACEMENT_3D($,#307,#254,#255);
#202=AXIS2_PLACEMENT_3D($,#308,#256,#257);
#203=AXIS2_PLACEMENT_3D($,#309,#258,#259);
#204=AXIS2_PLACEMENT_3D($,#310,#260,#261);
#205=AXIS2_PLACEMENT_3D($,#311,#262,#263);
#206=AXIS2_PLACEMENT_3D($,#312,#264,#265);
#207=AXIS2_PLACEMENT_3D($,#313,#266,#267);
#208=DIRECTION('axis',(0.,0.,1.));
#209=DIRECTION('refdir',(1.,0.,0.));
#210=DIRECTION('center_axis',(-1.,0.,0.));
#211=DIRECTION('ref_axis',(0.,0.,-1.));
#212=DIRECTION('center_axis',(-1.,0.,0.));
#213=DIRECTION('ref_axis',(0.,0.,-1.));
#214=DIRECTION('center_axis',(-1.,0.,0.));
#215=DIRECTION('ref_axis',(0.,0.,-1.));
#216=DIRECTION('center_axis',(-1.,0.,0.));
#217=DIRECTION('ref_axis',(0.,0.,-1.));
#218=DIRECTION('center_axis',(-1.,0.,0.));
#219=DIRECTION('ref_axis',(0.,0.,-1.));
#220=DIRECTION('center_axis',(0.707106781186548,1.298891E-016,-0.707106781186548));
#221=DIRECTION('ref_axis',(-0.707106781186547,1.298891E-016,-0.707106781186547));
#222=DIRECTION('center_axis',(-0.707106781186548,1.298891E-016,-0.707106781186547));
#223=DIRECTION('ref_axis',(-0.707106781186547,-1.298891E-016,0.707106781186548));
#224=DIRECTION('center_axis',(-1.,0.,0.));
#225=DIRECTION('ref_axis',(0.,0.,-1.));
#226=DIRECTION('center_axis',(-1.,0.,0.));
#227=DIRECTION('ref_axis',(0.,0.,-1.));
#228=DIRECTION('center_axis',(-1.,0.,0.));
#229=DIRECTION('ref_axis',(0.,0.,-1.));
#230=DIRECTION('center_axis',(0.707106781186548,1.298891E-016,-0.707106781186547));
#231=DIRECTION('ref_axis',(-0.707106781186547,1.298891E-016,-0.707106781186548));
#232=DIRECTION('center_axis',(-0.707106781186548,1.298891E-016,-0.707106781186547));
#233=DIRECTION('ref_axis',(0.707106781186547,1.298891E-016,-0.707106781186548));
#234=DIRECTION('center_axis',(-1.,0.,0.));
#235=DIRECTION('ref_axis',(0.,0.,-1.));
#236=DIRECTION('center_axis',(-1.,0.,0.));
#237=DIRECTION('ref_axis',(0.,0.,-1.));
#238=DIRECTION('center_axis',(-1.,0.,0.));
#239=DIRECTION('ref_axis',(0.,0.,-1.));
#240=DIRECTION('center_axis',(-1.,0.,0.));
#241=DIRECTION('ref_axis',(0.,0.,-1.));
#242=DIRECTION('center_axis',(9.175397E-017,-1.83691E-016,1.));
#243=DIRECTION('ref_axis',(-1.,-1.685437850327E-032,9.175397E-017));
#244=DIRECTION('center_axis',(0.,0.,1.));
#245=DIRECTION('ref_axis',(-1.,0.,0.));
#246=DIRECTION('center_axis',(9.175397E-017,-1.83691E-016,1.));
#247=DIRECTION('ref_axis',(-1.,-1.685437850327E-032,9.175397E-017));
#248=DIRECTION('center_axis',(0.,0.,1.));
#249=DIRECTION('ref_axis',(-1.,0.,0.));
#250=DIRECTION('center_axis',(0.,0.,1.));
#251=DIRECTION('ref_axis',(-1.,0.,0.));
#252=DIRECTION('center_axis',(9.175397E-017,-1.83691E-016,1.));
#253=DIRECTION('ref_axis',(-1.,-1.685437850327E-032,9.175397E-017));
#254=DIRECTION('center_axis',(0.,0.,1.));
#255=DIRECTION('ref_axis',(-1.,0.,0.));
#256=DIRECTION('center_axis',(0.,0.,1.));
#257=DIRECTION('ref_axis',(0.,-1.,0.));
#258=DIRECTION('center_axis',(0.,0.,1.));
#259=DIRECTION('ref_axis',(0.,-1.,0.));
#260=DIRECTION('center_axis',(-1.,0.,0.));
#261=DIRECTION('ref_axis',(0.,-1.,0.));
#262=DIRECTION('center_axis',(-1.,0.,0.));
#263=DIRECTION('ref_axis',(0.,-1.,0.));
#264=DIRECTION('center_axis',(1.,0.,0.));
#265=DIRECTION('ref_axis',(0.,1.,0.));
#266=DIRECTION('center_axis',(1.,0.,0.));
#267=DIRECTION('ref_axis',(0.,1.,0.));
#268=CARTESIAN_POINT('',(0.,0.,0.));
#269=CARTESIAN_POINT('Origin',(-13.,0.,0.));
#270=CARTESIAN_POINT('',(3.552714E-015,-1.224606E-015,20.));
#271=CARTESIAN_POINT('Origin',(4.440892E-015,0.,0.));
#272=CARTESIAN_POINT('',(-26.,-1.224606E-015,20.));
#273=CARTESIAN_POINT('Origin',(-26.,0.,0.));
#274=CARTESIAN_POINT('Origin',(21.5,0.,0.));
#275=CARTESIAN_POINT('',(69.,-1.530758E-015,25.));
#276=CARTESIAN_POINT('Origin',(69.,0.,0.));
#277=CARTESIAN_POINT('',(21.5,25.,6.217249E-015));
#278=CARTESIAN_POINT('',(21.5,-25.,-2.664535E-015));
#279=CARTESIAN_POINT('Origin',(21.5,0.,-2.664535E-015));
#280=CARTESIAN_POINT('Origin',(21.5,0.,-2.664535E-015));
#281=CARTESIAN_POINT('',(-26.,-1.530758E-015,25.));
#282=CARTESIAN_POINT('Origin',(-26.,0.,0.));
#283=CARTESIAN_POINT('Origin',(21.5,0.,0.));
#284=CARTESIAN_POINT('',(43.,-9.796851E-016,16.));
#285=CARTESIAN_POINT('Origin',(43.,0.,0.));
#286=CARTESIAN_POINT('',(21.5,16.,4.440892E-015));
#287=CARTESIAN_POINT('',(21.5,-16.,-8.881784E-016));
#288=CARTESIAN_POINT('Origin',(21.5,0.,0.));
#289=CARTESIAN_POINT('Origin',(21.5,0.,0.));
#290=CARTESIAN_POINT('',(0.,12.7573508221731,9.656603957914));
#291=CARTESIAN_POINT('Origin',(0.,0.,0.));
#292=CARTESIAN_POINT('Origin',(56.,0.,0.));
#293=CARTESIAN_POINT('',(69.,-1.224606E-015,20.));
#294=CARTESIAN_POINT('Origin',(69.,0.,0.));
#295=CARTESIAN_POINT('',(43.,12.7573508221731,15.4029218007494));
#296=CARTESIAN_POINT('Origin',(43.,0.,0.));
#297=CARTESIAN_POINT('Origin',(21.5,-4.440892E-015,24.2));
#298=CARTESIAN_POINT('',(46.5,-5.824697E-015,48.4));
#299=CARTESIAN_POINT('Origin',(21.5,-8.881784E-015,48.4));
#300=CARTESIAN_POINT('Origin',(21.5,-7.105427E-015,37.7));
#301=CARTESIAN_POINT('',(41.,-2.751952E-015,27.));
#302=CARTESIAN_POINT('Origin',(21.5,-5.329071E-015,27.));
#303=CARTESIAN_POINT('',(41.,-6.682938E-015,48.4));
#304=CARTESIAN_POINT('Origin',(21.5,-8.881784E-015,48.4));
#305=CARTESIAN_POINT('Origin',(21.5,-2.664535E-015,13.5));
#306=CARTESIAN_POINT('',(37.5,-3.184993E-015,27.));
#307=CARTESIAN_POINT('Origin',(21.5,-5.329071E-015,27.));
#308=CARTESIAN_POINT('Origin',(-0.749999999999997,-8.881784E-015,48.4));
#309=CARTESIAN_POINT('Origin',(3.75,-5.329071E-015,27.));
#310=CARTESIAN_POINT('Origin',(-26.,3.552714E-015,-22.5));
#311=CARTESIAN_POINT('Origin',(2.442491E-015,2.664535E-015,-18.));
#312=CARTESIAN_POINT('Origin',(43.,2.664535E-015,-18.));
#313=CARTESIAN_POINT('Origin',(69.,3.552714E-015,-22.5));
#314=UNCERTAINTY_MEASURE_WITH_UNIT(LENGTH_MEASURE(0.01),#316,
'DISTANCE_ACCURACY_VALUE',
'Maximum model space distance between geometric entities at asserted c
onnectivities');
#315=(
GEOMETRIC_REPRESENTATION_CONTEXT(3)
GLOBAL_UNCERTAINTY_ASSIGNED_CONTEXT((#314))
GLOBAL_UNIT_ASSIGNED_CONTEXT((#316,#319,#317))
REPRESENTATION_CONTEXT('','3D')
);
#316=(
LENGTH_UNIT()
NAMED_UNIT(*)
SI_UNIT(.MILLI.,.METRE.)
);
#317=(
NAMED_UNIT(*)
SI_UNIT($,.STERADIAN.)
SOLID_ANGLE_UNIT()
);
#318=DIMENSIONAL_EXPONENTS(0.,0.,0.,0.,0.,0.,0.);
#319=(
CONVERSION_BASED_UNIT('degree',#321)
NAMED_UNIT(#318)
PLANE_ANGLE_UNIT()
);
#320=(
NAMED_UNIT(*)
PLANE_ANGLE_UNIT()
SI_UNIT($,.RADIAN.)
);
#321=PLANE_ANGLE_MEASURE_WITH_UNIT(PLANE_ANGLE_MEASURE(0.01745329252),#320);
#322=SHAPE_DEFINITION_REPRESENTATION(#323,#324);
#323=PRODUCT_DEFINITION_SHAPE('',$,#326);
#324=SHAPE_REPRESENTATION('',(#178),#315);
#325=PRODUCT_DEFINITION_CONTEXT('3D Mechanical Parts',#329,'design');
#326=PRODUCT_DEFINITION('TIFV040114','TIFV040114',#327,#325);
#327=PRODUCT_DEFINITION_FORMATION('',$,#331);
#328=APPLICATION_PROTOCOL_DEFINITION('international standard',
'automotive_design',2009,#329);
#329=APPLICATION_CONTEXT(
'Core Data for Automotive Mechanical Design Process');
#330=PRODUCT_CONTEXT('3D Mechanical Parts',#329,'mechanical');
#331=PRODUCT('TIFV040114','TIFV040114',$,(#330));
#332=PRESENTATION_STYLE_ASSIGNMENT((#334));
#333=PRESENTATION_STYLE_ASSIGNMENT((#335));
#334=SURFACE_STYLE_USAGE(.BOTH.,#336);
#335=SURFACE_STYLE_USAGE(.BOTH.,#337);
#336=SURFACE_SIDE_STYLE($,(#338));
#337=SURFACE_SIDE_STYLE($,(#339));
#338=SURFACE_STYLE_FILL_AREA(#340);
#339=SURFACE_STYLE_FILL_AREA(#341);
#340=FILL_AREA_STYLE($,(#342));
#341=FILL_AREA_STYLE($,(#343));
#342=FILL_AREA_STYLE_COLOUR($,#344);
#343=FILL_AREA_STYLE_COLOUR($,#345);
#344=COLOUR_RGB('',0.509803921568627,0.509803921568627,0.588235294117647);
#345=COLOUR_RGB('',1.,0.,0.);
ENDSEC;
END-ISO-10303-21;
