ISO-10303-21;
HEADER;
/* Generated by software containing ST-Developer
 * from STEP Tools, Inc. (www.steptools.com) 
 */

FILE_DESCRIPTION(
/* description */ (''),
/* implementation_level */ '2;1');

FILE_NAME(
/* name */ 
'Q:\\Ric010\\FF7\\FIPlastiCAD\\FIP\\Lavoro\\PVC Fittings\\PVC Fittings
 STEP\\QRV\\QRV075.ipt.stp',
/* time_stamp */ '2013-10-01T14:53:05+02:00',
/* author */ ('bfaro'),
/* organization */ (''),
/* preprocessor_version */ 'ST-DEVELOPER v15.2',
/* originating_system */ 'Autodesk Inventor 2014',
/* authorisation */ '');

FILE_SCHEMA (('AUTOMOTIVE_DESIGN { 1 0 10303 214 3 1 1 }'));
ENDSEC;

DATA;
#10=SHAPE_REPRESENTATION_RELATIONSHIP('SRR','None',#369,#11);
#11=ADVANCED_BREP_SHAPE_REPRESENTATION($,(#201),#360);
#12=STYLED_ITEM($,(#377),#201);
#13=TOROIDAL_SURFACE($,#212,47.,2.00000000000001);
#14=TOROIDAL_SURFACE($,#216,44.5,0.499999999999998);
#15=CYLINDRICAL_SURFACE($,#208,52.5);
#16=CYLINDRICAL_SURFACE($,#214,45.);
#17=CYLINDRICAL_SURFACE($,#220,37.5);
#18=CYLINDRICAL_SURFACE($,#224,32.5);
#19=PLANE($,#206);
#20=PLANE($,#210);
#21=PLANE($,#218);
#22=PLANE($,#222);
#23=PLANE($,#226);
#24=FACE_BOUND($,#59,.T.);
#25=FACE_BOUND($,#61,.T.);
#26=FACE_BOUND($,#63,.T.);
#27=FACE_BOUND($,#64,.T.);
#28=FACE_BOUND($,#65,.T.);
#29=FACE_BOUND($,#67,.T.);
#30=FACE_BOUND($,#69,.T.);
#31=FACE_BOUND($,#71,.T.);
#32=FACE_BOUND($,#72,.T.);
#33=FACE_BOUND($,#73,.T.);
#34=FACE_BOUND($,#75,.T.);
#35=FACE_BOUND($,#76,.T.);
#36=FACE_BOUND($,#77,.T.);
#37=FACE_BOUND($,#79,.T.);
#38=FACE_BOUND($,#81,.T.);
#39=FACE_BOUND($,#83,.T.);
#40=FACE_BOUND($,#85,.T.);
#41=FACE_BOUND($,#87,.T.);
#42=FACE_BOUND($,#89,.T.);
#43=FACE_BOUND($,#91,.T.);
#44=FACE_OUTER_BOUND($,#58,.T.);
#45=FACE_OUTER_BOUND($,#60,.T.);
#46=FACE_OUTER_BOUND($,#62,.T.);
#47=FACE_OUTER_BOUND($,#66,.T.);
#48=FACE_OUTER_BOUND($,#68,.T.);
#49=FACE_OUTER_BOUND($,#70,.T.);
#50=FACE_OUTER_BOUND($,#74,.T.);
#51=FACE_OUTER_BOUND($,#78,.T.);
#52=FACE_OUTER_BOUND($,#80,.T.);
#53=FACE_OUTER_BOUND($,#82,.T.);
#54=FACE_OUTER_BOUND($,#84,.T.);
#55=FACE_OUTER_BOUND($,#86,.T.);
#56=FACE_OUTER_BOUND($,#88,.T.);
#57=FACE_OUTER_BOUND($,#90,.T.);
#58=EDGE_LOOP($,(#143));
#59=EDGE_LOOP($,(#144));
#60=EDGE_LOOP($,(#145));
#61=EDGE_LOOP($,(#146));
#62=EDGE_LOOP($,(#147));
#63=EDGE_LOOP($,(#148));
#64=EDGE_LOOP($,(#149));
#65=EDGE_LOOP($,(#150));
#66=EDGE_LOOP($,(#151));
#67=EDGE_LOOP($,(#152));
#68=EDGE_LOOP($,(#153));
#69=EDGE_LOOP($,(#154));
#70=EDGE_LOOP($,(#155));
#71=EDGE_LOOP($,(#156));
#72=EDGE_LOOP($,(#157));
#73=EDGE_LOOP($,(#158));
#74=EDGE_LOOP($,(#159));
#75=EDGE_LOOP($,(#160));
#76=EDGE_LOOP($,(#161));
#77=EDGE_LOOP($,(#162));
#78=EDGE_LOOP($,(#163));
#79=EDGE_LOOP($,(#164));
#80=EDGE_LOOP($,(#165));
#81=EDGE_LOOP($,(#166));
#82=EDGE_LOOP($,(#167));
#83=EDGE_LOOP($,(#168));
#84=EDGE_LOOP($,(#169));
#85=EDGE_LOOP($,(#170));
#86=EDGE_LOOP($,(#171));
#87=EDGE_LOOP($,(#172));
#88=EDGE_LOOP($,(#173));
#89=EDGE_LOOP($,(#174));
#90=EDGE_LOOP($,(#175));
#91=EDGE_LOOP($,(#176));
#92=CIRCLE($,#204,43.6944270122456);
#93=CIRCLE($,#205,43.1719857320493);
#94=CIRCLE($,#207,52.5);
#95=CIRCLE($,#209,52.5);
#96=CIRCLE($,#211,47.);
#97=CIRCLE($,#213,45.);
#98=CIRCLE($,#215,45.);
#99=CIRCLE($,#217,44.5);
#100=CIRCLE($,#219,37.5);
#101=CIRCLE($,#221,37.5);
#102=CIRCLE($,#223,32.5);
#103=CIRCLE($,#225,32.5);
#104=CIRCLE($,#227,40.0653840142511);
#105=CIRCLE($,#229,40.6867043578107);
#106=CIRCLE($,#231,41.3080247013704);
#107=CIRCLE($,#233,41.92934504493);
#108=CIRCLE($,#235,42.5506653884896);
#109=VERTEX_POINT($,#309);
#110=VERTEX_POINT($,#311);
#111=VERTEX_POINT($,#314);
#112=VERTEX_POINT($,#317);
#113=VERTEX_POINT($,#320);
#114=VERTEX_POINT($,#323);
#115=VERTEX_POINT($,#326);
#116=VERTEX_POINT($,#329);
#117=VERTEX_POINT($,#332);
#118=VERTEX_POINT($,#335);
#119=VERTEX_POINT($,#338);
#120=VERTEX_POINT($,#341);
#121=VERTEX_POINT($,#344);
#122=VERTEX_POINT($,#347);
#123=VERTEX_POINT($,#350);
#124=VERTEX_POINT($,#353);
#125=VERTEX_POINT($,#356);
#126=EDGE_CURVE($,#109,#109,#92,.T.);
#127=EDGE_CURVE($,#110,#110,#93,.T.);
#128=EDGE_CURVE($,#111,#111,#94,.T.);
#129=EDGE_CURVE($,#112,#112,#95,.T.);
#130=EDGE_CURVE($,#113,#113,#96,.T.);
#131=EDGE_CURVE($,#114,#114,#97,.T.);
#132=EDGE_CURVE($,#115,#115,#98,.T.);
#133=EDGE_CURVE($,#116,#116,#99,.T.);
#134=EDGE_CURVE($,#117,#117,#100,.T.);
#135=EDGE_CURVE($,#118,#118,#101,.T.);
#136=EDGE_CURVE($,#119,#119,#102,.T.);
#137=EDGE_CURVE($,#120,#120,#103,.T.);
#138=EDGE_CURVE($,#121,#121,#104,.T.);
#139=EDGE_CURVE($,#122,#122,#105,.T.);
#140=EDGE_CURVE($,#123,#123,#106,.T.);
#141=EDGE_CURVE($,#124,#124,#107,.T.);
#142=EDGE_CURVE($,#125,#125,#108,.T.);
#143=ORIENTED_EDGE($,*,*,#126,.F.);
#144=ORIENTED_EDGE($,*,*,#127,.T.);
#145=ORIENTED_EDGE($,*,*,#128,.F.);
#146=ORIENTED_EDGE($,*,*,#126,.T.);
#147=ORIENTED_EDGE($,*,*,#129,.F.);
#148=ORIENTED_EDGE($,*,*,#128,.T.);
#149=ORIENTED_EDGE($,*,*,#130,.F.);
#150=ORIENTED_EDGE($,*,*,#129,.T.);
#151=ORIENTED_EDGE($,*,*,#131,.F.);
#152=ORIENTED_EDGE($,*,*,#130,.T.);
#153=ORIENTED_EDGE($,*,*,#132,.F.);
#154=ORIENTED_EDGE($,*,*,#131,.T.);
#155=ORIENTED_EDGE($,*,*,#133,.F.);
#156=ORIENTED_EDGE($,*,*,#132,.T.);
#157=ORIENTED_EDGE($,*,*,#134,.F.);
#158=ORIENTED_EDGE($,*,*,#133,.T.);
#159=ORIENTED_EDGE($,*,*,#135,.F.);
#160=ORIENTED_EDGE($,*,*,#134,.T.);
#161=ORIENTED_EDGE($,*,*,#136,.F.);
#162=ORIENTED_EDGE($,*,*,#135,.T.);
#163=ORIENTED_EDGE($,*,*,#137,.F.);
#164=ORIENTED_EDGE($,*,*,#136,.T.);
#165=ORIENTED_EDGE($,*,*,#138,.F.);
#166=ORIENTED_EDGE($,*,*,#137,.T.);
#167=ORIENTED_EDGE($,*,*,#139,.F.);
#168=ORIENTED_EDGE($,*,*,#138,.T.);
#169=ORIENTED_EDGE($,*,*,#140,.F.);
#170=ORIENTED_EDGE($,*,*,#139,.T.);
#171=ORIENTED_EDGE($,*,*,#141,.F.);
#172=ORIENTED_EDGE($,*,*,#140,.T.);
#173=ORIENTED_EDGE($,*,*,#142,.F.);
#174=ORIENTED_EDGE($,*,*,#141,.T.);
#175=ORIENTED_EDGE($,*,*,#127,.F.);
#176=ORIENTED_EDGE($,*,*,#142,.T.);
#177=CONICAL_SURFACE($,#203,43.4332063721475,22.5000000000003);
#178=CONICAL_SURFACE($,#228,40.3760441860309,22.5000000000001);
#179=CONICAL_SURFACE($,#230,40.9973645295905,22.4999999999995);
#180=CONICAL_SURFACE($,#232,41.6186848731502,22.4999999999995);
#181=CONICAL_SURFACE($,#234,42.2400052167098,22.5);
#182=CONICAL_SURFACE($,#236,42.8613255602695,22.4999999999995);
#183=ADVANCED_FACE($,(#44,#24),#177,.F.);
#184=ADVANCED_FACE($,(#45,#25),#19,.T.);
#185=ADVANCED_FACE($,(#46,#26),#15,.T.);
#186=ADVANCED_FACE($,(#27,#28),#20,.T.);
#187=ADVANCED_FACE($,(#47,#29),#13,.F.);
#188=ADVANCED_FACE($,(#48,#30),#16,.T.);
#189=ADVANCED_FACE($,(#49,#31),#14,.T.);
#190=ADVANCED_FACE($,(#32,#33),#21,.T.);
#191=ADVANCED_FACE($,(#50,#34),#17,.F.);
#192=ADVANCED_FACE($,(#35,#36),#22,.T.);
#193=ADVANCED_FACE($,(#51,#37),#18,.F.);
#194=ADVANCED_FACE($,(#52,#38),#23,.T.);
#195=ADVANCED_FACE($,(#53,#39),#178,.T.);
#196=ADVANCED_FACE($,(#54,#40),#179,.F.);
#197=ADVANCED_FACE($,(#55,#41),#180,.T.);
#198=ADVANCED_FACE($,(#56,#42),#181,.F.);
#199=ADVANCED_FACE($,(#57,#43),#182,.T.);
#200=CLOSED_SHELL($,(#183,#184,#185,#186,#187,#188,#189,#190,#191,#192,
#193,#194,#195,#196,#197,#198,#199));
#201=MANIFOLD_SOLID_BREP('Solido1',#200);
#202=AXIS2_PLACEMENT_3D('placement',#307,#237,#238);
#203=AXIS2_PLACEMENT_3D($,#308,#239,#240);
#204=AXIS2_PLACEMENT_3D($,#310,#241,#242);
#205=AXIS2_PLACEMENT_3D($,#312,#243,#244);
#206=AXIS2_PLACEMENT_3D($,#313,#245,#246);
#207=AXIS2_PLACEMENT_3D($,#315,#247,#248);
#208=AXIS2_PLACEMENT_3D($,#316,#249,#250);
#209=AXIS2_PLACEMENT_3D($,#318,#251,#252);
#210=AXIS2_PLACEMENT_3D($,#319,#253,#254);
#211=AXIS2_PLACEMENT_3D($,#321,#255,#256);
#212=AXIS2_PLACEMENT_3D($,#322,#257,#258);
#213=AXIS2_PLACEMENT_3D($,#324,#259,#260);
#214=AXIS2_PLACEMENT_3D($,#325,#261,#262);
#215=AXIS2_PLACEMENT_3D($,#327,#263,#264);
#216=AXIS2_PLACEMENT_3D($,#328,#265,#266);
#217=AXIS2_PLACEMENT_3D($,#330,#267,#268);
#218=AXIS2_PLACEMENT_3D($,#331,#269,#270);
#219=AXIS2_PLACEMENT_3D($,#333,#271,#272);
#220=AXIS2_PLACEMENT_3D($,#334,#273,#274);
#221=AXIS2_PLACEMENT_3D($,#336,#275,#276);
#222=AXIS2_PLACEMENT_3D($,#337,#277,#278);
#223=AXIS2_PLACEMENT_3D($,#339,#279,#280);
#224=AXIS2_PLACEMENT_3D($,#340,#281,#282);
#225=AXIS2_PLACEMENT_3D($,#342,#283,#284);
#226=AXIS2_PLACEMENT_3D($,#343,#285,#286);
#227=AXIS2_PLACEMENT_3D($,#345,#287,#288);
#228=AXIS2_PLACEMENT_3D($,#346,#289,#290);
#229=AXIS2_PLACEMENT_3D($,#348,#291,#292);
#230=AXIS2_PLACEMENT_3D($,#349,#293,#294);
#231=AXIS2_PLACEMENT_3D($,#351,#295,#296);
#232=AXIS2_PLACEMENT_3D($,#352,#297,#298);
#233=AXIS2_PLACEMENT_3D($,#354,#299,#300);
#234=AXIS2_PLACEMENT_3D($,#355,#301,#302);
#235=AXIS2_PLACEMENT_3D($,#357,#303,#304);
#236=AXIS2_PLACEMENT_3D($,#358,#305,#306);
#237=DIRECTION('axis',(0.,0.,1.));
#238=DIRECTION('refdir',(1.,0.,0.));
#239=DIRECTION('center_axis',(0.,0.,-1.));
#240=DIRECTION('ref_axis',(0.,-1.,0.));
#241=DIRECTION('center_axis',(0.,0.,1.));
#242=DIRECTION('ref_axis',(0.,-1.,0.));
#243=DIRECTION('center_axis',(0.,0.,1.));
#244=DIRECTION('ref_axis',(0.,-1.,0.));
#245=DIRECTION('center_axis',(0.,0.,-1.));
#246=DIRECTION('ref_axis',(-1.,0.,0.));
#247=DIRECTION('center_axis',(0.,0.,1.));
#248=DIRECTION('ref_axis',(0.,-1.,0.));
#249=DIRECTION('center_axis',(0.,0.,1.));
#250=DIRECTION('ref_axis',(0.,-1.,0.));
#251=DIRECTION('center_axis',(0.,0.,1.));
#252=DIRECTION('ref_axis',(0.,-1.,0.));
#253=DIRECTION('center_axis',(0.,0.,1.));
#254=DIRECTION('ref_axis',(1.,0.,0.));
#255=DIRECTION('center_axis',(0.,0.,1.));
#256=DIRECTION('ref_axis',(0.,-1.,0.));
#257=DIRECTION('center_axis',(0.,0.,1.));
#258=DIRECTION('ref_axis',(1.,0.,0.));
#259=DIRECTION('center_axis',(0.,0.,1.));
#260=DIRECTION('ref_axis',(0.,-1.,0.));
#261=DIRECTION('center_axis',(0.,0.,1.));
#262=DIRECTION('ref_axis',(0.,-1.,0.));
#263=DIRECTION('center_axis',(0.,0.,1.));
#264=DIRECTION('ref_axis',(0.,-1.,0.));
#265=DIRECTION('center_axis',(0.,0.,1.));
#266=DIRECTION('ref_axis',(1.,0.,0.));
#267=DIRECTION('center_axis',(0.,0.,1.));
#268=DIRECTION('ref_axis',(0.,-1.,0.));
#269=DIRECTION('center_axis',(0.,0.,1.));
#270=DIRECTION('ref_axis',(1.,0.,0.));
#271=DIRECTION('center_axis',(0.,0.,1.));
#272=DIRECTION('ref_axis',(0.,-1.,0.));
#273=DIRECTION('center_axis',(0.,0.,1.));
#274=DIRECTION('ref_axis',(0.,-1.,0.));
#275=DIRECTION('center_axis',(0.,0.,1.));
#276=DIRECTION('ref_axis',(0.,-1.,0.));
#277=DIRECTION('center_axis',(0.,0.,1.));
#278=DIRECTION('ref_axis',(1.,0.,0.));
#279=DIRECTION('center_axis',(0.,0.,1.));
#280=DIRECTION('ref_axis',(0.,-1.,0.));
#281=DIRECTION('center_axis',(0.,0.,1.));
#282=DIRECTION('ref_axis',(0.,-1.,0.));
#283=DIRECTION('center_axis',(0.,0.,1.));
#284=DIRECTION('ref_axis',(0.,-1.,0.));
#285=DIRECTION('center_axis',(0.,0.,-1.));
#286=DIRECTION('ref_axis',(-1.,0.,0.));
#287=DIRECTION('center_axis',(0.,0.,1.));
#288=DIRECTION('ref_axis',(0.,-1.,0.));
#289=DIRECTION('center_axis',(0.,0.,1.));
#290=DIRECTION('ref_axis',(0.,-1.,0.));
#291=DIRECTION('center_axis',(0.,0.,1.));
#292=DIRECTION('ref_axis',(0.,-1.,0.));
#293=DIRECTION('center_axis',(0.,0.,-1.));
#294=DIRECTION('ref_axis',(0.,-1.,0.));
#295=DIRECTION('center_axis',(0.,0.,1.));
#296=DIRECTION('ref_axis',(0.,-1.,0.));
#297=DIRECTION('center_axis',(0.,0.,1.));
#298=DIRECTION('ref_axis',(0.,-1.,0.));
#299=DIRECTION('center_axis',(0.,0.,1.));
#300=DIRECTION('ref_axis',(0.,-1.,0.));
#301=DIRECTION('center_axis',(0.,0.,-1.));
#302=DIRECTION('ref_axis',(0.,-1.,0.));
#303=DIRECTION('center_axis',(0.,0.,1.));
#304=DIRECTION('ref_axis',(0.,-1.,0.));
#305=DIRECTION('center_axis',(0.,0.,1.));
#306=DIRECTION('ref_axis',(0.,-1.,0.));
#307=CARTESIAN_POINT('',(0.,0.,0.));
#308=CARTESIAN_POINT('Origin',(0.,0.,0.869357587903158));
#309=CARTESIAN_POINT('',(0.,-43.6944270122456,0.238715175806332));
#310=CARTESIAN_POINT('Origin',(0.,0.,0.238715175806332));
#311=CARTESIAN_POINT('',(0.,-43.1719857320493,1.49999999999998));
#312=CARTESIAN_POINT('Origin',(0.,0.,1.49999999999998));
#313=CARTESIAN_POINT('Origin',(0.,-48.0972135061228,0.238715175806333));
#314=CARTESIAN_POINT('',(0.,-52.5,0.238715175806334));
#315=CARTESIAN_POINT('Origin',(0.,0.,0.238715175806334));
#316=CARTESIAN_POINT('Origin',(0.,0.,5.23871517580633));
#317=CARTESIAN_POINT('',(0.,-52.5,10.2387151758063));
#318=CARTESIAN_POINT('Origin',(0.,0.,10.2387151758063));
#319=CARTESIAN_POINT('Origin',(0.,-49.75,10.2387151758063));
#320=CARTESIAN_POINT('',(0.,-47.,10.2387151758063));
#321=CARTESIAN_POINT('Origin',(0.,0.,10.2387151758063));
#322=CARTESIAN_POINT('Origin',(0.,0.,12.2387151758063));
#323=CARTESIAN_POINT('',(0.,-45.,12.2387151758063));
#324=CARTESIAN_POINT('Origin',(0.,0.,12.2387151758063));
#325=CARTESIAN_POINT('Origin',(0.,0.,29.3693575879032));
#326=CARTESIAN_POINT('',(0.,-45.,46.5000000000001));
#327=CARTESIAN_POINT('Origin',(0.,0.,46.5000000000001));
#328=CARTESIAN_POINT('Origin',(0.,0.,46.5000000000001));
#329=CARTESIAN_POINT('',(0.,-44.5,47.0000000000001));
#330=CARTESIAN_POINT('Origin',(0.,0.,47.0000000000001));
#331=CARTESIAN_POINT('Origin',(0.,-41.,47.));
#332=CARTESIAN_POINT('',(0.,-37.5,47.));
#333=CARTESIAN_POINT('Origin',(0.,0.,47.));
#334=CARTESIAN_POINT('Origin',(0.,0.,25.));
#335=CARTESIAN_POINT('',(0.,-37.5,2.99999999999998));
#336=CARTESIAN_POINT('Origin',(0.,0.,2.99999999999998));
#337=CARTESIAN_POINT('Origin',(0.,-35.,2.99999999999997));
#338=CARTESIAN_POINT('',(0.,-32.5,2.99999999999997));
#339=CARTESIAN_POINT('Origin',(0.,0.,2.99999999999997));
#340=CARTESIAN_POINT('Origin',(0.,0.,1.49999999999997));
#341=CARTESIAN_POINT('',(0.,-32.5,-2.33146835171283E-014));
#342=CARTESIAN_POINT('Origin',(0.,0.,-2.33146835171283E-014));
#343=CARTESIAN_POINT('Origin',(0.,-36.2826920071255,-1.87697080100691E-014));
#344=CARTESIAN_POINT('',(0.,-40.0653840142511,-1.42247325030098E-014));
#345=CARTESIAN_POINT('Origin',(0.,0.,-1.41553435639707E-014));
#346=CARTESIAN_POINT('Origin',(0.,0.,0.749999999999985));
#347=CARTESIAN_POINT('',(0.,-40.6867043578107,1.49999999999998));
#348=CARTESIAN_POINT('Origin',(0.,0.,1.49999999999998));
#349=CARTESIAN_POINT('Origin',(0.,0.,0.749999999999975));
#350=CARTESIAN_POINT('',(0.,-41.3080247013704,-3.42781358853017E-014));
#351=CARTESIAN_POINT('Origin',(0.,0.,-3.44169137633799E-014));
#352=CARTESIAN_POINT('Origin',(0.,0.,0.749999999999975));
#353=CARTESIAN_POINT('',(0.,-41.92934504493,1.49999999999998));
#354=CARTESIAN_POINT('Origin',(0.,0.,1.49999999999998));
#355=CARTESIAN_POINT('Origin',(0.,0.,0.749999999999974));
#356=CARTESIAN_POINT('',(0.,-42.5506653884896,-3.69843045078255E-014));
#357=CARTESIAN_POINT('Origin',(0.,0.,-3.69149155687865E-014));
#358=CARTESIAN_POINT('Origin',(0.,0.,0.749999999999974));
#359=UNCERTAINTY_MEASURE_WITH_UNIT(LENGTH_MEASURE(0.01),#361,
'DISTANCE_ACCURACY_VALUE',
'Maximum model space distance between geometric entities at asserted c
onnectivities');
#360=(
GEOMETRIC_REPRESENTATION_CONTEXT(3)
GLOBAL_UNCERTAINTY_ASSIGNED_CONTEXT((#359))
GLOBAL_UNIT_ASSIGNED_CONTEXT((#361,#364,#362))
REPRESENTATION_CONTEXT('','3D')
);
#361=(
LENGTH_UNIT()
NAMED_UNIT(*)
SI_UNIT(.MILLI.,.METRE.)
);
#362=(
NAMED_UNIT(*)
SI_UNIT($,.STERADIAN.)
SOLID_ANGLE_UNIT()
);
#363=DIMENSIONAL_EXPONENTS(0.,0.,0.,0.,0.,0.,0.);
#364=(
CONVERSION_BASED_UNIT('degree',#366)
NAMED_UNIT(#363)
PLANE_ANGLE_UNIT()
);
#365=(
NAMED_UNIT(*)
PLANE_ANGLE_UNIT()
SI_UNIT($,.RADIAN.)
);
#366=PLANE_ANGLE_MEASURE_WITH_UNIT(PLANE_ANGLE_MEASURE(0.01745329252),#365);
#367=SHAPE_DEFINITION_REPRESENTATION(#368,#369);
#368=PRODUCT_DEFINITION_SHAPE('',$,#371);
#369=SHAPE_REPRESENTATION('',(#202),#360);
#370=PRODUCT_DEFINITION_CONTEXT('3D Mechanical Parts',#374,'design');
#371=PRODUCT_DEFINITION('QRV075','QRV075',#372,#370);
#372=PRODUCT_DEFINITION_FORMATION('',$,#376);
#373=APPLICATION_PROTOCOL_DEFINITION('international standard',
'automotive_design',2009,#374);
#374=APPLICATION_CONTEXT(
'Core Data for Automotive Mechanical Design Process');
#375=PRODUCT_CONTEXT('3D Mechanical Parts',#374,'mechanical');
#376=PRODUCT('QRV075','QRV075',$,(#375));
#377=PRESENTATION_STYLE_ASSIGNMENT((#378));
#378=SURFACE_STYLE_USAGE(.BOTH.,#379);
#379=SURFACE_SIDE_STYLE($,(#380));
#380=SURFACE_STYLE_FILL_AREA(#381);
#381=FILL_AREA_STYLE($,(#382));
#382=FILL_AREA_STYLE_COLOUR($,#383);
#383=COLOUR_RGB('',0.509803921568627,0.509803921568627,0.588235294117647);
ENDSEC;
END-ISO-10303-21;
