ISO-10303-21;
HEADER;
FILE_DESCRIPTION( ( 'STEP AP214' ), '1' );
FILE_NAME( 'p:/temp/worker_22/temp/exporttempdir_5076_800_c52T9/format_0/AGRU_11194906471_Poly-Flo Stub Flange_Flow-Through_PPR grey_90_63  SDR17_11 (architecture400).stp', '2022-02-02T07:03:08', ( 'License CC BY-ND 4.0' ), ( 'CADENAS' ), ' ', 'PARTsolutions', ' ' );
FILE_SCHEMA( ( 'AUTOMOTIVE_DESIGN { 1 0 10303 214 1 1 1 1 }' ) );
ENDSEC;
DATA;
#1 = MECHANICAL_DESIGN_GEOMETRIC_PRESENTATION_REPRESENTATION( ' ', ( #10, #11, #12, #13, #14, #15, #16, #17, #18, #19, #20, #21, #22, #23, #24, #25 ), #6 );
#2 = PRODUCT_DEFINITION_CONTEXT( '', #26, 'design' );
#3 = APPLICATION_PROTOCOL_DEFINITION( 'international standard', 'automotive_design', 2001, #26 );
#4 = PRODUCT_CATEGORY_RELATIONSHIP( 'NONE', 'NONE', #27, #28 );
#5 = SHAPE_DEFINITION_REPRESENTATION( #29, #30 );
#6 =  ( GEOMETRIC_REPRESENTATION_CONTEXT( 3 )GLOBAL_UNCERTAINTY_ASSIGNED_CONTEXT( ( #33 ) )GLOBAL_UNIT_ASSIGNED_CONTEXT( ( #35, #36, #37 ) )REPRESENTATION_CONTEXT( 'NONE', 'WORKSPACE' ) );
#10 = STYLED_ITEM( '', ( #39 ), #40 );
#11 = STYLED_ITEM( '', ( #41 ), #42 );
#12 = STYLED_ITEM( '', ( #43 ), #44 );
#13 = STYLED_ITEM( '', ( #45 ), #46 );
#14 = STYLED_ITEM( '', ( #47 ), #48 );
#15 = STYLED_ITEM( '', ( #49 ), #50 );
#16 = STYLED_ITEM( '', ( #51 ), #52 );
#17 = STYLED_ITEM( '', ( #53 ), #54 );
#18 = STYLED_ITEM( '', ( #55 ), #56 );
#19 = STYLED_ITEM( '', ( #57 ), #58 );
#20 = STYLED_ITEM( '', ( #59 ), #60 );
#21 = STYLED_ITEM( '', ( #61 ), #62 );
#22 = STYLED_ITEM( '', ( #63 ), #64 );
#23 = STYLED_ITEM( '', ( #65 ), #66 );
#24 = STYLED_ITEM( '', ( #67 ), #68 );
#25 = STYLED_ITEM( '', ( #69 ), #70 );
#26 = APPLICATION_CONTEXT( 'core data for automotive mechanical design processes' );
#27 = PRODUCT_CATEGORY( 'part', 'NONE' );
#28 = PRODUCT_RELATED_PRODUCT_CATEGORY( 'detail', ' ', ( #71 ) );
#29 = PRODUCT_DEFINITION_SHAPE( 'NONE', 'NONE', #72 );
#30 = ADVANCED_BREP_SHAPE_REPRESENTATION( '_AGRU_11194906471_Poly-Flo Stub Flange_Flow-Through_PPR grey_90/63  SDR17/11 (architecture400)', ( #73, #74 ), #6 );
#33 = UNCERTAINTY_MEASURE_WITH_UNIT( LENGTH_MEASURE( 0.00100000000000000 ), #35, '', '' );
#35 =  ( CONVERSION_BASED_UNIT( 'MILLIMETRE', #77 )LENGTH_UNIT(  )NAMED_UNIT( #80 ) );
#36 =  ( NAMED_UNIT( #82 )PLANE_ANGLE_UNIT(  )SI_UNIT( $, .RADIAN. ) );
#37 =  ( NAMED_UNIT( #82 )SI_UNIT( $, .STERADIAN. )SOLID_ANGLE_UNIT(  ) );
#39 = PRESENTATION_STYLE_ASSIGNMENT( ( #88 ) );
#40 = ADVANCED_FACE( '', ( #89, #90 ), #91, .F. );
#41 = PRESENTATION_STYLE_ASSIGNMENT( ( #92 ) );
#42 = ADVANCED_FACE( '', ( #93, #94 ), #95, .T. );
#43 = PRESENTATION_STYLE_ASSIGNMENT( ( #96 ) );
#44 = ADVANCED_FACE( '', ( #97, #98 ), #99, .F. );
#45 = PRESENTATION_STYLE_ASSIGNMENT( ( #100 ) );
#46 = ADVANCED_FACE( '', ( #101, #102 ), #103, .T. );
#47 = PRESENTATION_STYLE_ASSIGNMENT( ( #104 ) );
#48 = ADVANCED_FACE( '', ( #105, #106 ), #107, .T. );
#49 = PRESENTATION_STYLE_ASSIGNMENT( ( #108 ) );
#50 = ADVANCED_FACE( '', ( #109, #110 ), #111, .T. );
#51 = PRESENTATION_STYLE_ASSIGNMENT( ( #112 ) );
#52 = ADVANCED_FACE( '', ( #113, #114 ), #115, .F. );
#53 = PRESENTATION_STYLE_ASSIGNMENT( ( #116 ) );
#54 = ADVANCED_FACE( '', ( #117, #118, #119, #120 ), #121, .T. );
#55 = PRESENTATION_STYLE_ASSIGNMENT( ( #122 ) );
#56 = ADVANCED_FACE( '', ( #123, #124 ), #125, .F. );
#57 = PRESENTATION_STYLE_ASSIGNMENT( ( #126 ) );
#58 = ADVANCED_FACE( '', ( #127, #128 ), #129, .F. );
#59 = PRESENTATION_STYLE_ASSIGNMENT( ( #130 ) );
#60 = ADVANCED_FACE( '', ( #131, #132 ), #133, .T. );
#61 = PRESENTATION_STYLE_ASSIGNMENT( ( #134 ) );
#62 = ADVANCED_FACE( '', ( #135, #136 ), #137, .F. );
#63 = PRESENTATION_STYLE_ASSIGNMENT( ( #138 ) );
#64 = ADVANCED_FACE( '', ( #139, #140 ), #141, .T. );
#65 = PRESENTATION_STYLE_ASSIGNMENT( ( #142 ) );
#66 = ADVANCED_FACE( '', ( #143, #144 ), #145, .F. );
#67 = PRESENTATION_STYLE_ASSIGNMENT( ( #146 ) );
#68 = ADVANCED_FACE( '', ( #147, #148 ), #149, .T. );
#69 = PRESENTATION_STYLE_ASSIGNMENT( ( #150 ) );
#70 = ADVANCED_FACE( '', ( #151, #152, #153, #154 ), #155, .T. );
#71 = PRODUCT( '_AGRU_11194906471_Poly-Flo Stub Flange_Flow-Through_PPR grey_90/63  SDR17/11 (architecture400)', '_AGRU_11194906471_Poly-Flo Stub Flange_Flow-Through_PPR grey_90/63  SDR17/11 (architecture400)', 'PART-_AGRU_11194906471_Poly-Flo Stub Flange_Flow-Through_PPR grey_90/63  SDR17/11 (architecture400)-DESC', ( #156 ) );
#72 = PRODUCT_DEFINITION( 'NONE', 'NONE', #157, #2 );
#73 = MANIFOLD_SOLID_BREP( '_AGRU_11194906471_Poly-Flo Stub Flange_Flow-Through_PPR grey_90/63  SDR17/11 (architecture400)', #158 );
#74 = AXIS2_PLACEMENT_3D( '', #159, #160, #161 );
#77 = LENGTH_MEASURE_WITH_UNIT( LENGTH_MEASURE( 1.00000000000000 ), #162 );
#80 = DIMENSIONAL_EXPONENTS( 1.00000000000000, 0.000000000000000, 0.000000000000000, 0.000000000000000, 0.000000000000000, 0.000000000000000, 0.000000000000000 );
#82 = DIMENSIONAL_EXPONENTS( 0.000000000000000, 0.000000000000000, 0.000000000000000, 0.000000000000000, 0.000000000000000, 0.000000000000000, 0.000000000000000 );
#88 = SURFACE_STYLE_USAGE( .BOTH., #163 );
#89 = FACE_OUTER_BOUND( '', #164, .T. );
#90 = FACE_OUTER_BOUND( '', #165, .T. );
#91 = CYLINDRICAL_SURFACE( '', #166, 2.04968777510000 );
#92 = SURFACE_STYLE_USAGE( .BOTH., #167 );
#93 = FACE_BOUND( '', #168, .T. );
#94 = FACE_OUTER_BOUND( '', #169, .T. );
#95 = PLANE( '', #170 );
#96 = SURFACE_STYLE_USAGE( .BOTH., #171 );
#97 = FACE_OUTER_BOUND( '', #172, .T. );
#98 = FACE_OUTER_BOUND( '', #173, .T. );
#99 = TOROIDAL_SURFACE( '', #174, 37.6200000000000, 1.98000000000000 );
#100 = SURFACE_STYLE_USAGE( .BOTH., #175 );
#101 = FACE_BOUND( '', #176, .T. );
#102 = FACE_OUTER_BOUND( '', #177, .T. );
#103 = CONICAL_SURFACE( '', #178, 52.1212678125000, 0.244978663100000 );
#104 = SURFACE_STYLE_USAGE( .BOTH., #179 );
#105 = FACE_BOUND( '', #180, .T. );
#106 = FACE_OUTER_BOUND( '', #181, .T. );
#107 = PLANE( '', #182 );
#108 = SURFACE_STYLE_USAGE( .BOTH., #183 );
#109 = FACE_BOUND( '', #184, .T. );
#110 = FACE_OUTER_BOUND( '', #185, .T. );
#111 = PLANE( '', #186 );
#112 = SURFACE_STYLE_USAGE( .BOTH., #187 );
#113 = FACE_OUTER_BOUND( '', #188, .T. );
#114 = FACE_OUTER_BOUND( '', #189, .T. );
#115 = TOROIDAL_SURFACE( '', #190, 54.0615528128000, 2.00000000000000 );
#116 = SURFACE_STYLE_USAGE( .BOTH., #191 );
#117 = FACE_BOUND( '', #192, .T. );
#118 = FACE_BOUND( '', #193, .T. );
#119 = FACE_BOUND( '', #194, .T. );
#120 = FACE_OUTER_BOUND( '', #195, .T. );
#121 = PLANE( '', #196 );
#122 = SURFACE_STYLE_USAGE( .BOTH., #197 );
#123 = FACE_OUTER_BOUND( '', #198, .T. );
#124 = FACE_OUTER_BOUND( '', #199, .T. );
#125 = TOROIDAL_SURFACE( '', #200, 33.4800000000000, 1.98000000000000 );
#126 = SURFACE_STYLE_USAGE( .BOTH., #201 );
#127 = FACE_OUTER_BOUND( '', #202, .T. );
#128 = FACE_OUTER_BOUND( '', #203, .T. );
#129 = CYLINDRICAL_SURFACE( '', #204, 25.7000000000000 );
#130 = SURFACE_STYLE_USAGE( .BOTH., #205 );
#131 = FACE_OUTER_BOUND( '', #206, .T. );
#132 = FACE_OUTER_BOUND( '', #207, .T. );
#133 = CYLINDRICAL_SURFACE( '', #208, 31.5000000000000 );
#134 = SURFACE_STYLE_USAGE( .BOTH., #209 );
#135 = FACE_OUTER_BOUND( '', #210, .T. );
#136 = FACE_OUTER_BOUND( '', #211, .T. );
#137 = CYLINDRICAL_SURFACE( '', #212, 39.6000000000000 );
#138 = SURFACE_STYLE_USAGE( .BOTH., #213 );
#139 = FACE_OUTER_BOUND( '', #214, .T. );
#140 = FACE_OUTER_BOUND( '', #215, .T. );
#141 = CYLINDRICAL_SURFACE( '', #216, 69.0000000000000 );
#142 = SURFACE_STYLE_USAGE( .BOTH., #217 );
#143 = FACE_OUTER_BOUND( '', #218, .T. );
#144 = FACE_OUTER_BOUND( '', #219, .T. );
#145 = CYLINDRICAL_SURFACE( '', #220, 2.04968777510000 );
#146 = SURFACE_STYLE_USAGE( .BOTH., #221 );
#147 = FACE_OUTER_BOUND( '', #222, .T. );
#148 = FACE_OUTER_BOUND( '', #223, .T. );
#149 = CYLINDRICAL_SURFACE( '', #224, 45.0000000000000 );
#150 = SURFACE_STYLE_USAGE( .BOTH., #225 );
#151 = FACE_OUTER_BOUND( '', #226, .T. );
#152 = FACE_BOUND( '', #227, .T. );
#153 = FACE_BOUND( '', #228, .T. );
#154 = FACE_BOUND( '', #229, .T. );
#155 = PLANE( '', #230 );
#156 = PRODUCT_CONTEXT( '', #26, 'mechanical' );
#157 = PRODUCT_DEFINITION_FORMATION_WITH_SPECIFIED_SOURCE( ' ', 'NONE', #71, .NOT_KNOWN. );
#158 = CLOSED_SHELL( '', ( #40, #66, #70, #48, #58, #64, #60, #56, #54, #44, #62, #42, #68, #46, #52, #50 ) );
#159 = CARTESIAN_POINT( '', ( 0.000000000000000, 0.000000000000000, 0.000000000000000 ) );
#160 = DIRECTION( '', ( 0.000000000000000, 0.000000000000000, 1.00000000000000 ) );
#161 = DIRECTION( '', ( 1.00000000000000, 0.000000000000000, 0.000000000000000 ) );
#162 =  ( LENGTH_UNIT(  )NAMED_UNIT( #80 )SI_UNIT( .MILLI., .METRE. ) );
#163 = SURFACE_SIDE_STYLE( '', ( #232 ) );
#164 = EDGE_LOOP( '', ( #233 ) );
#165 = EDGE_LOOP( '', ( #234 ) );
#166 = AXIS2_PLACEMENT_3D( '', #235, #236, #237 );
#167 = SURFACE_SIDE_STYLE( '', ( #238 ) );
#168 = EDGE_LOOP( '', ( #239 ) );
#169 = EDGE_LOOP( '', ( #240 ) );
#170 = AXIS2_PLACEMENT_3D( '', #241, #242, #243 );
#171 = SURFACE_SIDE_STYLE( '', ( #244 ) );
#172 = EDGE_LOOP( '', ( #245 ) );
#173 = EDGE_LOOP( '', ( #246 ) );
#174 = AXIS2_PLACEMENT_3D( '', #247, #248, #249 );
#175 = SURFACE_SIDE_STYLE( '', ( #250 ) );
#176 = EDGE_LOOP( '', ( #251 ) );
#177 = EDGE_LOOP( '', ( #252 ) );
#178 = AXIS2_PLACEMENT_3D( '', #253, #254, #255 );
#179 = SURFACE_SIDE_STYLE( '', ( #256 ) );
#180 = EDGE_LOOP( '', ( #257 ) );
#181 = EDGE_LOOP( '', ( #258 ) );
#182 = AXIS2_PLACEMENT_3D( '', #259, #260, #261 );
#183 = SURFACE_SIDE_STYLE( '', ( #262 ) );
#184 = EDGE_LOOP( '', ( #263 ) );
#185 = EDGE_LOOP( '', ( #264 ) );
#186 = AXIS2_PLACEMENT_3D( '', #265, #266, #267 );
#187 = SURFACE_SIDE_STYLE( '', ( #268 ) );
#188 = EDGE_LOOP( '', ( #269 ) );
#189 = EDGE_LOOP( '', ( #270 ) );
#190 = AXIS2_PLACEMENT_3D( '', #271, #272, #273 );
#191 = SURFACE_SIDE_STYLE( '', ( #274 ) );
#192 = EDGE_LOOP( '', ( #275 ) );
#193 = EDGE_LOOP( '', ( #276 ) );
#194 = EDGE_LOOP( '', ( #277 ) );
#195 = EDGE_LOOP( '', ( #278 ) );
#196 = AXIS2_PLACEMENT_3D( '', #279, #280, #281 );
#197 = SURFACE_SIDE_STYLE( '', ( #282 ) );
#198 = EDGE_LOOP( '', ( #283 ) );
#199 = EDGE_LOOP( '', ( #284 ) );
#200 = AXIS2_PLACEMENT_3D( '', #285, #286, #287 );
#201 = SURFACE_SIDE_STYLE( '', ( #288 ) );
#202 = EDGE_LOOP( '', ( #289 ) );
#203 = EDGE_LOOP( '', ( #290 ) );
#204 = AXIS2_PLACEMENT_3D( '', #291, #292, #293 );
#205 = SURFACE_SIDE_STYLE( '', ( #294 ) );
#206 = EDGE_LOOP( '', ( #295 ) );
#207 = EDGE_LOOP( '', ( #296 ) );
#208 = AXIS2_PLACEMENT_3D( '', #297, #298, #299 );
#209 = SURFACE_SIDE_STYLE( '', ( #300 ) );
#210 = EDGE_LOOP( '', ( #301 ) );
#211 = EDGE_LOOP( '', ( #302 ) );
#212 = AXIS2_PLACEMENT_3D( '', #303, #304, #305 );
#213 = SURFACE_SIDE_STYLE( '', ( #306 ) );
#214 = EDGE_LOOP( '', ( #307 ) );
#215 = EDGE_LOOP( '', ( #308 ) );
#216 = AXIS2_PLACEMENT_3D( '', #309, #310, #311 );
#217 = SURFACE_SIDE_STYLE( '', ( #312 ) );
#218 = EDGE_LOOP( '', ( #313 ) );
#219 = EDGE_LOOP( '', ( #314 ) );
#220 = AXIS2_PLACEMENT_3D( '', #315, #316, #317 );
#221 = SURFACE_SIDE_STYLE( '', ( #318 ) );
#222 = EDGE_LOOP( '', ( #319 ) );
#223 = EDGE_LOOP( '', ( #320 ) );
#224 = AXIS2_PLACEMENT_3D( '', #321, #322, #323 );
#225 = SURFACE_SIDE_STYLE( '', ( #324 ) );
#226 = EDGE_LOOP( '', ( #325 ) );
#227 = EDGE_LOOP( '', ( #326 ) );
#228 = EDGE_LOOP( '', ( #327 ) );
#229 = EDGE_LOOP( '', ( #328 ) );
#230 = AXIS2_PLACEMENT_3D( '', #329, #330, #331 );
#232 = SURFACE_STYLE_FILL_AREA( #332 );
#233 = ORIENTED_EDGE( '', *, *, #333, .F. );
#234 = ORIENTED_EDGE( '', *, *, #334, .F. );
#235 = CARTESIAN_POINT( '', ( 17.8482719841200, 0.000000000000000, -35.5506244023054 ) );
#236 = DIRECTION( '', ( 0.999847695156391, 0.000000000000000, -0.0174524064372836 ) );
#237 = DIRECTION( '', ( 0.0174524064372836, 0.000000000000000, 0.999847695156391 ) );
#238 = SURFACE_STYLE_FILL_AREA( #335 );
#239 = ORIENTED_EDGE( '', *, *, #336, .T. );
#240 = ORIENTED_EDGE( '', *, *, #337, .F. );
#241 = CARTESIAN_POINT( '', ( 10.0000000000000, 0.000000000000000, 45.0000000000000 ) );
#242 = DIRECTION( '', ( -1.00000000000000, 0.000000000000000, 0.000000000000000 ) );
#243 = DIRECTION( '', ( 0.000000000000000, 0.000000000000000, 1.00000000000000 ) );
#244 = SURFACE_STYLE_FILL_AREA( #338 );
#245 = ORIENTED_EDGE( '', *, *, #339, .F. );
#246 = ORIENTED_EDGE( '', *, *, #340, .T. );
#247 = CARTESIAN_POINT( '', ( 16.3533333333333, 0.000000000000000, 0.000000000000000 ) );
#248 = DIRECTION( '', ( 1.00000000000000, 0.000000000000000, -0.000000000000000 ) );
#249 = DIRECTION( '', ( -0.000000000000000, 0.000000000000000, -1.00000000000000 ) );
#250 = SURFACE_STYLE_FILL_AREA( #341 );
#251 = ORIENTED_EDGE( '', *, *, #342, .T. );
#252 = ORIENTED_EDGE( '', *, *, #343, .F. );
#253 = CARTESIAN_POINT( '', ( 63.4850712500727, 0.000000000000000, 0.000000000000000 ) );
#254 = DIRECTION( '', ( 1.00000000000000, -0.000000000000000, -0.000000000000000 ) );
#255 = DIRECTION( '', ( -0.000000000000000, 0.000000000000000, -1.00000000000000 ) );
#256 = SURFACE_STYLE_FILL_AREA( #344 );
#257 = ORIENTED_EDGE( '', *, *, #345, .T. );
#258 = ORIENTED_EDGE( '', *, *, #346, .F. );
#259 = CARTESIAN_POINT( '', ( 0.000000000000000, 0.000000000000000, 31.5000000000000 ) );
#260 = DIRECTION( '', ( -1.00000000000000, 0.000000000000000, 0.000000000000000 ) );
#261 = DIRECTION( '', ( 0.000000000000000, 0.000000000000000, 1.00000000000000 ) );
#262 = SURFACE_STYLE_FILL_AREA( #347 );
#263 = ORIENTED_EDGE( '', *, *, #348, .T. );
#264 = ORIENTED_EDGE( '', *, *, #349, .F. );
#265 = CARTESIAN_POINT( '', ( 65.0000000000000, 0.000000000000000, 69.0000000000000 ) );
#266 = DIRECTION( '', ( -1.00000000000000, 0.000000000000000, 0.000000000000000 ) );
#267 = DIRECTION( '', ( 0.000000000000000, 0.000000000000000, 1.00000000000000 ) );
#268 = SURFACE_STYLE_FILL_AREA( #350 );
#269 = ORIENTED_EDGE( '', *, *, #348, .F. );
#270 = ORIENTED_EDGE( '', *, *, #343, .T. );
#271 = CARTESIAN_POINT( '', ( 63.0000000000001, 0.000000000000000, 0.000000000000000 ) );
#272 = DIRECTION( '', ( 1.00000000000000, 0.000000000000000, -0.000000000000000 ) );
#273 = DIRECTION( '', ( -0.000000000000000, 0.000000000000000, -1.00000000000000 ) );
#274 = SURFACE_STYLE_FILL_AREA( #351 );
#275 = ORIENTED_EDGE( '', *, *, #352, .T. );
#276 = ORIENTED_EDGE( '', *, *, #353, .T. );
#277 = ORIENTED_EDGE( '', *, *, #333, .T. );
#278 = ORIENTED_EDGE( '', *, *, #340, .F. );
#279 = CARTESIAN_POINT( '', ( 18.3333333333333, 0.000000000000000, 37.6200000000000 ) );
#280 = DIRECTION( '', ( -1.00000000000000, 0.000000000000000, 0.000000000000000 ) );
#281 = DIRECTION( '', ( 0.000000000000000, 0.000000000000000, 1.00000000000000 ) );
#282 = SURFACE_STYLE_FILL_AREA( #354 );
#283 = ORIENTED_EDGE( '', *, *, #352, .F. );
#284 = ORIENTED_EDGE( '', *, *, #355, .T. );
#285 = CARTESIAN_POINT( '', ( 16.3533333333333, 0.000000000000000, 0.000000000000000 ) );
#286 = DIRECTION( '', ( 1.00000000000000, 0.000000000000000, -0.000000000000000 ) );
#287 = DIRECTION( '', ( -0.000000000000000, 0.000000000000000, -1.00000000000000 ) );
#288 = SURFACE_STYLE_FILL_AREA( #356 );
#289 = ORIENTED_EDGE( '', *, *, #357, .T. );
#290 = ORIENTED_EDGE( '', *, *, #345, .F. );
#291 = CARTESIAN_POINT( '', ( 82.0000000000000, 0.000000000000000, 0.000000000000000 ) );
#292 = DIRECTION( '', ( -1.00000000000000, -0.000000000000000, 0.000000000000000 ) );
#293 = DIRECTION( '', ( -0.000000000000000, 0.000000000000000, -1.00000000000000 ) );
#294 = SURFACE_STYLE_FILL_AREA( #358 );
#295 = ORIENTED_EDGE( '', *, *, #346, .T. );
#296 = ORIENTED_EDGE( '', *, *, #355, .F. );
#297 = CARTESIAN_POINT( '', ( 82.0000000000000, 0.000000000000000, 0.000000000000000 ) );
#298 = DIRECTION( '', ( -1.00000000000000, -0.000000000000000, 0.000000000000000 ) );
#299 = DIRECTION( '', ( -0.000000000000000, 0.000000000000000, -1.00000000000000 ) );
#300 = SURFACE_STYLE_FILL_AREA( #359 );
#301 = ORIENTED_EDGE( '', *, *, #339, .T. );
#302 = ORIENTED_EDGE( '', *, *, #336, .F. );
#303 = CARTESIAN_POINT( '', ( 82.0000000000000, 0.000000000000000, 0.000000000000000 ) );
#304 = DIRECTION( '', ( -1.00000000000000, -0.000000000000000, 0.000000000000000 ) );
#305 = DIRECTION( '', ( -0.000000000000000, 0.000000000000000, -1.00000000000000 ) );
#306 = SURFACE_STYLE_FILL_AREA( #360 );
#307 = ORIENTED_EDGE( '', *, *, #349, .T. );
#308 = ORIENTED_EDGE( '', *, *, #361, .F. );
#309 = CARTESIAN_POINT( '', ( 82.0000000000000, 0.000000000000000, 0.000000000000000 ) );
#310 = DIRECTION( '', ( -1.00000000000000, -0.000000000000000, 0.000000000000000 ) );
#311 = DIRECTION( '', ( -0.000000000000000, 0.000000000000000, -1.00000000000000 ) );
#312 = SURFACE_STYLE_FILL_AREA( #362 );
#313 = ORIENTED_EDGE( '', *, *, #363, .F. );
#314 = ORIENTED_EDGE( '', *, *, #353, .F. );
#315 = CARTESIAN_POINT( '', ( 82.0357719841201, 0.000000000000000, 36.6710213823854 ) );
#316 = DIRECTION( '', ( -0.999847695156391, 0.000000000000000, -0.0174524064372836 ) );
#317 = DIRECTION( '', ( 0.0174524064372836, 0.000000000000000, -0.999847695156391 ) );
#318 = SURFACE_STYLE_FILL_AREA( #364 );
#319 = ORIENTED_EDGE( '', *, *, #337, .T. );
#320 = ORIENTED_EDGE( '', *, *, #342, .F. );
#321 = CARTESIAN_POINT( '', ( 82.0000000000000, 0.000000000000000, 0.000000000000000 ) );
#322 = DIRECTION( '', ( -1.00000000000000, -0.000000000000000, 0.000000000000000 ) );
#323 = DIRECTION( '', ( -0.000000000000000, 0.000000000000000, -1.00000000000000 ) );
#324 = SURFACE_STYLE_FILL_AREA( #365 );
#325 = ORIENTED_EDGE( '', *, *, #361, .T. );
#326 = ORIENTED_EDGE( '', *, *, #363, .T. );
#327 = ORIENTED_EDGE( '', *, *, #334, .T. );
#328 = ORIENTED_EDGE( '', *, *, #357, .F. );
#329 = CARTESIAN_POINT( '', ( 82.0000000000000, 0.000000000000000, 25.7000000000000 ) );
#330 = DIRECTION( '', ( 1.00000000000000, 0.000000000000000, -0.000000000000000 ) );
#331 = DIRECTION( '', ( -0.000000000000000, 0.000000000000000, -1.00000000000000 ) );
#332 = FILL_AREA_STYLE( '', ( #366 ) );
#333 = EDGE_CURVE( '', #367, #367, #368, .F. );
#334 = EDGE_CURVE( '', #369, #369, #370, .F. );
#335 = FILL_AREA_STYLE( '', ( #371 ) );
#336 = EDGE_CURVE( '', #372, #372, #373, .T. );
#337 = EDGE_CURVE( '', #374, #374, #375, .T. );
#338 = FILL_AREA_STYLE( '', ( #376 ) );
#339 = EDGE_CURVE( '', #377, #377, #378, .T. );
#340 = EDGE_CURVE( '', #379, #379, #380, .T. );
#341 = FILL_AREA_STYLE( '', ( #381 ) );
#342 = EDGE_CURVE( '', #382, #382, #383, .T. );
#343 = EDGE_CURVE( '', #384, #384, #385, .T. );
#344 = FILL_AREA_STYLE( '', ( #386 ) );
#345 = EDGE_CURVE( '', #387, #387, #388, .T. );
#346 = EDGE_CURVE( '', #389, #389, #390, .T. );
#347 = FILL_AREA_STYLE( '', ( #391 ) );
#348 = EDGE_CURVE( '', #392, #392, #393, .T. );
#349 = EDGE_CURVE( '', #394, #394, #395, .T. );
#350 = FILL_AREA_STYLE( '', ( #396 ) );
#351 = FILL_AREA_STYLE( '', ( #397 ) );
#352 = EDGE_CURVE( '', #398, #398, #399, .T. );
#353 = EDGE_CURVE( '', #400, #400, #401, .F. );
#354 = FILL_AREA_STYLE( '', ( #402 ) );
#355 = EDGE_CURVE( '', #403, #403, #404, .T. );
#356 = FILL_AREA_STYLE( '', ( #405 ) );
#357 = EDGE_CURVE( '', #406, #406, #407, .T. );
#358 = FILL_AREA_STYLE( '', ( #408 ) );
#359 = FILL_AREA_STYLE( '', ( #409 ) );
#360 = FILL_AREA_STYLE( '', ( #410 ) );
#361 = EDGE_CURVE( '', #411, #411, #412, .T. );
#362 = FILL_AREA_STYLE( '', ( #413 ) );
#363 = EDGE_CURVE( '', #414, #414, #415, .F. );
#364 = FILL_AREA_STYLE( '', ( #416 ) );
#365 = FILL_AREA_STYLE( '', ( #417 ) );
#366 = FILL_AREA_STYLE_COLOUR( '', #418 );
#367 = VERTEX_POINT( '', #419 );
#368 = ELLIPSE( '', #420, 2.05000000000000, 2.04968777510000 );
#369 = VERTEX_POINT( '', #421 );
#370 = ELLIPSE( '', #422, 2.05000000000000, 2.04968777510000 );
#371 = FILL_AREA_STYLE_COLOUR( '', #423 );
#372 = VERTEX_POINT( '', #424 );
#373 = CIRCLE( '', #425, 39.6000000000000 );
#374 = VERTEX_POINT( '', #426 );
#375 = CIRCLE( '', #427, 45.0000000000000 );
#376 = FILL_AREA_STYLE_COLOUR( '', #428 );
#377 = VERTEX_POINT( '', #429 );
#378 = CIRCLE( '', #430, 39.6000000000000 );
#379 = VERTEX_POINT( '', #431 );
#380 = CIRCLE( '', #432, 37.6200000000000 );
#381 = FILL_AREA_STYLE_COLOUR( '', #433 );
#382 = VERTEX_POINT( '', #434 );
#383 = CIRCLE( '', #435, 45.0000000000000 );
#384 = VERTEX_POINT( '', #436 );
#385 = CIRCLE( '', #437, 52.1212678125000 );
#386 = FILL_AREA_STYLE_COLOUR( '', #438 );
#387 = VERTEX_POINT( '', #439 );
#388 = CIRCLE( '', #440, 25.7000000000000 );
#389 = VERTEX_POINT( '', #441 );
#390 = CIRCLE( '', #442, 31.5000000000000 );
#391 = FILL_AREA_STYLE_COLOUR( '', #443 );
#392 = VERTEX_POINT( '', #444 );
#393 = CIRCLE( '', #445, 54.0615528128000 );
#394 = VERTEX_POINT( '', #446 );
#395 = CIRCLE( '', #447, 69.0000000000000 );
#396 = FILL_AREA_STYLE_COLOUR( '', #448 );
#397 = FILL_AREA_STYLE_COLOUR( '', #449 );
#398 = VERTEX_POINT( '', #450 );
#399 = CIRCLE( '', #451, 33.4800000000000 );
#400 = VERTEX_POINT( '', #452 );
#401 = ELLIPSE( '', #453, 2.05000000000000, 2.04968777510000 );
#402 = FILL_AREA_STYLE_COLOUR( '', #454 );
#403 = VERTEX_POINT( '', #455 );
#404 = CIRCLE( '', #456, 31.5000000000000 );
#405 = FILL_AREA_STYLE_COLOUR( '', #457 );
#406 = VERTEX_POINT( '', #458 );
#407 = CIRCLE( '', #459, 25.7000000000000 );
#408 = FILL_AREA_STYLE_COLOUR( '', #460 );
#409 = FILL_AREA_STYLE_COLOUR( '', #461 );
#410 = FILL_AREA_STYLE_COLOUR( '', #462 );
#411 = VERTEX_POINT( '', #463 );
#412 = CIRCLE( '', #464, 69.0000000000000 );
#413 = FILL_AREA_STYLE_COLOUR( '', #465 );
#414 = VERTEX_POINT( '', #466 );
#415 = ELLIPSE( '', #467, 2.05000000000000, 2.04968777510000 );
#416 = FILL_AREA_STYLE_COLOUR( '', #468 );
#417 = FILL_AREA_STYLE_COLOUR( '', #469 );
#418 = COLOUR_RGB( '', 0.713725507300000, 0.709803938900000, 0.650980413000000 );
#419 = CARTESIAN_POINT( '', ( 18.3333333333333, 0.000000000000000, -33.5090911796501 ) );
#420 = AXIS2_PLACEMENT_3D( '', #470, #471, #472 );
#421 = CARTESIAN_POINT( '', ( 82.0000000000000, 0.000000000000000, -34.6203969800800 ) );
#422 = AXIS2_PLACEMENT_3D( '', #473, #474, #475 );
#423 = COLOUR_RGB( '', 0.713725507300000, 0.709803938900000, 0.650980413000000 );
#424 = CARTESIAN_POINT( '', ( 9.99999999999999, 0.000000000000000, -39.6000000000000 ) );
#425 = AXIS2_PLACEMENT_3D( '', #476, #477, #478 );
#426 = CARTESIAN_POINT( '', ( 9.99999999999999, 0.000000000000000, -45.0000000000000 ) );
#427 = AXIS2_PLACEMENT_3D( '', #479, #480, #481 );
#428 = COLOUR_RGB( '', 0.713725507300000, 0.709803938900000, 0.650980413000000 );
#429 = CARTESIAN_POINT( '', ( 16.3533333333333, 0.000000000000000, -39.6000000000000 ) );
#430 = AXIS2_PLACEMENT_3D( '', #482, #483, #484 );
#431 = CARTESIAN_POINT( '', ( 18.3333333333333, 0.000000000000000, -37.6200000000000 ) );
#432 = AXIS2_PLACEMENT_3D( '', #485, #486, #487 );
#433 = COLOUR_RGB( '', 0.713725507300000, 0.709803938900000, 0.650980413000000 );
#434 = CARTESIAN_POINT( '', ( 35.0000000000000, 0.000000000000000, -45.0000000000000 ) );
#435 = AXIS2_PLACEMENT_3D( '', #488, #489, #490 );
#436 = CARTESIAN_POINT( '', ( 63.4850712500727, 0.000000000000000, -52.1212678125182 ) );
#437 = AXIS2_PLACEMENT_3D( '', #491, #492, #493 );
#438 = COLOUR_RGB( '', 0.713725507300000, 0.709803938900000, 0.650980413000000 );
#439 = CARTESIAN_POINT( '', ( 0.000000000000000, 0.000000000000000, -25.7000000000000 ) );
#440 = AXIS2_PLACEMENT_3D( '', #494, #495, #496 );
#441 = CARTESIAN_POINT( '', ( 0.000000000000000, 0.000000000000000, -31.5000000000000 ) );
#442 = AXIS2_PLACEMENT_3D( '', #497, #498, #499 );
#443 = COLOUR_RGB( '', 0.713725507300000, 0.709803938900000, 0.650980413000000 );
#444 = CARTESIAN_POINT( '', ( 65.0000000000000, 0.000000000000000, -54.0615528128088 ) );
#445 = AXIS2_PLACEMENT_3D( '', #500, #501, #502 );
#446 = CARTESIAN_POINT( '', ( 65.0000000000000, 0.000000000000000, -69.0000000000000 ) );
#447 = AXIS2_PLACEMENT_3D( '', #503, #504, #505 );
#448 = COLOUR_RGB( '', 0.713725507300000, 0.709803938900000, 0.650980413000000 );
#449 = COLOUR_RGB( '', 0.713725507300000, 0.709803938900000, 0.650980413000000 );
#450 = CARTESIAN_POINT( '', ( 18.3333333333333, 0.000000000000000, -33.4800000000000 ) );
#451 = AXIS2_PLACEMENT_3D( '', #506, #507, #508 );
#452 = CARTESIAN_POINT( '', ( 18.3333333333333, 0.000000000000000, 37.6090911796501 ) );
#453 = AXIS2_PLACEMENT_3D( '', #509, #510, #511 );
#454 = COLOUR_RGB( '', 0.713725507300000, 0.709803938900000, 0.650980413000000 );
#455 = CARTESIAN_POINT( '', ( 16.3533333333333, 0.000000000000000, -31.5000000000000 ) );
#456 = AXIS2_PLACEMENT_3D( '', #512, #513, #514 );
#457 = COLOUR_RGB( '', 0.713725507300000, 0.709803938900000, 0.650980413000000 );
#458 = CARTESIAN_POINT( '', ( 82.0000000000000, 0.000000000000000, -25.7000000000000 ) );
#459 = AXIS2_PLACEMENT_3D( '', #515, #516, #517 );
#460 = COLOUR_RGB( '', 0.713725507300000, 0.709803938900000, 0.650980413000000 );
#461 = COLOUR_RGB( '', 0.713725507300000, 0.709803938900000, 0.650980413000000 );
#462 = COLOUR_RGB( '', 0.713725507300000, 0.709803938900000, 0.650980413000000 );
#463 = CARTESIAN_POINT( '', ( 82.0000000000000, 0.000000000000000, -69.0000000000000 ) );
#464 = AXIS2_PLACEMENT_3D( '', #518, #519, #520 );
#465 = COLOUR_RGB( '', 0.713725507300000, 0.709803938900000, 0.650980413000000 );
#466 = CARTESIAN_POINT( '', ( 82.0000000000000, 0.000000000000000, 38.7203969800800 ) );
#467 = AXIS2_PLACEMENT_3D( '', #521, #522, #523 );
#468 = COLOUR_RGB( '', 0.713725507300000, 0.709803938900000, 0.650980413000000 );
#469 = COLOUR_RGB( '', 0.713725507300000, 0.709803938900000, 0.650980413000000 );
#470 = CARTESIAN_POINT( '', ( 18.3333333333333, 0.000000000000000, -35.5590911796501 ) );
#471 = DIRECTION( '', ( -1.00000000000000, 0.000000000000000, 0.000000000000000 ) );
#472 = DIRECTION( '', ( 0.000000000000000, -0.000000000000000, 1.00000000000000 ) );
#473 = CARTESIAN_POINT( '', ( 82.0000000000000, 0.000000000000000, -36.6703969800800 ) );
#474 = DIRECTION( '', ( 1.00000000000000, 0.000000000000000, -0.000000000000000 ) );
#475 = DIRECTION( '', ( 0.000000000000000, 0.000000000000000, 1.00000000000000 ) );
#476 = CARTESIAN_POINT( '', ( 9.99999999999999, 0.000000000000000, 0.000000000000000 ) );
#477 = DIRECTION( '', ( 1.00000000000000, 0.000000000000000, -0.000000000000000 ) );
#478 = DIRECTION( '', ( -0.000000000000000, 0.000000000000000, -1.00000000000000 ) );
#479 = CARTESIAN_POINT( '', ( 9.99999999999999, 0.000000000000000, 0.000000000000000 ) );
#480 = DIRECTION( '', ( 1.00000000000000, 0.000000000000000, -0.000000000000000 ) );
#481 = DIRECTION( '', ( -0.000000000000000, 0.000000000000000, -1.00000000000000 ) );
#482 = CARTESIAN_POINT( '', ( 16.3533333333333, 0.000000000000000, 0.000000000000000 ) );
#483 = DIRECTION( '', ( 1.00000000000000, 0.000000000000000, -0.000000000000000 ) );
#484 = DIRECTION( '', ( -0.000000000000000, 0.000000000000000, -1.00000000000000 ) );
#485 = CARTESIAN_POINT( '', ( 18.3333333333333, 0.000000000000000, 0.000000000000000 ) );
#486 = DIRECTION( '', ( 1.00000000000000, 0.000000000000000, -0.000000000000000 ) );
#487 = DIRECTION( '', ( -0.000000000000000, 0.000000000000000, -1.00000000000000 ) );
#488 = CARTESIAN_POINT( '', ( 35.0000000000000, 0.000000000000000, 0.000000000000000 ) );
#489 = DIRECTION( '', ( 1.00000000000000, 0.000000000000000, -0.000000000000000 ) );
#490 = DIRECTION( '', ( -0.000000000000000, 0.000000000000000, -1.00000000000000 ) );
#491 = CARTESIAN_POINT( '', ( 63.4850712500727, 0.000000000000000, 0.000000000000000 ) );
#492 = DIRECTION( '', ( 1.00000000000000, 0.000000000000000, -0.000000000000000 ) );
#493 = DIRECTION( '', ( -0.000000000000000, 0.000000000000000, -1.00000000000000 ) );
#494 = CARTESIAN_POINT( '', ( 0.000000000000000, 0.000000000000000, 0.000000000000000 ) );
#495 = DIRECTION( '', ( 1.00000000000000, 0.000000000000000, -0.000000000000000 ) );
#496 = DIRECTION( '', ( -0.000000000000000, 0.000000000000000, -1.00000000000000 ) );
#497 = CARTESIAN_POINT( '', ( 0.000000000000000, 0.000000000000000, 0.000000000000000 ) );
#498 = DIRECTION( '', ( 1.00000000000000, 0.000000000000000, -0.000000000000000 ) );
#499 = DIRECTION( '', ( -0.000000000000000, 0.000000000000000, -1.00000000000000 ) );
#500 = CARTESIAN_POINT( '', ( 65.0000000000000, 0.000000000000000, 0.000000000000000 ) );
#501 = DIRECTION( '', ( 1.00000000000000, 0.000000000000000, -0.000000000000000 ) );
#502 = DIRECTION( '', ( -0.000000000000000, 0.000000000000000, -1.00000000000000 ) );
#503 = CARTESIAN_POINT( '', ( 65.0000000000000, 0.000000000000000, 0.000000000000000 ) );
#504 = DIRECTION( '', ( 1.00000000000000, 0.000000000000000, -0.000000000000000 ) );
#505 = DIRECTION( '', ( -0.000000000000000, 0.000000000000000, -1.00000000000000 ) );
#506 = CARTESIAN_POINT( '', ( 18.3333333333333, 0.000000000000000, 0.000000000000000 ) );
#507 = DIRECTION( '', ( 1.00000000000000, 0.000000000000000, -0.000000000000000 ) );
#508 = DIRECTION( '', ( -0.000000000000000, 0.000000000000000, -1.00000000000000 ) );
#509 = CARTESIAN_POINT( '', ( 18.3333333333333, 0.000000000000000, 35.5590911796501 ) );
#510 = DIRECTION( '', ( -1.00000000000000, 0.000000000000000, 0.000000000000000 ) );
#511 = DIRECTION( '', ( 0.000000000000000, -0.000000000000000, 1.00000000000000 ) );
#512 = CARTESIAN_POINT( '', ( 16.3533333333333, 0.000000000000000, 0.000000000000000 ) );
#513 = DIRECTION( '', ( 1.00000000000000, 0.000000000000000, -0.000000000000000 ) );
#514 = DIRECTION( '', ( -0.000000000000000, 0.000000000000000, -1.00000000000000 ) );
#515 = CARTESIAN_POINT( '', ( 82.0000000000000, 0.000000000000000, 0.000000000000000 ) );
#516 = DIRECTION( '', ( 1.00000000000000, 0.000000000000000, -0.000000000000000 ) );
#517 = DIRECTION( '', ( -0.000000000000000, 0.000000000000000, -1.00000000000000 ) );
#518 = CARTESIAN_POINT( '', ( 82.0000000000000, 0.000000000000000, 0.000000000000000 ) );
#519 = DIRECTION( '', ( 1.00000000000000, 0.000000000000000, -0.000000000000000 ) );
#520 = DIRECTION( '', ( -0.000000000000000, 0.000000000000000, -1.00000000000000 ) );
#521 = CARTESIAN_POINT( '', ( 82.0000000000000, 0.000000000000000, 36.6703969800800 ) );
#522 = DIRECTION( '', ( 1.00000000000000, 0.000000000000000, -0.000000000000000 ) );
#523 = DIRECTION( '', ( 0.000000000000000, 0.000000000000000, 1.00000000000000 ) );
ENDSEC;
END-ISO-10303-21;
