ISO-10303-21;
HEADER;
FILE_DESCRIPTION( ( 'STEP AP214' ), '1' );
FILE_NAME( 'p:/temp/worker_8/temp/exporttempdir_5496_67_l0CO0/format_0/70064009007(architecture400).stp', '2021-11-25T10:42:03', ( 'License CC BY-ND 4.0' ), ( 'CADENAS' ), ' ', 'PARTsolutions', ' ' );
FILE_SCHEMA( ( 'AUTOMOTIVE_DESIGN { 1 0 10303 214 1 1 1 1 }' ) );
ENDSEC;
DATA;
#1 = MECHANICAL_DESIGN_GEOMETRIC_PRESENTATION_REPRESENTATION( ' ', ( #10, #11, #12, #13, #14, #15, #16 ), #6 );
#2 = PRODUCT_DEFINITION_CONTEXT( '', #17, 'design' );
#3 = APPLICATION_PROTOCOL_DEFINITION( 'international standard', 'automotive_design', 2001, #17 );
#4 = PRODUCT_CATEGORY_RELATIONSHIP( 'NONE', 'NONE', #18, #19 );
#5 = SHAPE_DEFINITION_REPRESENTATION( #20, #21 );
#6 =  ( GEOMETRIC_REPRESENTATION_CONTEXT( 3 )GLOBAL_UNCERTAINTY_ASSIGNED_CONTEXT( ( #24 ) )GLOBAL_UNIT_ASSIGNED_CONTEXT( ( #26, #27, #28 ) )REPRESENTATION_CONTEXT( 'NONE', 'WORKSPACE' ) );
#10 = STYLED_ITEM( '', ( #30 ), #31 );
#11 = STYLED_ITEM( '', ( #32 ), #33 );
#12 = STYLED_ITEM( '', ( #34 ), #35 );
#13 = STYLED_ITEM( '', ( #36 ), #37 );
#14 = STYLED_ITEM( '', ( #38 ), #39 );
#15 = STYLED_ITEM( '', ( #40 ), #41 );
#16 = STYLED_ITEM( '', ( #42 ), #43 );
#17 = APPLICATION_CONTEXT( 'core data for automotive mechanical design processes' );
#18 = PRODUCT_CATEGORY( 'part', 'NONE' );
#19 = PRODUCT_RELATED_PRODUCT_CATEGORY( 'detail', ' ', ( #44 ) );
#20 = PRODUCT_DEFINITION_SHAPE( 'NONE', 'NONE', #45 );
#21 = ADVANCED_BREP_SHAPE_REPRESENTATION( '_70064009007(architecture400)', ( #46, #47 ), #6 );
#24 = UNCERTAINTY_MEASURE_WITH_UNIT( LENGTH_MEASURE( 0.00100000000000000 ), #26, '', '' );
#26 =  ( CONVERSION_BASED_UNIT( 'MILLIMETRE', #50 )LENGTH_UNIT(  )NAMED_UNIT( #53 ) );
#27 =  ( NAMED_UNIT( #55 )PLANE_ANGLE_UNIT(  )SI_UNIT( $, .RADIAN. ) );
#28 =  ( NAMED_UNIT( #55 )SI_UNIT( $, .STERADIAN. )SOLID_ANGLE_UNIT(  ) );
#30 = PRESENTATION_STYLE_ASSIGNMENT( ( #61 ) );
#31 = ADVANCED_FACE( '', ( #62, #63 ), #64, .F. );
#32 = PRESENTATION_STYLE_ASSIGNMENT( ( #65 ) );
#33 = ADVANCED_FACE( '', ( #66, #67 ), #68, .F. );
#34 = PRESENTATION_STYLE_ASSIGNMENT( ( #69 ) );
#35 = ADVANCED_FACE( '', ( #70, #71 ), #72, .F. );
#36 = PRESENTATION_STYLE_ASSIGNMENT( ( #73 ) );
#37 = ADVANCED_FACE( '', ( #74, #75 ), #76, .T. );
#38 = PRESENTATION_STYLE_ASSIGNMENT( ( #77 ) );
#39 = ADVANCED_FACE( '', ( #78, #79 ), #80, .T. );
#40 = PRESENTATION_STYLE_ASSIGNMENT( ( #81 ) );
#41 = ADVANCED_FACE( '', ( #82, #83 ), #84, .F. );
#42 = PRESENTATION_STYLE_ASSIGNMENT( ( #85 ) );
#43 = ADVANCED_FACE( '', ( #86, #87 ), #88, .T. );
#44 = PRODUCT( '_70064009007(architecture400)', '_70064009007(architecture400)', 'PART-_70064009007(architecture400)-DESC', ( #89 ) );
#45 = PRODUCT_DEFINITION( 'NONE', 'NONE', #90, #2 );
#46 = MANIFOLD_SOLID_BREP( '_70064009007(architecture400)', #91 );
#47 = AXIS2_PLACEMENT_3D( '', #92, #93, #94 );
#50 = LENGTH_MEASURE_WITH_UNIT( LENGTH_MEASURE( 1.00000000000000 ), #95 );
#53 = DIMENSIONAL_EXPONENTS( 1.00000000000000, 0.000000000000000, 0.000000000000000, 0.000000000000000, 0.000000000000000, 0.000000000000000, 0.000000000000000 );
#55 = DIMENSIONAL_EXPONENTS( 0.000000000000000, 0.000000000000000, 0.000000000000000, 0.000000000000000, 0.000000000000000, 0.000000000000000, 0.000000000000000 );
#61 = SURFACE_STYLE_USAGE( .BOTH., #96 );
#62 = FACE_OUTER_BOUND( '', #97, .T. );
#63 = FACE_OUTER_BOUND( '', #98, .T. );
#64 = CYLINDRICAL_SURFACE( '', #99, 32.7000000000000 );
#65 = SURFACE_STYLE_USAGE( .BOTH., #100 );
#66 = FACE_OUTER_BOUND( '', #101, .T. );
#67 = FACE_OUTER_BOUND( '', #102, .T. );
#68 = TOROIDAL_SURFACE( '', #103, 20.4000000000000, 12.3000000000000 );
#69 = SURFACE_STYLE_USAGE( .BOTH., #104 );
#70 = FACE_BOUND( '', #105, .T. );
#71 = FACE_OUTER_BOUND( '', #106, .T. );
#72 = SPHERICAL_SURFACE( '', #107, 77.7000000000000 );
#73 = SURFACE_STYLE_USAGE( .BOTH., #108 );
#74 = FACE_OUTER_BOUND( '', #109, .T. );
#75 = FACE_OUTER_BOUND( '', #110, .T. );
#76 = ( BOUNDED_SURFACE(  )B_SPLINE_SURFACE( 3, 3, ( ( #113, #114, #115, #116, #117, #118, #119 ), ( #120, #121, #122, #123, #124, #125, #126 ), ( #127, #128, #129, #130, #131, #132, #133 ), ( #134, #135, #136, #137, #138, #139, #140 ) ), .UNSPECIFIED., .F., .T., .F. )B_SPLINE_SURFACE_WITH_KNOTS( ( 4, 4 ), ( 4, 3, 4 ), ( 0.000000000000000, 6.28318530717959 ), ( -1.25357618839036, -0.626788094195179, -1.77635683940025E-15 ), .UNSPECIFIED. )GEOMETRIC_REPRESENTATION_ITEM(  )RATIONAL_B_SPLINE_SURFACE( ( ( 1.00000000000000, 0.333333333333333, 0.333333333333333, 1.00000000000000, 0.333333333333333, 0.333333333333333, 1.00000000000000 ), ( 0.873277076391521, 0.291092358797174, 0.291092358797174, 0.873277076391521, 0.291092358797174, 0.291092358797174, 0.873277076391521 ), ( 0.873277076391521, 0.291092358797174, 0.291092358797174, 0.873277076391521, 0.291092358797174, 0.291092358797174, 0.873277076391521 ), ( 1.00000000000000, 0.333333333333333, 0.333333333333333, 1.00000000000000, 0.333333333333333, 0.333333333333333, 1.00000000000000 ) ) )REPRESENTATION_ITEM( '' )SURFACE(  ) );
#77 = SURFACE_STYLE_USAGE( .BOTH., #146 );
#78 = FACE_BOUND( '', #147, .T. );
#79 = FACE_OUTER_BOUND( '', #148, .T. );
#80 = SPHERICAL_SURFACE( '', #149, 90.0000000000000 );
#81 = SURFACE_STYLE_USAGE( .BOTH., #150 );
#82 = FACE_BOUND( '', #151, .T. );
#83 = FACE_OUTER_BOUND( '', #152, .T. );
#84 = PLANE( '', #153 );
#85 = SURFACE_STYLE_USAGE( .BOTH., #154 );
#86 = FACE_OUTER_BOUND( '', #155, .T. );
#87 = FACE_OUTER_BOUND( '', #156, .T. );
#88 = CYLINDRICAL_SURFACE( '', #157, 45.0000000000000 );
#89 = PRODUCT_CONTEXT( '', #17, 'mechanical' );
#90 = PRODUCT_DEFINITION_FORMATION_WITH_SPECIFIED_SOURCE( ' ', 'NONE', #44, .NOT_KNOWN. );
#91 = CLOSED_SHELL( '', ( #33, #31, #41, #43, #37, #39, #35 ) );
#92 = CARTESIAN_POINT( '', ( 0.000000000000000, 0.000000000000000, 0.000000000000000 ) );
#93 = DIRECTION( '', ( 0.000000000000000, 0.000000000000000, 1.00000000000000 ) );
#94 = DIRECTION( '', ( 1.00000000000000, 0.000000000000000, 0.000000000000000 ) );
#95 =  ( LENGTH_UNIT(  )NAMED_UNIT( #53 )SI_UNIT( .MILLI., .METRE. ) );
#96 = SURFACE_SIDE_STYLE( '', ( #159 ) );
#97 = EDGE_LOOP( '', ( #160 ) );
#98 = EDGE_LOOP( '', ( #161 ) );
#99 = AXIS2_PLACEMENT_3D( '', #162, #163, #164 );
#100 = SURFACE_SIDE_STYLE( '', ( #165 ) );
#101 = EDGE_LOOP( '', ( #166 ) );
#102 = EDGE_LOOP( '', ( #167 ) );
#103 = AXIS2_PLACEMENT_3D( '', #168, #169, #170 );
#104 = SURFACE_SIDE_STYLE( '', ( #171 ) );
#105 = VERTEX_LOOP( '', #172 );
#106 = EDGE_LOOP( '', ( #173 ) );
#107 = AXIS2_PLACEMENT_3D( '', #174, #175, #176 );
#108 = SURFACE_SIDE_STYLE( '', ( #177 ) );
#109 = EDGE_LOOP( '', ( #178 ) );
#110 = EDGE_LOOP( '', ( #179 ) );
#113 = CARTESIAN_POINT( '', ( -72.1369455316240, 0.000000000000000, -45.0000000000000 ) );
#114 = CARTESIAN_POINT( '', ( -72.1369455316239, 90.0000000000000, -45.0000000000000 ) );
#115 = CARTESIAN_POINT( '', ( -72.1369455316239, 90.0000000000000, 45.0000000000000 ) );
#116 = CARTESIAN_POINT( '', ( -72.1369455316240, 0.000000000000000, 45.0000000000000 ) );
#117 = CARTESIAN_POINT( '', ( -72.1369455316239, -90.0000000000000, 45.0000000000000 ) );
#118 = CARTESIAN_POINT( '', ( -72.1369455316239, -90.0000000000000, -45.0000000000000 ) );
#119 = CARTESIAN_POINT( '', ( -72.1369455316240, 0.000000000000000, -45.0000000000000 ) );
#120 = CARTESIAN_POINT( '', ( -83.1521908303089, 0.000000000000000, -45.0000000000000 ) );
#121 = CARTESIAN_POINT( '', ( -83.1521908303089, 90.0000000000000, -45.0000000000000 ) );
#122 = CARTESIAN_POINT( '', ( -83.1521908303089, 90.0000000000000, 45.0000000000000 ) );
#123 = CARTESIAN_POINT( '', ( -83.1521908303089, 0.000000000000000, 45.0000000000000 ) );
#124 = CARTESIAN_POINT( '', ( -83.1521908303089, -90.0000000000000, 45.0000000000000 ) );
#125 = CARTESIAN_POINT( '', ( -83.1521908303089, -90.0000000000000, -45.0000000000000 ) );
#126 = CARTESIAN_POINT( '', ( -83.1521908303089, 0.000000000000000, -45.0000000000000 ) );
#127 = CARTESIAN_POINT( '', ( -92.0736099962230, 0.000000000000000, -38.5390473569092 ) );
#128 = CARTESIAN_POINT( '', ( -92.0736099962229, 77.0780947138184, -38.5390473569092 ) );
#129 = CARTESIAN_POINT( '', ( -92.0736099962229, 77.0780947138184, 38.5390473569092 ) );
#130 = CARTESIAN_POINT( '', ( -92.0736099962230, 0.000000000000000, 38.5390473569092 ) );
#131 = CARTESIAN_POINT( '', ( -92.0736099962229, -77.0780947138184, 38.5390473569092 ) );
#132 = CARTESIAN_POINT( '', ( -92.0736099962229, -77.0780947138184, -38.5390473569092 ) );
#133 = CARTESIAN_POINT( '', ( -92.0736099962230, 0.000000000000000, -38.5390473569092 ) );
#134 = CARTESIAN_POINT( '', ( -95.5095580710421, 0.000000000000000, -28.0733944954128 ) );
#135 = CARTESIAN_POINT( '', ( -95.5095580710421, 56.1467889908257, -28.0733944954128 ) );
#136 = CARTESIAN_POINT( '', ( -95.5095580710421, 56.1467889908257, 28.0733944954128 ) );
#137 = CARTESIAN_POINT( '', ( -95.5095580710421, 0.000000000000000, 28.0733944954128 ) );
#138 = CARTESIAN_POINT( '', ( -95.5095580710421, -56.1467889908257, 28.0733944954128 ) );
#139 = CARTESIAN_POINT( '', ( -95.5095580710421, -56.1467889908257, -28.0733944954128 ) );
#140 = CARTESIAN_POINT( '', ( -95.5095580710421, 0.000000000000000, -28.0733944954128 ) );
#146 = SURFACE_SIDE_STYLE( '', ( #180 ) );
#147 = VERTEX_LOOP( '', #181 );
#148 = EDGE_LOOP( '', ( #182 ) );
#149 = AXIS2_PLACEMENT_3D( '', #183, #184, #185 );
#150 = SURFACE_SIDE_STYLE( '', ( #186 ) );
#151 = EDGE_LOOP( '', ( #187 ) );
#152 = EDGE_LOOP( '', ( #188 ) );
#153 = AXIS2_PLACEMENT_3D( '', #189, #190, #191 );
#154 = SURFACE_SIDE_STYLE( '', ( #192 ) );
#155 = EDGE_LOOP( '', ( #193 ) );
#156 = EDGE_LOOP( '', ( #194 ) );
#157 = AXIS2_PLACEMENT_3D( '', #195, #196, #197 );
#159 = SURFACE_STYLE_FILL_AREA( #198 );
#160 = ORIENTED_EDGE( '', *, *, #199, .F. );
#161 = ORIENTED_EDGE( '', *, *, #200, .T. );
#162 = CARTESIAN_POINT( '', ( -87.7000000000000, 0.000000000000000, 0.000000000000000 ) );
#163 = DIRECTION( '', ( -1.00000000000000, -0.000000000000000, 0.000000000000000 ) );
#164 = DIRECTION( '', ( -0.000000000000000, 0.000000000000000, -1.00000000000000 ) );
#165 = SURFACE_STYLE_FILL_AREA( #201 );
#166 = ORIENTED_EDGE( '', *, *, #202, .F. );
#167 = ORIENTED_EDGE( '', *, *, #199, .T. );
#168 = CARTESIAN_POINT( '', ( -72.1369455316239, 0.000000000000000, 0.000000000000000 ) );
#169 = DIRECTION( '', ( 1.00000000000000, 0.000000000000000, -0.000000000000000 ) );
#170 = DIRECTION( '', ( -0.000000000000000, 0.000000000000000, -1.00000000000000 ) );
#171 = SURFACE_STYLE_FILL_AREA( #203 );
#172 = VERTEX_POINT( '', #204 );
#173 = ORIENTED_EDGE( '', *, *, #202, .T. );
#174 = CARTESIAN_POINT( '', ( -10.0000000000013, 0.000000000000000, 2.22044604925031E-13 ) );
#175 = DIRECTION( '', ( 1.00000000000000, 0.000000000000000, 0.000000000000000 ) );
#176 = DIRECTION( '', ( 0.000000000000000, 0.000000000000000, 1.00000000000000 ) );
#177 = SURFACE_STYLE_FILL_AREA( #205 );
#178 = ORIENTED_EDGE( '', *, *, #206, .T. );
#179 = ORIENTED_EDGE( '', *, *, #207, .F. );
#180 = SURFACE_STYLE_FILL_AREA( #208 );
#181 = VERTEX_POINT( '', #209 );
#182 = ORIENTED_EDGE( '', *, *, #206, .F. );
#183 = CARTESIAN_POINT( '', ( -9.99999999999936, 0.000000000000000, -1.37910516340156E-13 ) );
#184 = DIRECTION( '', ( 1.00000000000000, 0.000000000000000, 0.000000000000000 ) );
#185 = DIRECTION( '', ( 0.000000000000000, 0.000000000000000, 1.00000000000000 ) );
#186 = SURFACE_STYLE_FILL_AREA( #210 );
#187 = ORIENTED_EDGE( '', *, *, #200, .F. );
#188 = ORIENTED_EDGE( '', *, *, #211, .T. );
#189 = CARTESIAN_POINT( '', ( 0.000000000000000, 0.000000000000000, 45.0000000000000 ) );
#190 = DIRECTION( '', ( -1.00000000000000, 0.000000000000000, 0.000000000000000 ) );
#191 = DIRECTION( '', ( 0.000000000000000, 0.000000000000000, 1.00000000000000 ) );
#192 = SURFACE_STYLE_FILL_AREA( #212 );
#193 = ORIENTED_EDGE( '', *, *, #211, .F. );
#194 = ORIENTED_EDGE( '', *, *, #207, .T. );
#195 = CARTESIAN_POINT( '', ( -87.7000000000000, 0.000000000000000, 0.000000000000000 ) );
#196 = DIRECTION( '', ( -1.00000000000000, -0.000000000000000, 0.000000000000000 ) );
#197 = DIRECTION( '', ( -0.000000000000000, 0.000000000000000, -1.00000000000000 ) );
#198 = FILL_AREA_STYLE( '', ( #213 ) );
#199 = EDGE_CURVE( '', #214, #214, #215, .T. );
#200 = EDGE_CURVE( '', #216, #216, #217, .T. );
#201 = FILL_AREA_STYLE( '', ( #218 ) );
#202 = EDGE_CURVE( '', #219, #219, #220, .T. );
#203 = FILL_AREA_STYLE( '', ( #221 ) );
#204 = CARTESIAN_POINT( '', ( -87.7000000000000, 0.000000000000000, 2.26802357739719E-13 ) );
#205 = FILL_AREA_STYLE( '', ( #222 ) );
#206 = EDGE_CURVE( '', #223, #223, #224, .T. );
#207 = EDGE_CURVE( '', #225, #225, #226, .T. );
#208 = FILL_AREA_STYLE( '', ( #227 ) );
#209 = CARTESIAN_POINT( '', ( -100.000000000000, 0.000000000000000, -1.32399605743993E-13 ) );
#210 = FILL_AREA_STYLE( '', ( #228 ) );
#211 = EDGE_CURVE( '', #229, #229, #230, .T. );
#212 = FILL_AREA_STYLE( '', ( #231 ) );
#213 = FILL_AREA_STYLE_COLOUR( '', #232 );
#214 = VERTEX_POINT( '', #233 );
#215 = CIRCLE( '', #234, 32.7000000000000 );
#216 = VERTEX_POINT( '', #235 );
#217 = CIRCLE( '', #236, 32.7000000000000 );
#218 = FILL_AREA_STYLE_COLOUR( '', #237 );
#219 = VERTEX_POINT( '', #238 );
#220 = CIRCLE( '', #239, 24.2366966273000 );
#221 = FILL_AREA_STYLE_COLOUR( '', #240 );
#222 = FILL_AREA_STYLE_COLOUR( '', #241 );
#223 = VERTEX_POINT( '', #242 );
#224 = CIRCLE( '', #243, 28.0733944954000 );
#225 = VERTEX_POINT( '', #244 );
#226 = CIRCLE( '', #245, 45.0000000000000 );
#227 = FILL_AREA_STYLE_COLOUR( '', #246 );
#228 = FILL_AREA_STYLE_COLOUR( '', #247 );
#229 = VERTEX_POINT( '', #248 );
#230 = CIRCLE( '', #249, 45.0000000000000 );
#231 = FILL_AREA_STYLE_COLOUR( '', #250 );
#232 = COLOUR_RGB( '', 0.689999997600000, 0.689999997600000, 0.689999997600000 );
#233 = CARTESIAN_POINT( '', ( -72.1369455316240, 0.000000000000000, -32.7000000000000 ) );
#234 = AXIS2_PLACEMENT_3D( '', #251, #252, #253 );
#235 = CARTESIAN_POINT( '', ( 0.000000000000000, 0.000000000000000, -32.7000000000000 ) );
#236 = AXIS2_PLACEMENT_3D( '', #254, #255, #256 );
#237 = COLOUR_RGB( '', 0.689999997600000, 0.689999997600000, 0.689999997600000 );
#238 = CARTESIAN_POINT( '', ( -83.8232520050012, 0.000000000000000, -24.2366966273477 ) );
#239 = AXIS2_PLACEMENT_3D( '', #257, #258, #259 );
#240 = COLOUR_RGB( '', 0.689999997600000, 0.689999997600000, 0.689999997600000 );
#241 = COLOUR_RGB( '', 0.689999997600000, 0.689999997600000, 0.689999997600000 );
#242 = CARTESIAN_POINT( '', ( -95.5095580710421, 0.000000000000000, -28.0733944954128 ) );
#243 = AXIS2_PLACEMENT_3D( '', #260, #261, #262 );
#244 = CARTESIAN_POINT( '', ( -72.1369455316240, 0.000000000000000, -45.0000000000000 ) );
#245 = AXIS2_PLACEMENT_3D( '', #263, #264, #265 );
#246 = COLOUR_RGB( '', 0.689999997600000, 0.689999997600000, 0.689999997600000 );
#247 = COLOUR_RGB( '', 0.689999997600000, 0.689999997600000, 0.689999997600000 );
#248 = CARTESIAN_POINT( '', ( 0.000000000000000, 0.000000000000000, -45.0000000000000 ) );
#249 = AXIS2_PLACEMENT_3D( '', #266, #267, #268 );
#250 = COLOUR_RGB( '', 0.689999997600000, 0.689999997600000, 0.689999997600000 );
#251 = CARTESIAN_POINT( '', ( -72.1369455316240, 0.000000000000000, 0.000000000000000 ) );
#252 = DIRECTION( '', ( 1.00000000000000, 0.000000000000000, -0.000000000000000 ) );
#253 = DIRECTION( '', ( -0.000000000000000, 0.000000000000000, -1.00000000000000 ) );
#254 = CARTESIAN_POINT( '', ( 0.000000000000000, 0.000000000000000, 0.000000000000000 ) );
#255 = DIRECTION( '', ( 1.00000000000000, 0.000000000000000, -0.000000000000000 ) );
#256 = DIRECTION( '', ( -0.000000000000000, 0.000000000000000, -1.00000000000000 ) );
#257 = CARTESIAN_POINT( '', ( -83.8232520050012, 0.000000000000000, 0.000000000000000 ) );
#258 = DIRECTION( '', ( 1.00000000000000, 0.000000000000000, -0.000000000000000 ) );
#259 = DIRECTION( '', ( -0.000000000000000, 0.000000000000000, -1.00000000000000 ) );
#260 = CARTESIAN_POINT( '', ( -95.5095580710421, 0.000000000000000, 0.000000000000000 ) );
#261 = DIRECTION( '', ( 1.00000000000000, 0.000000000000000, -0.000000000000000 ) );
#262 = DIRECTION( '', ( -0.000000000000000, 0.000000000000000, -1.00000000000000 ) );
#263 = CARTESIAN_POINT( '', ( -72.1369455316240, 0.000000000000000, 0.000000000000000 ) );
#264 = DIRECTION( '', ( 1.00000000000000, 0.000000000000000, -0.000000000000000 ) );
#265 = DIRECTION( '', ( -0.000000000000000, 0.000000000000000, -1.00000000000000 ) );
#266 = CARTESIAN_POINT( '', ( 0.000000000000000, 0.000000000000000, 0.000000000000000 ) );
#267 = DIRECTION( '', ( 1.00000000000000, 0.000000000000000, -0.000000000000000 ) );
#268 = DIRECTION( '', ( -0.000000000000000, 0.000000000000000, -1.00000000000000 ) );
ENDSEC;
END-ISO-10303-21;
