ISO-10303-21;
HEADER;
FILE_DESCRIPTION( ( 'STEP AP214' ), '1' );
FILE_NAME( 'p:/temp/worker_53/temp/exporttempdir_2128_1189_t6kp7/format_0/3000695H.stp', '2021-12-06T12:08:02', ( 'License CC BY-ND 4.0' ), ( 'CADENAS' ), ' ', 'PARTsolutions', ' ' );
FILE_SCHEMA( ( 'AUTOMOTIVE_DESIGN { 1 0 10303 214 1 1 1 1 }' ) );
ENDSEC;
DATA;
#1 = MECHANICAL_DESIGN_GEOMETRIC_PRESENTATION_REPRESENTATION( ' ', ( #10, #11, #12, #13, #14, #15, #16, #17, #18, #19, #20, #21 ), #6 );
#2 = PRODUCT_DEFINITION_CONTEXT( '', #22, 'design' );
#3 = APPLICATION_PROTOCOL_DEFINITION( 'international standard', 'automotive_design', 2001, #22 );
#4 = PRODUCT_CATEGORY_RELATIONSHIP( 'NONE', 'NONE', #23, #24 );
#5 = SHAPE_DEFINITION_REPRESENTATION( #25, #26 );
#6 =  ( GEOMETRIC_REPRESENTATION_CONTEXT( 3 )GLOBAL_UNCERTAINTY_ASSIGNED_CONTEXT( ( #29 ) )GLOBAL_UNIT_ASSIGNED_CONTEXT( ( #31, #32, #33 ) )REPRESENTATION_CONTEXT( 'NONE', 'WORKSPACE' ) );
#10 = STYLED_ITEM( '', ( #35 ), #36 );
#11 = STYLED_ITEM( '', ( #37 ), #38 );
#12 = STYLED_ITEM( '', ( #39 ), #40 );
#13 = STYLED_ITEM( '', ( #41 ), #42 );
#14 = STYLED_ITEM( '', ( #43 ), #44 );
#15 = STYLED_ITEM( '', ( #45 ), #46 );
#16 = STYLED_ITEM( '', ( #47 ), #48 );
#17 = STYLED_ITEM( '', ( #49 ), #50 );
#18 = STYLED_ITEM( '', ( #51 ), #52 );
#19 = STYLED_ITEM( '', ( #53 ), #54 );
#20 = STYLED_ITEM( '', ( #55 ), #56 );
#21 = STYLED_ITEM( '', ( #57 ), #58 );
#22 = APPLICATION_CONTEXT( 'core data for automotive mechanical design processes' );
#23 = PRODUCT_CATEGORY( 'part', 'NONE' );
#24 = PRODUCT_RELATED_PRODUCT_CATEGORY( 'detail', ' ', ( #59 ) );
#25 = PRODUCT_DEFINITION_SHAPE( 'NONE', 'NONE', #60 );
#26 = ADVANCED_BREP_SHAPE_REPRESENTATION( '_3000695H', ( #61, #62 ), #6 );
#29 = UNCERTAINTY_MEASURE_WITH_UNIT( LENGTH_MEASURE( 0.00100000000000000 ), #31, '', '' );
#31 =  ( CONVERSION_BASED_UNIT( 'MILLIMETRE', #65 )LENGTH_UNIT(  )NAMED_UNIT( #68 ) );
#32 =  ( NAMED_UNIT( #70 )PLANE_ANGLE_UNIT(  )SI_UNIT( $, .RADIAN. ) );
#33 =  ( NAMED_UNIT( #70 )SI_UNIT( $, .STERADIAN. )SOLID_ANGLE_UNIT(  ) );
#35 = PRESENTATION_STYLE_ASSIGNMENT( ( #76 ) );
#36 = ADVANCED_FACE( '', ( #77, #78 ), #79, .F. );
#37 = PRESENTATION_STYLE_ASSIGNMENT( ( #80 ) );
#38 = ADVANCED_FACE( '', ( #81, #82 ), #83, .F. );
#39 = PRESENTATION_STYLE_ASSIGNMENT( ( #84 ) );
#40 = ADVANCED_FACE( '', ( #85, #86 ), #87, .F. );
#41 = PRESENTATION_STYLE_ASSIGNMENT( ( #88 ) );
#42 = ADVANCED_FACE( '', ( #89, #90 ), #91, .T. );
#43 = PRESENTATION_STYLE_ASSIGNMENT( ( #92 ) );
#44 = ADVANCED_FACE( '', ( #93, #94 ), #95, .F. );
#45 = PRESENTATION_STYLE_ASSIGNMENT( ( #96 ) );
#46 = ADVANCED_FACE( '', ( #97, #98, #99, #100, #101, #102, #103, #104, #105, #106 ), #107, .T. );
#47 = PRESENTATION_STYLE_ASSIGNMENT( ( #108 ) );
#48 = ADVANCED_FACE( '', ( #109, #110 ), #111, .F. );
#49 = PRESENTATION_STYLE_ASSIGNMENT( ( #112 ) );
#50 = ADVANCED_FACE( '', ( #113, #114 ), #115, .F. );
#51 = PRESENTATION_STYLE_ASSIGNMENT( ( #116 ) );
#52 = ADVANCED_FACE( '', ( #117, #118 ), #119, .F. );
#53 = PRESENTATION_STYLE_ASSIGNMENT( ( #120 ) );
#54 = ADVANCED_FACE( '', ( #121, #122, #123, #124, #125, #126, #127, #128, #129, #130 ), #131, .T. );
#55 = PRESENTATION_STYLE_ASSIGNMENT( ( #132 ) );
#56 = ADVANCED_FACE( '', ( #133, #134 ), #135, .F. );
#57 = PRESENTATION_STYLE_ASSIGNMENT( ( #136 ) );
#58 = ADVANCED_FACE( '', ( #137, #138 ), #139, .F. );
#59 = PRODUCT( '_3000695H', '_3000695H', 'PART-_3000695H-DESC', ( #140 ) );
#60 = PRODUCT_DEFINITION( 'NONE', 'NONE', #141, #2 );
#61 = MANIFOLD_SOLID_BREP( '_3000695H', #142 );
#62 = AXIS2_PLACEMENT_3D( '', #143, #144, #145 );
#65 = LENGTH_MEASURE_WITH_UNIT( LENGTH_MEASURE( 1.00000000000000 ), #146 );
#68 = DIMENSIONAL_EXPONENTS( 1.00000000000000, 0.000000000000000, 0.000000000000000, 0.000000000000000, 0.000000000000000, 0.000000000000000, 0.000000000000000 );
#70 = DIMENSIONAL_EXPONENTS( 0.000000000000000, 0.000000000000000, 0.000000000000000, 0.000000000000000, 0.000000000000000, 0.000000000000000, 0.000000000000000 );
#76 = SURFACE_STYLE_USAGE( .BOTH., #147 );
#77 = FACE_OUTER_BOUND( '', #148, .T. );
#78 = FACE_OUTER_BOUND( '', #149, .T. );
#79 = CYLINDRICAL_SURFACE( '', #150, 4.75000000000000 );
#80 = SURFACE_STYLE_USAGE( .BOTH., #151 );
#81 = FACE_OUTER_BOUND( '', #152, .T. );
#82 = FACE_OUTER_BOUND( '', #153, .T. );
#83 = CYLINDRICAL_SURFACE( '', #154, 4.75000000000000 );
#84 = SURFACE_STYLE_USAGE( .BOTH., #155 );
#85 = FACE_OUTER_BOUND( '', #156, .T. );
#86 = FACE_OUTER_BOUND( '', #157, .T. );
#87 = CYLINDRICAL_SURFACE( '', #158, 4.75000000000000 );
#88 = SURFACE_STYLE_USAGE( .BOTH., #159 );
#89 = FACE_OUTER_BOUND( '', #160, .T. );
#90 = FACE_OUTER_BOUND( '', #161, .T. );
#91 = CYLINDRICAL_SURFACE( '', #162, 135.000000000000 );
#92 = SURFACE_STYLE_USAGE( .BOTH., #163 );
#93 = FACE_OUTER_BOUND( '', #164, .T. );
#94 = FACE_OUTER_BOUND( '', #165, .T. );
#95 = CYLINDRICAL_SURFACE( '', #166, 4.75000000000000 );
#96 = SURFACE_STYLE_USAGE( .BOTH., #167 );
#97 = FACE_BOUND( '', #168, .T. );
#98 = FACE_BOUND( '', #169, .T. );
#99 = FACE_BOUND( '', #170, .T. );
#100 = FACE_BOUND( '', #171, .T. );
#101 = FACE_BOUND( '', #172, .T. );
#102 = FACE_BOUND( '', #173, .T. );
#103 = FACE_BOUND( '', #174, .T. );
#104 = FACE_BOUND( '', #175, .T. );
#105 = FACE_BOUND( '', #176, .T. );
#106 = FACE_OUTER_BOUND( '', #177, .T. );
#107 = PLANE( '', #178 );
#108 = SURFACE_STYLE_USAGE( .BOTH., #179 );
#109 = FACE_OUTER_BOUND( '', #180, .T. );
#110 = FACE_OUTER_BOUND( '', #181, .T. );
#111 = CYLINDRICAL_SURFACE( '', #182, 4.75000000000000 );
#112 = SURFACE_STYLE_USAGE( .BOTH., #183 );
#113 = FACE_OUTER_BOUND( '', #184, .T. );
#114 = FACE_OUTER_BOUND( '', #185, .T. );
#115 = CYLINDRICAL_SURFACE( '', #186, 100.000000000000 );
#116 = SURFACE_STYLE_USAGE( .BOTH., #187 );
#117 = FACE_OUTER_BOUND( '', #188, .T. );
#118 = FACE_OUTER_BOUND( '', #189, .T. );
#119 = CYLINDRICAL_SURFACE( '', #190, 4.75000000000000 );
#120 = SURFACE_STYLE_USAGE( .BOTH., #191 );
#121 = FACE_OUTER_BOUND( '', #192, .T. );
#122 = FACE_BOUND( '', #193, .T. );
#123 = FACE_BOUND( '', #194, .T. );
#124 = FACE_BOUND( '', #195, .T. );
#125 = FACE_BOUND( '', #196, .T. );
#126 = FACE_BOUND( '', #197, .T. );
#127 = FACE_BOUND( '', #198, .T. );
#128 = FACE_BOUND( '', #199, .T. );
#129 = FACE_BOUND( '', #200, .T. );
#130 = FACE_BOUND( '', #201, .T. );
#131 = PLANE( '', #202 );
#132 = SURFACE_STYLE_USAGE( .BOTH., #203 );
#133 = FACE_OUTER_BOUND( '', #204, .T. );
#134 = FACE_OUTER_BOUND( '', #205, .T. );
#135 = CYLINDRICAL_SURFACE( '', #206, 4.75000000000000 );
#136 = SURFACE_STYLE_USAGE( .BOTH., #207 );
#137 = FACE_OUTER_BOUND( '', #208, .T. );
#138 = FACE_OUTER_BOUND( '', #209, .T. );
#139 = CYLINDRICAL_SURFACE( '', #210, 4.75000000000000 );
#140 = PRODUCT_CONTEXT( '', #22, 'mechanical' );
#141 = PRODUCT_DEFINITION_FORMATION_WITH_SPECIFIED_SOURCE( ' ', 'NONE', #59, .NOT_KNOWN. );
#142 = CLOSED_SHELL( '', ( #54, #50, #46, #42, #58, #44, #48, #36, #38, #40, #56, #52 ) );
#143 = CARTESIAN_POINT( '', ( 0.000000000000000, 0.000000000000000, 0.000000000000000 ) );
#144 = DIRECTION( '', ( 0.000000000000000, 0.000000000000000, 1.00000000000000 ) );
#145 = DIRECTION( '', ( 1.00000000000000, 0.000000000000000, 0.000000000000000 ) );
#146 =  ( LENGTH_UNIT(  )NAMED_UNIT( #68 )SI_UNIT( .MILLI., .METRE. ) );
#147 = SURFACE_SIDE_STYLE( '', ( #212 ) );
#148 = EDGE_LOOP( '', ( #213 ) );
#149 = EDGE_LOOP( '', ( #214 ) );
#150 = AXIS2_PLACEMENT_3D( '', #215, #216, #217 );
#151 = SURFACE_SIDE_STYLE( '', ( #218 ) );
#152 = EDGE_LOOP( '', ( #219 ) );
#153 = EDGE_LOOP( '', ( #220 ) );
#154 = AXIS2_PLACEMENT_3D( '', #221, #222, #223 );
#155 = SURFACE_SIDE_STYLE( '', ( #224 ) );
#156 = EDGE_LOOP( '', ( #225 ) );
#157 = EDGE_LOOP( '', ( #226 ) );
#158 = AXIS2_PLACEMENT_3D( '', #227, #228, #229 );
#159 = SURFACE_SIDE_STYLE( '', ( #230 ) );
#160 = EDGE_LOOP( '', ( #231 ) );
#161 = EDGE_LOOP( '', ( #232 ) );
#162 = AXIS2_PLACEMENT_3D( '', #233, #234, #235 );
#163 = SURFACE_SIDE_STYLE( '', ( #236 ) );
#164 = EDGE_LOOP( '', ( #237 ) );
#165 = EDGE_LOOP( '', ( #238 ) );
#166 = AXIS2_PLACEMENT_3D( '', #239, #240, #241 );
#167 = SURFACE_SIDE_STYLE( '', ( #242 ) );
#168 = EDGE_LOOP( '', ( #243 ) );
#169 = EDGE_LOOP( '', ( #244 ) );
#170 = EDGE_LOOP( '', ( #245 ) );
#171 = EDGE_LOOP( '', ( #246 ) );
#172 = EDGE_LOOP( '', ( #247 ) );
#173 = EDGE_LOOP( '', ( #248 ) );
#174 = EDGE_LOOP( '', ( #249 ) );
#175 = EDGE_LOOP( '', ( #250 ) );
#176 = EDGE_LOOP( '', ( #251 ) );
#177 = EDGE_LOOP( '', ( #252 ) );
#178 = AXIS2_PLACEMENT_3D( '', #253, #254, #255 );
#179 = SURFACE_SIDE_STYLE( '', ( #256 ) );
#180 = EDGE_LOOP( '', ( #257 ) );
#181 = EDGE_LOOP( '', ( #258 ) );
#182 = AXIS2_PLACEMENT_3D( '', #259, #260, #261 );
#183 = SURFACE_SIDE_STYLE( '', ( #262 ) );
#184 = EDGE_LOOP( '', ( #263 ) );
#185 = EDGE_LOOP( '', ( #264 ) );
#186 = AXIS2_PLACEMENT_3D( '', #265, #266, #267 );
#187 = SURFACE_SIDE_STYLE( '', ( #268 ) );
#188 = EDGE_LOOP( '', ( #269 ) );
#189 = EDGE_LOOP( '', ( #270 ) );
#190 = AXIS2_PLACEMENT_3D( '', #271, #272, #273 );
#191 = SURFACE_SIDE_STYLE( '', ( #274 ) );
#192 = EDGE_LOOP( '', ( #275 ) );
#193 = EDGE_LOOP( '', ( #276 ) );
#194 = EDGE_LOOP( '', ( #277 ) );
#195 = EDGE_LOOP( '', ( #278 ) );
#196 = EDGE_LOOP( '', ( #279 ) );
#197 = EDGE_LOOP( '', ( #280 ) );
#198 = EDGE_LOOP( '', ( #281 ) );
#199 = EDGE_LOOP( '', ( #282 ) );
#200 = EDGE_LOOP( '', ( #283 ) );
#201 = EDGE_LOOP( '', ( #284 ) );
#202 = AXIS2_PLACEMENT_3D( '', #285, #286, #287 );
#203 = SURFACE_SIDE_STYLE( '', ( #288 ) );
#204 = EDGE_LOOP( '', ( #289 ) );
#205 = EDGE_LOOP( '', ( #290 ) );
#206 = AXIS2_PLACEMENT_3D( '', #291, #292, #293 );
#207 = SURFACE_SIDE_STYLE( '', ( #294 ) );
#208 = EDGE_LOOP( '', ( #295 ) );
#209 = EDGE_LOOP( '', ( #296 ) );
#210 = AXIS2_PLACEMENT_3D( '', #297, #298, #299 );
#212 = SURFACE_STYLE_FILL_AREA( #300 );
#213 = ORIENTED_EDGE( '', *, *, #301, .T. );
#214 = ORIENTED_EDGE( '', *, *, #302, .F. );
#215 = CARTESIAN_POINT( '', ( 3.00000000000000, -120.000000000000, 0.000000000000000 ) );
#216 = DIRECTION( '', ( -1.00000000000000, -0.000000000000000, 0.000000000000000 ) );
#217 = DIRECTION( '', ( -0.000000000000000, 0.000000000000000, -1.00000000000000 ) );
#218 = SURFACE_STYLE_FILL_AREA( #303 );
#219 = ORIENTED_EDGE( '', *, *, #304, .T. );
#220 = ORIENTED_EDGE( '', *, *, #305, .F. );
#221 = CARTESIAN_POINT( '', ( 3.00000000000000, -84.8528137423857, -84.8528137423857 ) );
#222 = DIRECTION( '', ( -1.00000000000000, -0.000000000000000, 0.000000000000000 ) );
#223 = DIRECTION( '', ( -0.000000000000000, 0.000000000000000, -1.00000000000000 ) );
#224 = SURFACE_STYLE_FILL_AREA( #306 );
#225 = ORIENTED_EDGE( '', *, *, #307, .T. );
#226 = ORIENTED_EDGE( '', *, *, #308, .F. );
#227 = CARTESIAN_POINT( '', ( 3.00000000000000, 0.000000000000000, -120.000000000000 ) );
#228 = DIRECTION( '', ( -1.00000000000000, -0.000000000000000, 0.000000000000000 ) );
#229 = DIRECTION( '', ( -0.000000000000000, 0.000000000000000, -1.00000000000000 ) );
#230 = SURFACE_STYLE_FILL_AREA( #309 );
#231 = ORIENTED_EDGE( '', *, *, #310, .T. );
#232 = ORIENTED_EDGE( '', *, *, #311, .F. );
#233 = CARTESIAN_POINT( '', ( 3.00000000000000, 0.000000000000000, 0.000000000000000 ) );
#234 = DIRECTION( '', ( -1.00000000000000, -0.000000000000000, 0.000000000000000 ) );
#235 = DIRECTION( '', ( -0.000000000000000, 0.000000000000000, -1.00000000000000 ) );
#236 = SURFACE_STYLE_FILL_AREA( #312 );
#237 = ORIENTED_EDGE( '', *, *, #313, .T. );
#238 = ORIENTED_EDGE( '', *, *, #314, .F. );
#239 = CARTESIAN_POINT( '', ( 3.00000000000000, 84.8528137423857, -84.8528137423857 ) );
#240 = DIRECTION( '', ( -1.00000000000000, -0.000000000000000, 0.000000000000000 ) );
#241 = DIRECTION( '', ( -0.000000000000000, 0.000000000000000, -1.00000000000000 ) );
#242 = SURFACE_STYLE_FILL_AREA( #315 );
#243 = ORIENTED_EDGE( '', *, *, #316, .T. );
#244 = ORIENTED_EDGE( '', *, *, #317, .T. );
#245 = ORIENTED_EDGE( '', *, *, #308, .T. );
#246 = ORIENTED_EDGE( '', *, *, #305, .T. );
#247 = ORIENTED_EDGE( '', *, *, #302, .T. );
#248 = ORIENTED_EDGE( '', *, *, #318, .T. );
#249 = ORIENTED_EDGE( '', *, *, #319, .T. );
#250 = ORIENTED_EDGE( '', *, *, #320, .T. );
#251 = ORIENTED_EDGE( '', *, *, #314, .T. );
#252 = ORIENTED_EDGE( '', *, *, #310, .F. );
#253 = CARTESIAN_POINT( '', ( 0.000000000000000, 135.000000000000, 0.000000000000000 ) );
#254 = DIRECTION( '', ( -1.00000000000000, 0.000000000000000, 0.000000000000000 ) );
#255 = DIRECTION( '', ( 0.000000000000000, 0.000000000000000, 1.00000000000000 ) );
#256 = SURFACE_STYLE_FILL_AREA( #321 );
#257 = ORIENTED_EDGE( '', *, *, #322, .T. );
#258 = ORIENTED_EDGE( '', *, *, #318, .F. );
#259 = CARTESIAN_POINT( '', ( 3.00000000000000, -84.8528137423857, 84.8528137423857 ) );
#260 = DIRECTION( '', ( -1.00000000000000, -0.000000000000000, 0.000000000000000 ) );
#261 = DIRECTION( '', ( -0.000000000000000, 0.000000000000000, -1.00000000000000 ) );
#262 = SURFACE_STYLE_FILL_AREA( #323 );
#263 = ORIENTED_EDGE( '', *, *, #324, .T. );
#264 = ORIENTED_EDGE( '', *, *, #316, .F. );
#265 = CARTESIAN_POINT( '', ( 3.00000000000000, 0.000000000000000, 0.000000000000000 ) );
#266 = DIRECTION( '', ( -1.00000000000000, -0.000000000000000, 0.000000000000000 ) );
#267 = DIRECTION( '', ( -0.000000000000000, 0.000000000000000, -1.00000000000000 ) );
#268 = SURFACE_STYLE_FILL_AREA( #325 );
#269 = ORIENTED_EDGE( '', *, *, #326, .T. );
#270 = ORIENTED_EDGE( '', *, *, #319, .F. );
#271 = CARTESIAN_POINT( '', ( 3.00000000000000, 0.000000000000000, 120.000000000000 ) );
#272 = DIRECTION( '', ( -1.00000000000000, -0.000000000000000, 0.000000000000000 ) );
#273 = DIRECTION( '', ( -0.000000000000000, 0.000000000000000, -1.00000000000000 ) );
#274 = SURFACE_STYLE_FILL_AREA( #327 );
#275 = ORIENTED_EDGE( '', *, *, #311, .T. );
#276 = ORIENTED_EDGE( '', *, *, #328, .T. );
#277 = ORIENTED_EDGE( '', *, *, #307, .F. );
#278 = ORIENTED_EDGE( '', *, *, #304, .F. );
#279 = ORIENTED_EDGE( '', *, *, #301, .F. );
#280 = ORIENTED_EDGE( '', *, *, #322, .F. );
#281 = ORIENTED_EDGE( '', *, *, #326, .F. );
#282 = ORIENTED_EDGE( '', *, *, #329, .F. );
#283 = ORIENTED_EDGE( '', *, *, #313, .F. );
#284 = ORIENTED_EDGE( '', *, *, #324, .F. );
#285 = CARTESIAN_POINT( '', ( 3.00000000000000, 100.000000000000, 0.000000000000000 ) );
#286 = DIRECTION( '', ( 1.00000000000000, 0.000000000000000, -0.000000000000000 ) );
#287 = DIRECTION( '', ( -0.000000000000000, 0.000000000000000, -1.00000000000000 ) );
#288 = SURFACE_STYLE_FILL_AREA( #330 );
#289 = ORIENTED_EDGE( '', *, *, #329, .T. );
#290 = ORIENTED_EDGE( '', *, *, #320, .F. );
#291 = CARTESIAN_POINT( '', ( 3.00000000000000, 84.8528137423857, 84.8528137423857 ) );
#292 = DIRECTION( '', ( -1.00000000000000, -0.000000000000000, 0.000000000000000 ) );
#293 = DIRECTION( '', ( -0.000000000000000, 0.000000000000000, -1.00000000000000 ) );
#294 = SURFACE_STYLE_FILL_AREA( #331 );
#295 = ORIENTED_EDGE( '', *, *, #328, .F. );
#296 = ORIENTED_EDGE( '', *, *, #317, .F. );
#297 = CARTESIAN_POINT( '', ( 3.00000000000000, 120.000000000000, 0.000000000000000 ) );
#298 = DIRECTION( '', ( -1.00000000000000, -0.000000000000000, 0.000000000000000 ) );
#299 = DIRECTION( '', ( -0.000000000000000, 0.000000000000000, -1.00000000000000 ) );
#300 = FILL_AREA_STYLE( '', ( #332 ) );
#301 = EDGE_CURVE( '', #333, #333, #334, .T. );
#302 = EDGE_CURVE( '', #335, #335, #336, .T. );
#303 = FILL_AREA_STYLE( '', ( #337 ) );
#304 = EDGE_CURVE( '', #338, #338, #339, .T. );
#305 = EDGE_CURVE( '', #340, #340, #341, .T. );
#306 = FILL_AREA_STYLE( '', ( #342 ) );
#307 = EDGE_CURVE( '', #343, #343, #344, .T. );
#308 = EDGE_CURVE( '', #345, #345, #346, .T. );
#309 = FILL_AREA_STYLE( '', ( #347 ) );
#310 = EDGE_CURVE( '', #348, #348, #349, .T. );
#311 = EDGE_CURVE( '', #350, #350, #351, .T. );
#312 = FILL_AREA_STYLE( '', ( #352 ) );
#313 = EDGE_CURVE( '', #353, #353, #354, .T. );
#314 = EDGE_CURVE( '', #355, #355, #356, .T. );
#315 = FILL_AREA_STYLE( '', ( #357 ) );
#316 = EDGE_CURVE( '', #358, #358, #359, .T. );
#317 = EDGE_CURVE( '', #360, #360, #361, .T. );
#318 = EDGE_CURVE( '', #362, #362, #363, .T. );
#319 = EDGE_CURVE( '', #364, #364, #365, .T. );
#320 = EDGE_CURVE( '', #366, #366, #367, .T. );
#321 = FILL_AREA_STYLE( '', ( #368 ) );
#322 = EDGE_CURVE( '', #369, #369, #370, .T. );
#323 = FILL_AREA_STYLE( '', ( #371 ) );
#324 = EDGE_CURVE( '', #372, #372, #373, .T. );
#325 = FILL_AREA_STYLE( '', ( #374 ) );
#326 = EDGE_CURVE( '', #375, #375, #376, .T. );
#327 = FILL_AREA_STYLE( '', ( #377 ) );
#328 = EDGE_CURVE( '', #378, #378, #379, .F. );
#329 = EDGE_CURVE( '', #380, #380, #381, .T. );
#330 = FILL_AREA_STYLE( '', ( #382 ) );
#331 = FILL_AREA_STYLE( '', ( #383 ) );
#332 = FILL_AREA_STYLE_COLOUR( '', #384 );
#333 = VERTEX_POINT( '', #385 );
#334 = CIRCLE( '', #386, 4.75000000000000 );
#335 = VERTEX_POINT( '', #387 );
#336 = CIRCLE( '', #388, 4.75000000000000 );
#337 = FILL_AREA_STYLE_COLOUR( '', #389 );
#338 = VERTEX_POINT( '', #390 );
#339 = CIRCLE( '', #391, 4.75000000000000 );
#340 = VERTEX_POINT( '', #392 );
#341 = CIRCLE( '', #393, 4.75000000000000 );
#342 = FILL_AREA_STYLE_COLOUR( '', #394 );
#343 = VERTEX_POINT( '', #395 );
#344 = CIRCLE( '', #396, 4.75000000000000 );
#345 = VERTEX_POINT( '', #397 );
#346 = CIRCLE( '', #398, 4.75000000000000 );
#347 = FILL_AREA_STYLE_COLOUR( '', #399 );
#348 = VERTEX_POINT( '', #400 );
#349 = CIRCLE( '', #401, 135.000000000000 );
#350 = VERTEX_POINT( '', #402 );
#351 = CIRCLE( '', #403, 135.000000000000 );
#352 = FILL_AREA_STYLE_COLOUR( '', #404 );
#353 = VERTEX_POINT( '', #405 );
#354 = CIRCLE( '', #406, 4.75000000000000 );
#355 = VERTEX_POINT( '', #407 );
#356 = CIRCLE( '', #408, 4.75000000000000 );
#357 = FILL_AREA_STYLE_COLOUR( '', #409 );
#358 = VERTEX_POINT( '', #410 );
#359 = CIRCLE( '', #411, 100.000000000000 );
#360 = VERTEX_POINT( '', #412 );
#361 = CIRCLE( '', #413, 4.75000000000000 );
#362 = VERTEX_POINT( '', #414 );
#363 = CIRCLE( '', #415, 4.75000000000000 );
#364 = VERTEX_POINT( '', #416 );
#365 = CIRCLE( '', #417, 4.75000000000000 );
#366 = VERTEX_POINT( '', #418 );
#367 = CIRCLE( '', #419, 4.75000000000000 );
#368 = FILL_AREA_STYLE_COLOUR( '', #420 );
#369 = VERTEX_POINT( '', #421 );
#370 = CIRCLE( '', #422, 4.75000000000000 );
#371 = FILL_AREA_STYLE_COLOUR( '', #423 );
#372 = VERTEX_POINT( '', #424 );
#373 = CIRCLE( '', #425, 100.000000000000 );
#374 = FILL_AREA_STYLE_COLOUR( '', #426 );
#375 = VERTEX_POINT( '', #427 );
#376 = CIRCLE( '', #428, 4.75000000000000 );
#377 = FILL_AREA_STYLE_COLOUR( '', #429 );
#378 = VERTEX_POINT( '', #430 );
#379 = CIRCLE( '', #431, 4.75000000000000 );
#380 = VERTEX_POINT( '', #432 );
#381 = CIRCLE( '', #433, 4.75000000000000 );
#382 = FILL_AREA_STYLE_COLOUR( '', #434 );
#383 = FILL_AREA_STYLE_COLOUR( '', #435 );
#384 = COLOUR_RGB( '', 0.689999997600000, 0.689999997600000, 0.689999997600000 );
#385 = CARTESIAN_POINT( '', ( 3.00000000000000, -120.000000000000, -4.75000000000000 ) );
#386 = AXIS2_PLACEMENT_3D( '', #436, #437, #438 );
#387 = CARTESIAN_POINT( '', ( 0.000000000000000, -120.000000000000, -4.75000000000000 ) );
#388 = AXIS2_PLACEMENT_3D( '', #439, #440, #441 );
#389 = COLOUR_RGB( '', 0.689999997600000, 0.689999997600000, 0.689999997600000 );
#390 = CARTESIAN_POINT( '', ( 3.00000000000000, -84.8528137423857, -89.6028137423857 ) );
#391 = AXIS2_PLACEMENT_3D( '', #442, #443, #444 );
#392 = CARTESIAN_POINT( '', ( 0.000000000000000, -84.8528137423857, -89.6028137423857 ) );
#393 = AXIS2_PLACEMENT_3D( '', #445, #446, #447 );
#394 = COLOUR_RGB( '', 0.689999997600000, 0.689999997600000, 0.689999997600000 );
#395 = CARTESIAN_POINT( '', ( 3.00000000000000, 0.000000000000000, -124.750000000000 ) );
#396 = AXIS2_PLACEMENT_3D( '', #448, #449, #450 );
#397 = CARTESIAN_POINT( '', ( 0.000000000000000, 0.000000000000000, -124.750000000000 ) );
#398 = AXIS2_PLACEMENT_3D( '', #451, #452, #453 );
#399 = COLOUR_RGB( '', 0.689999997600000, 0.689999997600000, 0.689999997600000 );
#400 = CARTESIAN_POINT( '', ( 0.000000000000000, 0.000000000000000, -135.000000000000 ) );
#401 = AXIS2_PLACEMENT_3D( '', #454, #455, #456 );
#402 = CARTESIAN_POINT( '', ( 3.00000000000000, 0.000000000000000, -135.000000000000 ) );
#403 = AXIS2_PLACEMENT_3D( '', #457, #458, #459 );
#404 = COLOUR_RGB( '', 0.689999997600000, 0.689999997600000, 0.689999997600000 );
#405 = CARTESIAN_POINT( '', ( 3.00000000000000, 84.8528137423857, -89.6028137423857 ) );
#406 = AXIS2_PLACEMENT_3D( '', #460, #461, #462 );
#407 = CARTESIAN_POINT( '', ( 0.000000000000000, 84.8528137423857, -89.6028137423857 ) );
#408 = AXIS2_PLACEMENT_3D( '', #463, #464, #465 );
#409 = COLOUR_RGB( '', 0.689999997600000, 0.689999997600000, 0.689999997600000 );
#410 = CARTESIAN_POINT( '', ( 0.000000000000000, 0.000000000000000, -100.000000000000 ) );
#411 = AXIS2_PLACEMENT_3D( '', #466, #467, #468 );
#412 = CARTESIAN_POINT( '', ( 0.000000000000000, 120.000000000000, -4.75000000000000 ) );
#413 = AXIS2_PLACEMENT_3D( '', #469, #470, #471 );
#414 = CARTESIAN_POINT( '', ( 0.000000000000000, -84.8528137423857, 80.1028137423857 ) );
#415 = AXIS2_PLACEMENT_3D( '', #472, #473, #474 );
#416 = CARTESIAN_POINT( '', ( 0.000000000000000, 0.000000000000000, 115.250000000000 ) );
#417 = AXIS2_PLACEMENT_3D( '', #475, #476, #477 );
#418 = CARTESIAN_POINT( '', ( 0.000000000000000, 84.8528137423857, 80.1028137423857 ) );
#419 = AXIS2_PLACEMENT_3D( '', #478, #479, #480 );
#420 = COLOUR_RGB( '', 0.689999997600000, 0.689999997600000, 0.689999997600000 );
#421 = CARTESIAN_POINT( '', ( 3.00000000000000, -84.8528137423857, 80.1028137423857 ) );
#422 = AXIS2_PLACEMENT_3D( '', #481, #482, #483 );
#423 = COLOUR_RGB( '', 0.689999997600000, 0.689999997600000, 0.689999997600000 );
#424 = CARTESIAN_POINT( '', ( 3.00000000000000, 0.000000000000000, -100.000000000000 ) );
#425 = AXIS2_PLACEMENT_3D( '', #484, #485, #486 );
#426 = COLOUR_RGB( '', 0.689999997600000, 0.689999997600000, 0.689999997600000 );
#427 = CARTESIAN_POINT( '', ( 3.00000000000000, 0.000000000000000, 115.250000000000 ) );
#428 = AXIS2_PLACEMENT_3D( '', #487, #488, #489 );
#429 = COLOUR_RGB( '', 0.689999997600000, 0.689999997600000, 0.689999997600000 );
#430 = CARTESIAN_POINT( '', ( 3.00000000000000, 120.000000000000, -4.75000000000000 ) );
#431 = AXIS2_PLACEMENT_3D( '', #490, #491, #492 );
#432 = CARTESIAN_POINT( '', ( 3.00000000000000, 84.8528137423857, 80.1028137423857 ) );
#433 = AXIS2_PLACEMENT_3D( '', #493, #494, #495 );
#434 = COLOUR_RGB( '', 0.689999997600000, 0.689999997600000, 0.689999997600000 );
#435 = COLOUR_RGB( '', 0.689999997600000, 0.689999997600000, 0.689999997600000 );
#436 = CARTESIAN_POINT( '', ( 3.00000000000000, -120.000000000000, 0.000000000000000 ) );
#437 = DIRECTION( '', ( 1.00000000000000, 0.000000000000000, -0.000000000000000 ) );
#438 = DIRECTION( '', ( -0.000000000000000, 0.000000000000000, -1.00000000000000 ) );
#439 = CARTESIAN_POINT( '', ( 0.000000000000000, -120.000000000000, 0.000000000000000 ) );
#440 = DIRECTION( '', ( 1.00000000000000, 0.000000000000000, -0.000000000000000 ) );
#441 = DIRECTION( '', ( -0.000000000000000, 0.000000000000000, -1.00000000000000 ) );
#442 = CARTESIAN_POINT( '', ( 3.00000000000000, -84.8528137423857, -84.8528137423857 ) );
#443 = DIRECTION( '', ( 1.00000000000000, 0.000000000000000, -0.000000000000000 ) );
#444 = DIRECTION( '', ( -0.000000000000000, 0.000000000000000, -1.00000000000000 ) );
#445 = CARTESIAN_POINT( '', ( 0.000000000000000, -84.8528137423857, -84.8528137423857 ) );
#446 = DIRECTION( '', ( 1.00000000000000, 0.000000000000000, -0.000000000000000 ) );
#447 = DIRECTION( '', ( -0.000000000000000, 0.000000000000000, -1.00000000000000 ) );
#448 = CARTESIAN_POINT( '', ( 3.00000000000000, 0.000000000000000, -120.000000000000 ) );
#449 = DIRECTION( '', ( 1.00000000000000, 0.000000000000000, -0.000000000000000 ) );
#450 = DIRECTION( '', ( -0.000000000000000, 0.000000000000000, -1.00000000000000 ) );
#451 = CARTESIAN_POINT( '', ( 0.000000000000000, 0.000000000000000, -120.000000000000 ) );
#452 = DIRECTION( '', ( 1.00000000000000, 0.000000000000000, -0.000000000000000 ) );
#453 = DIRECTION( '', ( -0.000000000000000, 0.000000000000000, -1.00000000000000 ) );
#454 = CARTESIAN_POINT( '', ( 0.000000000000000, 0.000000000000000, 0.000000000000000 ) );
#455 = DIRECTION( '', ( 1.00000000000000, 0.000000000000000, -0.000000000000000 ) );
#456 = DIRECTION( '', ( -0.000000000000000, 0.000000000000000, -1.00000000000000 ) );
#457 = CARTESIAN_POINT( '', ( 3.00000000000000, 0.000000000000000, 0.000000000000000 ) );
#458 = DIRECTION( '', ( 1.00000000000000, 0.000000000000000, -0.000000000000000 ) );
#459 = DIRECTION( '', ( -0.000000000000000, 0.000000000000000, -1.00000000000000 ) );
#460 = CARTESIAN_POINT( '', ( 3.00000000000000, 84.8528137423857, -84.8528137423857 ) );
#461 = DIRECTION( '', ( 1.00000000000000, 0.000000000000000, -0.000000000000000 ) );
#462 = DIRECTION( '', ( -0.000000000000000, 0.000000000000000, -1.00000000000000 ) );
#463 = CARTESIAN_POINT( '', ( 0.000000000000000, 84.8528137423857, -84.8528137423857 ) );
#464 = DIRECTION( '', ( 1.00000000000000, 0.000000000000000, -0.000000000000000 ) );
#465 = DIRECTION( '', ( -0.000000000000000, 0.000000000000000, -1.00000000000000 ) );
#466 = CARTESIAN_POINT( '', ( 0.000000000000000, 0.000000000000000, 0.000000000000000 ) );
#467 = DIRECTION( '', ( 1.00000000000000, 0.000000000000000, -0.000000000000000 ) );
#468 = DIRECTION( '', ( -0.000000000000000, 0.000000000000000, -1.00000000000000 ) );
#469 = CARTESIAN_POINT( '', ( 0.000000000000000, 120.000000000000, 0.000000000000000 ) );
#470 = DIRECTION( '', ( 1.00000000000000, 0.000000000000000, -0.000000000000000 ) );
#471 = DIRECTION( '', ( -0.000000000000000, 0.000000000000000, -1.00000000000000 ) );
#472 = CARTESIAN_POINT( '', ( 0.000000000000000, -84.8528137423857, 84.8528137423857 ) );
#473 = DIRECTION( '', ( 1.00000000000000, 0.000000000000000, -0.000000000000000 ) );
#474 = DIRECTION( '', ( -0.000000000000000, 0.000000000000000, -1.00000000000000 ) );
#475 = CARTESIAN_POINT( '', ( 0.000000000000000, 0.000000000000000, 120.000000000000 ) );
#476 = DIRECTION( '', ( 1.00000000000000, 0.000000000000000, -0.000000000000000 ) );
#477 = DIRECTION( '', ( -0.000000000000000, 0.000000000000000, -1.00000000000000 ) );
#478 = CARTESIAN_POINT( '', ( 0.000000000000000, 84.8528137423857, 84.8528137423857 ) );
#479 = DIRECTION( '', ( 1.00000000000000, 0.000000000000000, -0.000000000000000 ) );
#480 = DIRECTION( '', ( -0.000000000000000, 0.000000000000000, -1.00000000000000 ) );
#481 = CARTESIAN_POINT( '', ( 3.00000000000000, -84.8528137423857, 84.8528137423857 ) );
#482 = DIRECTION( '', ( 1.00000000000000, 0.000000000000000, -0.000000000000000 ) );
#483 = DIRECTION( '', ( -0.000000000000000, 0.000000000000000, -1.00000000000000 ) );
#484 = CARTESIAN_POINT( '', ( 3.00000000000000, 0.000000000000000, 0.000000000000000 ) );
#485 = DIRECTION( '', ( 1.00000000000000, 0.000000000000000, -0.000000000000000 ) );
#486 = DIRECTION( '', ( -0.000000000000000, 0.000000000000000, -1.00000000000000 ) );
#487 = CARTESIAN_POINT( '', ( 3.00000000000000, 0.000000000000000, 120.000000000000 ) );
#488 = DIRECTION( '', ( 1.00000000000000, 0.000000000000000, -0.000000000000000 ) );
#489 = DIRECTION( '', ( -0.000000000000000, 0.000000000000000, -1.00000000000000 ) );
#490 = CARTESIAN_POINT( '', ( 3.00000000000000, 120.000000000000, 0.000000000000000 ) );
#491 = DIRECTION( '', ( 1.00000000000000, 0.000000000000000, -0.000000000000000 ) );
#492 = DIRECTION( '', ( -0.000000000000000, 0.000000000000000, -1.00000000000000 ) );
#493 = CARTESIAN_POINT( '', ( 3.00000000000000, 84.8528137423857, 84.8528137423857 ) );
#494 = DIRECTION( '', ( 1.00000000000000, 0.000000000000000, -0.000000000000000 ) );
#495 = DIRECTION( '', ( -0.000000000000000, 0.000000000000000, -1.00000000000000 ) );
ENDSEC;
END-ISO-10303-21;
