ISO-10303-21;
HEADER;
/* Generated by software containing ST-Developer
 * from STEP Tools, Inc. (www.steptools.com) 
 */

FILE_DESCRIPTION(
/* description */ (''),
/* implementation_level */ '2;1');

FILE_NAME(
/* name */ 
'Q:\\Ric010\\FF7\\FIPlastiCAD\\FIP\\Lavoro\\PVC Fittings\\PVC Fittings
 STEP\\TRIV\\TRIV090050.ipt.stp',
/* time_stamp */ '2013-10-01T14:56:39+02:00',
/* author */ ('bfaro'),
/* organization */ (''),
/* preprocessor_version */ 'ST-DEVELOPER v15.2',
/* originating_system */ 'Autodesk Inventor 2014',
/* authorisation */ '');

FILE_SCHEMA (('AUTOMOTIVE_DESIGN { 1 0 10303 214 3 1 1 }'));
ENDSEC;

DATA;
#10=SHAPE_REPRESENTATION_RELATIONSHIP('SRR','None',#451,#11);
#11=ADVANCED_BREP_SHAPE_REPRESENTATION($,(#181),#442);
#12=STYLED_ITEM($,(#459),#181);
#13=PLANE($,#202);
#14=PLANE($,#203);
#15=PLANE($,#204);
#16=PLANE($,#205);
#17=PLANE($,#206);
#18=PLANE($,#207);
#19=FACE_BOUND($,#53,.T.);
#20=FACE_BOUND($,#55,.T.);
#21=FACE_BOUND($,#56,.T.);
#22=FACE_BOUND($,#58,.T.);
#23=FACE_BOUND($,#59,.T.);
#24=FACE_BOUND($,#61,.T.);
#25=FACE_BOUND($,#63,.T.);
#26=FACE_BOUND($,#65,.T.);
#27=FACE_BOUND($,#67,.T.);
#28=FACE_BOUND($,#69,.T.);
#29=FACE_BOUND($,#70,.T.);
#30=FACE_BOUND($,#71,.T.);
#31=FACE_BOUND($,#73,.T.);
#32=FACE_BOUND($,#75,.T.);
#33=FACE_BOUND($,#76,.T.);
#34=FACE_BOUND($,#77,.T.);
#35=FACE_BOUND($,#78,.T.);
#36=FACE_BOUND($,#79,.T.);
#37=B_SPLINE_CURVE_WITH_KNOTS($,3,(#265,#266,#267,#268,#269,#270,#271,#272,
#273,#274,#275,#276,#277,#278,#279,#280,#281,#282,#283,#284,#285,#286,#287,
#288,#289,#290,#291,#292,#293,#294,#295,#296,#297,#298,#299,#300,#301,#302,
#303,#304,#305,#306,#307,#308,#309,#310,#311,#312,#313,#314,#315,#316,#317,
#318,#319,#320,#321,#322,#323,#324,#325,#326,#327,#328,#329,#330),
 .UNSPECIFIED.,.T.,.F.,(4,2,2,2,2,2,2,2,2,2,2,2,2,2,2,2,2,2,2,2,2,2,2,2,
2,2,2,2,2,2,2,2,4),(0.,0.465060751426054,0.930121502852108,1.39518225427816,
1.86024300570422,2.32318781433065,2.78613262295708,3.24907743158351,3.71202224020994,
4.17496704883637,4.6379118574628,5.10085666608923,5.56380147471566,6.02886222614171,
6.49392297756777,6.95898372899382,7.42404448041987,7.88910523183772,8.35416598325556,
8.81922673467341,9.28428748609125,9.74723229471537,10.2101771033395,10.6731219119636,
11.1360667205877,11.5990115292119,12.061956337836,12.5249011464601,12.9878459550842,
13.4529067065021,13.9179674579199,14.3830282093377,14.8480889607556),
 .UNSPECIFIED.);
#38=B_SPLINE_CURVE_WITH_KNOTS($,3,(#343,#344,#345,#346,#347,#348,#349,#350,
#351,#352,#353,#354,#355,#356,#357,#358,#359,#360),.UNSPECIFIED.,.F.,.F.,
(4,2,2,2,2,2,2,2,4),(9.43629819393182,10.0274287992996,10.6185594046675,
11.2096900100353,11.8008206154031,12.3892272842634,12.9776339531237,13.5660406219839,
14.1544472908442),.UNSPECIFIED.);
#39=B_SPLINE_CURVE_WITH_KNOTS($,3,(#362,#363,#364,#365,#366,#367,#368,#369,
#370,#371,#372,#373,#374,#375,#376,#377,#378,#379),.UNSPECIFIED.,.F.,.F.,
(4,2,2,2,2,2,2,2,4),(-9.43629819393182,-8.84516758855992,-8.25403698318802,
-7.66290637781611,-7.07177577244421,-6.48336910357464,-5.89496243470507,
-5.30655576583549,-4.71814909696592),.UNSPECIFIED.);
#40=B_SPLINE_CURVE_WITH_KNOTS($,3,(#381,#382,#383,#384,#385,#386,#387,#388,
#389,#390,#391,#392,#393,#394,#395,#396,#397,#398),.UNSPECIFIED.,.F.,.F.,
(4,2,2,2,2,2,2,2,4),(14.1544472907907,14.7428539596602,15.3312606285298,
15.9196672973994,16.508073966269,17.0992045716409,17.6903351770128,18.2814657823847,
18.8725963877566),.UNSPECIFIED.);
#41=B_SPLINE_CURVE_WITH_KNOTS($,3,(#399,#400,#401,#402,#403,#404,#405,#406,
#407,#408,#409,#410,#411,#412,#413,#414,#415,#416),.UNSPECIFIED.,.F.,.F.,
(4,2,2,2,2,2,2,2,4),(-4.71814909691238,-4.1297424280521,-3.54133575919182,
-2.95292909033154,-2.36452242147126,-1.77339181610344,-1.18226121073562,
-0.591130605367801,1.95399252334028E-014),.UNSPECIFIED.);
#42=FACE_OUTER_BOUND($,#52,.T.);
#43=FACE_OUTER_BOUND($,#54,.T.);
#44=FACE_OUTER_BOUND($,#57,.T.);
#45=FACE_OUTER_BOUND($,#60,.T.);
#46=FACE_OUTER_BOUND($,#62,.T.);
#47=FACE_OUTER_BOUND($,#64,.T.);
#48=FACE_OUTER_BOUND($,#66,.T.);
#49=FACE_OUTER_BOUND($,#68,.T.);
#50=FACE_OUTER_BOUND($,#72,.T.);
#51=FACE_OUTER_BOUND($,#74,.T.);
#52=EDGE_LOOP($,(#126));
#53=EDGE_LOOP($,(#127));
#54=EDGE_LOOP($,(#128));
#55=EDGE_LOOP($,(#129));
#56=EDGE_LOOP($,(#130));
#57=EDGE_LOOP($,(#131));
#58=EDGE_LOOP($,(#132));
#59=EDGE_LOOP($,(#133,#134,#135,#136));
#60=EDGE_LOOP($,(#137));
#61=EDGE_LOOP($,(#138));
#62=EDGE_LOOP($,(#139,#140,#141,#142));
#63=EDGE_LOOP($,(#143));
#64=EDGE_LOOP($,(#144));
#65=EDGE_LOOP($,(#145));
#66=EDGE_LOOP($,(#146));
#67=EDGE_LOOP($,(#147));
#68=EDGE_LOOP($,(#148));
#69=EDGE_LOOP($,(#149));
#70=EDGE_LOOP($,(#150));
#71=EDGE_LOOP($,(#151));
#72=EDGE_LOOP($,(#152));
#73=EDGE_LOOP($,(#153));
#74=EDGE_LOOP($,(#154));
#75=EDGE_LOOP($,(#155));
#76=EDGE_LOOP($,(#156));
#77=EDGE_LOOP($,(#157));
#78=EDGE_LOOP($,(#158));
#79=EDGE_LOOP($,(#159));
#80=CIRCLE($,#184,24.);
#81=CIRCLE($,#186,43.);
#82=CIRCLE($,#187,43.);
#83=CIRCLE($,#189,54.5);
#84=CIRCLE($,#190,54.5);
#85=CIRCLE($,#192,45.);
#86=CIRCLE($,#193,45.);
#87=CIRCLE($,#195,30.5);
#88=CIRCLE($,#197,45.);
#89=CIRCLE($,#198,45.);
#90=CIRCLE($,#200,25.);
#91=CIRCLE($,#201,25.);
#92=VERTEX_POINT($,#262);
#93=VERTEX_POINT($,#264);
#94=VERTEX_POINT($,#332);
#95=VERTEX_POINT($,#334);
#96=VERTEX_POINT($,#337);
#97=VERTEX_POINT($,#339);
#98=VERTEX_POINT($,#341);
#99=VERTEX_POINT($,#342);
#100=VERTEX_POINT($,#361);
#101=VERTEX_POINT($,#380);
#102=VERTEX_POINT($,#418);
#103=VERTEX_POINT($,#420);
#104=VERTEX_POINT($,#423);
#105=VERTEX_POINT($,#426);
#106=VERTEX_POINT($,#428);
#107=VERTEX_POINT($,#431);
#108=VERTEX_POINT($,#433);
#109=EDGE_CURVE($,#92,#92,#80,.T.);
#110=EDGE_CURVE($,#93,#93,#37,.T.);
#111=EDGE_CURVE($,#94,#94,#81,.T.);
#112=EDGE_CURVE($,#95,#95,#82,.T.);
#113=EDGE_CURVE($,#96,#96,#83,.T.);
#114=EDGE_CURVE($,#97,#97,#84,.T.);
#115=EDGE_CURVE($,#98,#99,#38,.T.);
#116=EDGE_CURVE($,#98,#100,#39,.T.);
#117=EDGE_CURVE($,#100,#101,#40,.T.);
#118=EDGE_CURVE($,#99,#101,#41,.T.);
#119=EDGE_CURVE($,#102,#102,#85,.T.);
#120=EDGE_CURVE($,#103,#103,#86,.T.);
#121=EDGE_CURVE($,#104,#104,#87,.T.);
#122=EDGE_CURVE($,#105,#105,#88,.T.);
#123=EDGE_CURVE($,#106,#106,#89,.T.);
#124=EDGE_CURVE($,#107,#107,#90,.T.);
#125=EDGE_CURVE($,#108,#108,#91,.T.);
#126=ORIENTED_EDGE($,*,*,#109,.F.);
#127=ORIENTED_EDGE($,*,*,#110,.F.);
#128=ORIENTED_EDGE($,*,*,#111,.F.);
#129=ORIENTED_EDGE($,*,*,#112,.F.);
#130=ORIENTED_EDGE($,*,*,#110,.T.);
#131=ORIENTED_EDGE($,*,*,#113,.F.);
#132=ORIENTED_EDGE($,*,*,#114,.T.);
#133=ORIENTED_EDGE($,*,*,#115,.F.);
#134=ORIENTED_EDGE($,*,*,#116,.T.);
#135=ORIENTED_EDGE($,*,*,#117,.T.);
#136=ORIENTED_EDGE($,*,*,#118,.F.);
#137=ORIENTED_EDGE($,*,*,#119,.T.);
#138=ORIENTED_EDGE($,*,*,#120,.F.);
#139=ORIENTED_EDGE($,*,*,#116,.F.);
#140=ORIENTED_EDGE($,*,*,#115,.T.);
#141=ORIENTED_EDGE($,*,*,#118,.T.);
#142=ORIENTED_EDGE($,*,*,#117,.F.);
#143=ORIENTED_EDGE($,*,*,#121,.F.);
#144=ORIENTED_EDGE($,*,*,#122,.T.);
#145=ORIENTED_EDGE($,*,*,#123,.F.);
#146=ORIENTED_EDGE($,*,*,#124,.T.);
#147=ORIENTED_EDGE($,*,*,#125,.F.);
#148=ORIENTED_EDGE($,*,*,#114,.F.);
#149=ORIENTED_EDGE($,*,*,#120,.T.);
#150=ORIENTED_EDGE($,*,*,#112,.T.);
#151=ORIENTED_EDGE($,*,*,#119,.F.);
#152=ORIENTED_EDGE($,*,*,#113,.T.);
#153=ORIENTED_EDGE($,*,*,#122,.F.);
#154=ORIENTED_EDGE($,*,*,#121,.T.);
#155=ORIENTED_EDGE($,*,*,#124,.F.);
#156=ORIENTED_EDGE($,*,*,#111,.T.);
#157=ORIENTED_EDGE($,*,*,#123,.T.);
#158=ORIENTED_EDGE($,*,*,#109,.T.);
#159=ORIENTED_EDGE($,*,*,#125,.T.);
#160=CYLINDRICAL_SURFACE($,#183,24.);
#161=CYLINDRICAL_SURFACE($,#185,43.);
#162=CYLINDRICAL_SURFACE($,#188,54.5);
#163=CYLINDRICAL_SURFACE($,#191,45.);
#164=CYLINDRICAL_SURFACE($,#194,30.5);
#165=CYLINDRICAL_SURFACE($,#196,45.);
#166=CYLINDRICAL_SURFACE($,#199,25.0000000000001);
#167=ADVANCED_FACE($,(#42,#19),#160,.F.);
#168=ADVANCED_FACE($,(#43,#20,#21),#161,.F.);
#169=ADVANCED_FACE($,(#44,#22,#23),#162,.T.);
#170=ADVANCED_FACE($,(#45,#24),#163,.F.);
#171=ADVANCED_FACE($,(#46,#25),#164,.T.);
#172=ADVANCED_FACE($,(#47,#26),#165,.F.);
#173=ADVANCED_FACE($,(#48,#27),#166,.F.);
#174=ADVANCED_FACE($,(#49,#28),#13,.T.);
#175=ADVANCED_FACE($,(#29,#30),#14,.T.);
#176=ADVANCED_FACE($,(#50,#31),#15,.T.);
#177=ADVANCED_FACE($,(#51,#32),#16,.T.);
#178=ADVANCED_FACE($,(#33,#34),#17,.T.);
#179=ADVANCED_FACE($,(#35,#36),#18,.T.);
#180=CLOSED_SHELL($,(#167,#168,#169,#170,#171,#172,#173,#174,#175,#176,
#177,#178,#179));
#181=MANIFOLD_SOLID_BREP('Solido1',#180);
#182=AXIS2_PLACEMENT_3D('placement',#260,#208,#209);
#183=AXIS2_PLACEMENT_3D($,#261,#210,#211);
#184=AXIS2_PLACEMENT_3D($,#263,#212,#213);
#185=AXIS2_PLACEMENT_3D($,#331,#214,#215);
#186=AXIS2_PLACEMENT_3D($,#333,#216,#217);
#187=AXIS2_PLACEMENT_3D($,#335,#218,#219);
#188=AXIS2_PLACEMENT_3D($,#336,#220,#221);
#189=AXIS2_PLACEMENT_3D($,#338,#222,#223);
#190=AXIS2_PLACEMENT_3D($,#340,#224,#225);
#191=AXIS2_PLACEMENT_3D($,#417,#226,#227);
#192=AXIS2_PLACEMENT_3D($,#419,#228,#229);
#193=AXIS2_PLACEMENT_3D($,#421,#230,#231);
#194=AXIS2_PLACEMENT_3D($,#422,#232,#233);
#195=AXIS2_PLACEMENT_3D($,#424,#234,#235);
#196=AXIS2_PLACEMENT_3D($,#425,#236,#237);
#197=AXIS2_PLACEMENT_3D($,#427,#238,#239);
#198=AXIS2_PLACEMENT_3D($,#429,#240,#241);
#199=AXIS2_PLACEMENT_3D($,#430,#242,#243);
#200=AXIS2_PLACEMENT_3D($,#432,#244,#245);
#201=AXIS2_PLACEMENT_3D($,#434,#246,#247);
#202=AXIS2_PLACEMENT_3D($,#435,#248,#249);
#203=AXIS2_PLACEMENT_3D($,#436,#250,#251);
#204=AXIS2_PLACEMENT_3D($,#437,#252,#253);
#205=AXIS2_PLACEMENT_3D($,#438,#254,#255);
#206=AXIS2_PLACEMENT_3D($,#439,#256,#257);
#207=AXIS2_PLACEMENT_3D($,#440,#258,#259);
#208=DIRECTION('axis',(0.,0.,1.));
#209=DIRECTION('refdir',(1.,0.,0.));
#210=DIRECTION('center_axis',(-1.,0.,-4.48966536908977E-011));
#211=DIRECTION('ref_axis',(-4.48966536908977E-011,0.,1.));
#212=DIRECTION('center_axis',(-1.,0.,-4.489664E-011));
#213=DIRECTION('ref_axis',(-4.48966536908977E-011,0.,1.));
#214=DIRECTION('center_axis',(0.,0.,-1.));
#215=DIRECTION('ref_axis',(-1.,0.,0.));
#216=DIRECTION('center_axis',(0.,0.,-1.));
#217=DIRECTION('ref_axis',(-1.,0.,0.));
#218=DIRECTION('center_axis',(0.,0.,1.));
#219=DIRECTION('ref_axis',(-1.,0.,0.));
#220=DIRECTION('center_axis',(0.,0.,1.));
#221=DIRECTION('ref_axis',(1.,0.,0.));
#222=DIRECTION('center_axis',(0.,0.,1.));
#223=DIRECTION('ref_axis',(1.,0.,0.));
#224=DIRECTION('center_axis',(0.,0.,1.));
#225=DIRECTION('ref_axis',(1.,0.,0.));
#226=DIRECTION('center_axis',(0.,0.,1.));
#227=DIRECTION('ref_axis',(1.,0.,0.));
#228=DIRECTION('center_axis',(0.,0.,1.));
#229=DIRECTION('ref_axis',(1.,0.,0.));
#230=DIRECTION('center_axis',(0.,0.,1.));
#231=DIRECTION('ref_axis',(1.,0.,0.));
#232=DIRECTION('center_axis',(1.,0.,4.489664E-011));
#233=DIRECTION('ref_axis',(4.489664E-011,0.,-1.));
#234=DIRECTION('center_axis',(1.,0.,4.489664E-011));
#235=DIRECTION('ref_axis',(4.489664E-011,0.,-1.));
#236=DIRECTION('center_axis',(0.,0.,1.));
#237=DIRECTION('ref_axis',(1.,0.,0.));
#238=DIRECTION('center_axis',(0.,0.,1.));
#239=DIRECTION('ref_axis',(1.,0.,0.));
#240=DIRECTION('center_axis',(0.,0.,1.));
#241=DIRECTION('ref_axis',(1.,0.,0.));
#242=DIRECTION('center_axis',(1.,1.41263678377383E-014,4.48975493472812E-011));
#243=DIRECTION('ref_axis',(4.48974191158412E-011,0.,-1.));
#244=DIRECTION('center_axis',(1.,0.,4.489664E-011));
#245=DIRECTION('ref_axis',(4.489664E-011,0.,-1.));
#246=DIRECTION('center_axis',(1.,0.,4.489664E-011));
#247=DIRECTION('ref_axis',(4.489664E-011,0.,-1.));
#248=DIRECTION('center_axis',(0.,0.,-1.));
#249=DIRECTION('ref_axis',(-1.,0.,0.));
#250=DIRECTION('center_axis',(0.,0.,-1.));
#251=DIRECTION('ref_axis',(-1.,0.,0.));
#252=DIRECTION('center_axis',(0.,0.,1.));
#253=DIRECTION('ref_axis',(1.,0.,0.));
#254=DIRECTION('center_axis',(1.,0.,4.489664E-011));
#255=DIRECTION('ref_axis',(4.48963533017377E-011,0.,-1.));
#256=DIRECTION('center_axis',(0.,0.,1.));
#257=DIRECTION('ref_axis',(1.,0.,0.));
#258=DIRECTION('center_axis',(1.,0.,4.489664E-011));
#259=DIRECTION('ref_axis',(4.48963533017377E-011,0.,-1.));
#260=CARTESIAN_POINT('',(0.,0.,0.));
#261=CARTESIAN_POINT('Origin',(48.,0.,99.000000002155));
#262=CARTESIAN_POINT('',(48.0000000010775,2.93915231795365E-015,75.000000002155));
#263=CARTESIAN_POINT('Origin',(48.,0.,99.000000002155));
#264=CARTESIAN_POINT('',(35.6791255498225,24.,99.0000000016018));
#265=CARTESIAN_POINT('Ctrl Pts',(35.6791255498225,24.,99.0000000016018));
#266=CARTESIAN_POINT('Ctrl Pts',(35.6791255498225,24.,100.550202506355));
#267=CARTESIAN_POINT('Ctrl Pts',(35.7831829772286,23.8475040858604,102.137512510782));
#268=CARTESIAN_POINT('Ctrl Pts',(36.1922251103211,23.2220256614261,105.267771611992));
#269=CARTESIAN_POINT('Ctrl Pts',(36.4963681680111,22.7493399462725,106.810889928689));
#270=CARTESIAN_POINT('Ctrl Pts',(37.2367651370659,21.5160534556062,109.751840126508));
#271=CARTESIAN_POINT('Ctrl Pts',(37.6725907786327,20.7544606695856,111.152646295207));
#272=CARTESIAN_POINT('Ctrl Pts',(38.5840972369521,19.0062930065428,113.737546476329));
#273=CARTESIAN_POINT('Ctrl Pts',(39.0589793631048,18.0194110911622,114.921714407546));
#274=CARTESIAN_POINT('Ctrl Pts',(39.9579559435418,15.9264864771651,117.014639021583));
#275=CARTESIAN_POINT('Ctrl Pts',(40.4159057362983,14.744739731773,118.000782489412));
#276=CARTESIAN_POINT('Ctrl Pts',(41.2675485370851,12.1590387754941,119.750779773265));
#277=CARTESIAN_POINT('Ctrl Pts',(41.6606438425301,10.7549766487731,120.514764957774));
#278=CARTESIAN_POINT('Ctrl Pts',(42.3122820504394,7.80701992955494,121.750936023459));
#279=CARTESIAN_POINT('Ctrl Pts',(42.5710180996611,6.26020739838079,122.224115709284));
#280=CARTESIAN_POINT('Ctrl Pts',(42.9149796601817,3.12830616896041,122.8487619737));
#281=CARTESIAN_POINT('Ctrl Pts',(43.,1.5431493620881,123.000000001931));
#282=CARTESIAN_POINT('Ctrl Pts',(43.,-1.5431493620881,123.000000001931));
#283=CARTESIAN_POINT('Ctrl Pts',(42.9149796601817,-3.12830616896041,122.8487619737));
#284=CARTESIAN_POINT('Ctrl Pts',(42.5710180996611,-6.26020739838079,122.224115709284));
#285=CARTESIAN_POINT('Ctrl Pts',(42.3122820504394,-7.80701992955495,121.750936023459));
#286=CARTESIAN_POINT('Ctrl Pts',(41.6606438425301,-10.7549766487731,120.514764957774));
#287=CARTESIAN_POINT('Ctrl Pts',(41.2675485370851,-12.1590387754941,119.750779773265));
#288=CARTESIAN_POINT('Ctrl Pts',(40.4159057362982,-14.744739731773,118.000782489412));
#289=CARTESIAN_POINT('Ctrl Pts',(39.9579559435418,-15.9264864771651,117.014639021583));
#290=CARTESIAN_POINT('Ctrl Pts',(39.0589793631048,-18.0194110911622,114.921714407546));
#291=CARTESIAN_POINT('Ctrl Pts',(38.5840972369521,-19.0062930065428,113.737546476329));
#292=CARTESIAN_POINT('Ctrl Pts',(37.6725907786327,-20.7544606695856,111.152646295207));
#293=CARTESIAN_POINT('Ctrl Pts',(37.2367651370659,-21.5160534556062,109.751840126508));
#294=CARTESIAN_POINT('Ctrl Pts',(36.4963681680111,-22.7493399462725,106.810889928689));
#295=CARTESIAN_POINT('Ctrl Pts',(36.1922251103211,-23.2220256614261,105.267771611992));
#296=CARTESIAN_POINT('Ctrl Pts',(35.7831829772286,-23.8475040858604,102.137512510782));
#297=CARTESIAN_POINT('Ctrl Pts',(35.6791255498225,-24.,100.550202506355));
#298=CARTESIAN_POINT('Ctrl Pts',(35.6791255498225,-24.,97.4497974968757));
#299=CARTESIAN_POINT('Ctrl Pts',(35.7831829772251,-23.8475040858656,95.8624874924759));
#300=CARTESIAN_POINT('Ctrl Pts',(36.1922251103104,-23.2220256614427,92.7322283913224));
#301=CARTESIAN_POINT('Ctrl Pts',(36.4963681679968,-22.7493399462953,91.189110074655));
#302=CARTESIAN_POINT('Ctrl Pts',(37.2367651370471,-21.5160534556386,88.2481598769001));
#303=CARTESIAN_POINT('Ctrl Pts',(37.672590778613,-20.7544606696212,86.8473537082365));
#304=CARTESIAN_POINT('Ctrl Pts',(38.5840972369322,-19.0062930065831,84.262453527187));
#305=CARTESIAN_POINT('Ctrl Pts',(39.0589793630855,-18.019411091204,83.0782855960088));
#306=CARTESIAN_POINT('Ctrl Pts',(39.9579559435286,-15.9264864771993,80.9853609820335));
#307=CARTESIAN_POINT('Ctrl Pts',(40.41590573629,-14.7447397317966,79.9992175142346));
#308=CARTESIAN_POINT('Ctrl Pts',(41.2675485370839,-12.1590387754993,78.2492202304426));
#309=CARTESIAN_POINT('Ctrl Pts',(41.6606438425309,-10.7549766487705,77.4852350459652));
#310=CARTESIAN_POINT('Ctrl Pts',(42.3122820504419,-7.80701992954237,76.2490639803355));
#311=CARTESIAN_POINT('Ctrl Pts',(42.5710180996632,-6.26020739836609,75.7758842945349));
#312=CARTESIAN_POINT('Ctrl Pts',(42.9149796601825,-3.12830616894815,75.1512380301516));
#313=CARTESIAN_POINT('Ctrl Pts',(43.,-1.54314936208041,75.0000000019305));
#314=CARTESIAN_POINT('Ctrl Pts',(43.,1.5431493620804,75.0000000019305));
#315=CARTESIAN_POINT('Ctrl Pts',(42.9149796601825,3.12830616894815,75.1512380301516));
#316=CARTESIAN_POINT('Ctrl Pts',(42.5710180996632,6.26020739836609,75.7758842945349));
#317=CARTESIAN_POINT('Ctrl Pts',(42.3122820504419,7.80701992954236,76.2490639803355));
#318=CARTESIAN_POINT('Ctrl Pts',(41.6606438425309,10.7549766487705,77.4852350459652));
#319=CARTESIAN_POINT('Ctrl Pts',(41.2675485370839,12.1590387754993,78.2492202304426));
#320=CARTESIAN_POINT('Ctrl Pts',(40.41590573629,14.7447397317966,79.9992175142346));
#321=CARTESIAN_POINT('Ctrl Pts',(39.9579559435286,15.9264864771993,80.9853609820335));
#322=CARTESIAN_POINT('Ctrl Pts',(39.0589793630855,18.019411091204,83.0782855960088));
#323=CARTESIAN_POINT('Ctrl Pts',(38.5840972369322,19.0062930065831,84.262453527187));
#324=CARTESIAN_POINT('Ctrl Pts',(37.672590778613,20.7544606696212,86.8473537082365));
#325=CARTESIAN_POINT('Ctrl Pts',(37.2367651370471,21.5160534556386,88.2481598769001));
#326=CARTESIAN_POINT('Ctrl Pts',(36.4963681679968,22.7493399462953,91.189110074655));
#327=CARTESIAN_POINT('Ctrl Pts',(36.1922251103104,23.2220256614427,92.7322283913224));
#328=CARTESIAN_POINT('Ctrl Pts',(35.7831829772251,23.8475040858656,95.8624874924759));
#329=CARTESIAN_POINT('Ctrl Pts',(35.6791255498225,24.,97.4497974968757));
#330=CARTESIAN_POINT('Ctrl Pts',(35.6791255498225,24.,99.0000000016019));
#331=CARTESIAN_POINT('Origin',(0.,0.,147.));
#332=CARTESIAN_POINT('',(43.,5.26598123633362E-015,147.));
#333=CARTESIAN_POINT('Origin',(0.,0.,147.));
#334=CARTESIAN_POINT('',(43.,5.26598123633362E-015,51.));
#335=CARTESIAN_POINT('Origin',(0.,0.,51.));
#336=CARTESIAN_POINT('Origin',(0.,0.,0.));
#337=CARTESIAN_POINT('',(-54.5,-6.674105E-015,198.));
#338=CARTESIAN_POINT('Origin',(0.,0.,198.));
#339=CARTESIAN_POINT('',(54.5,-1.334821E-014,0.));
#340=CARTESIAN_POINT('Origin',(0.,0.,0.));
#341=CARTESIAN_POINT('',(45.166359162545,-30.5,99.000000002028));
#342=CARTESIAN_POINT('',(54.5,-4.09394740330526E-015,68.5000000024469));
#343=CARTESIAN_POINT('Ctrl Pts',(45.1663591625449,-30.5,99.0000000020278));
#344=CARTESIAN_POINT('Ctrl Pts',(45.1663591625449,-30.5,97.0295646508018));
#345=CARTESIAN_POINT('Ctrl Pts',(45.2991679495375,-30.3061296452615,95.0121266532536));
#346=CARTESIAN_POINT('Ctrl Pts',(45.8210712249177,-29.5111087797117,91.0338787377425));
#347=CARTESIAN_POINT('Ctrl Pts',(46.2090858905995,-28.9103369009659,89.0728515773467));
#348=CARTESIAN_POINT('Ctrl Pts',(47.1534496223342,-27.3429915570741,85.3355601506052));
#349=CARTESIAN_POINT('Ctrl Pts',(47.7092504917624,-26.375156894662,83.5555123461177));
#350=CARTESIAN_POINT('Ctrl Pts',(48.8714947239306,-24.1536433442255,80.2708085115623));
#351=CARTESIAN_POINT('Ctrl Pts',(49.4769220668047,-22.8995720866178,78.7660584364527));
#352=CARTESIAN_POINT('Ctrl Pts',(50.6228790670739,-20.240083193425,76.1065695433254));
#353=CARTESIAN_POINT('Ctrl Pts',(51.206581604924,-18.7384512428022,74.8534507419449));
#354=CARTESIAN_POINT('Ctrl Pts',(52.2920348138978,-15.4527230480816,72.6295857691346));
#355=CARTESIAN_POINT('Ctrl Pts',(52.7930255705636,-13.6684886373125,71.6586728981181));
#356=CARTESIAN_POINT('Ctrl Pts',(53.6235159735876,-9.92218082715915,70.087613325096));
#357=CARTESIAN_POINT('Ctrl Pts',(53.9532635368122,-7.95639561372547,69.4862033367401));
#358=CARTESIAN_POINT('Ctrl Pts',(54.3916362282493,-3.97602639099716,68.6922511757081));
#359=CARTESIAN_POINT('Ctrl Pts',(54.5,-1.96135556286758,68.5000000024469));
#360=CARTESIAN_POINT('Ctrl Pts',(54.5,-8.32667268468867E-016,68.5000000024469));
#361=CARTESIAN_POINT('',(54.5,-1.334821E-014,129.50000000244));
#362=CARTESIAN_POINT('Ctrl Pts',(45.1663591625449,-30.5,99.0000000020278));
#363=CARTESIAN_POINT('Ctrl Pts',(45.1663591625449,-30.5,100.970435353267));
#364=CARTESIAN_POINT('Ctrl Pts',(45.2991679495391,-30.3061296452591,102.987873350829));
#365=CARTESIAN_POINT('Ctrl Pts',(45.8210712249183,-29.5111087797107,106.966121266374));
#366=CARTESIAN_POINT('Ctrl Pts',(46.2090858905975,-28.9103369009688,108.92714842679));
#367=CARTESIAN_POINT('Ctrl Pts',(47.1534496223219,-27.3429915570949,112.664439853585));
#368=CARTESIAN_POINT('Ctrl Pts',(47.7092504917426,-26.3751568946969,114.444487658104));
#369=CARTESIAN_POINT('Ctrl Pts',(48.8714947238951,-24.1536433442961,117.729191492733));
#370=CARTESIAN_POINT('Ctrl Pts',(49.4769220667613,-22.89957208671,119.233941567884));
#371=CARTESIAN_POINT('Ctrl Pts',(50.6228790670243,-20.2400831935484,121.893430461111));
#372=CARTESIAN_POINT('Ctrl Pts',(51.2065816048764,-18.7384512429322,123.146549262553));
#373=CARTESIAN_POINT('Ctrl Pts',(52.2920348138582,-15.4527230482156,125.370414235483));
#374=CARTESIAN_POINT('Ctrl Pts',(52.7930255705299,-13.6684886374437,126.341327106558));
#375=CARTESIAN_POINT('Ctrl Pts',(53.6235159735669,-9.92218082727297,127.912386679681));
#376=CARTESIAN_POINT('Ctrl Pts',(53.9532635367984,-7.95639561382443,128.513796668079));
#377=CARTESIAN_POINT('Ctrl Pts',(54.3916362282458,-3.97602639105473,129.30774882917));
#378=CARTESIAN_POINT('Ctrl Pts',(54.5,-1.96135556289859,129.500000002447));
#379=CARTESIAN_POINT('Ctrl Pts',(54.5,-3.88578058618805E-015,129.500000002447));
#380=CARTESIAN_POINT('',(45.166359162545,30.5,99.000000002028));
#381=CARTESIAN_POINT('Ctrl Pts',(54.5,3.19189119579733E-015,129.500000002447));
#382=CARTESIAN_POINT('Ctrl Pts',(54.5,1.96135556289859,129.500000002447));
#383=CARTESIAN_POINT('Ctrl Pts',(54.3916362282458,3.97602639105473,129.30774882917));
#384=CARTESIAN_POINT('Ctrl Pts',(53.9532635367984,7.95639561382443,128.513796668079));
#385=CARTESIAN_POINT('Ctrl Pts',(53.6235159735669,9.92218082727297,127.912386679681));
#386=CARTESIAN_POINT('Ctrl Pts',(52.7930255705299,13.6684886374437,126.341327106558));
#387=CARTESIAN_POINT('Ctrl Pts',(52.2920348138582,15.4527230482156,125.370414235483));
#388=CARTESIAN_POINT('Ctrl Pts',(51.2065816048764,18.7384512429322,123.146549262553));
#389=CARTESIAN_POINT('Ctrl Pts',(50.6228790670243,20.2400831935484,121.893430461111));
#390=CARTESIAN_POINT('Ctrl Pts',(49.4769220667613,22.89957208671,119.233941567884));
#391=CARTESIAN_POINT('Ctrl Pts',(48.8714947238951,24.1536433442962,117.729191492733));
#392=CARTESIAN_POINT('Ctrl Pts',(47.7092504917426,26.3751568946969,114.444487658104));
#393=CARTESIAN_POINT('Ctrl Pts',(47.1534496223219,27.3429915570949,112.664439853585));
#394=CARTESIAN_POINT('Ctrl Pts',(46.2090858905975,28.9103369009688,108.92714842679));
#395=CARTESIAN_POINT('Ctrl Pts',(45.8210712249183,29.5111087797107,106.966121266374));
#396=CARTESIAN_POINT('Ctrl Pts',(45.2991679495391,30.3061296452591,102.987873350829));
#397=CARTESIAN_POINT('Ctrl Pts',(45.1663591625449,30.5,100.970435353268));
#398=CARTESIAN_POINT('Ctrl Pts',(45.1663591625449,30.5,99.0000000020278));
#399=CARTESIAN_POINT('Ctrl Pts',(54.5,-7.35522753814166E-015,68.5000000024469));
#400=CARTESIAN_POINT('Ctrl Pts',(54.5,1.96135556286758,68.5000000024469));
#401=CARTESIAN_POINT('Ctrl Pts',(54.3916362282493,3.97602639099716,68.6922511757081));
#402=CARTESIAN_POINT('Ctrl Pts',(53.9532635368122,7.95639561372547,69.4862033367401));
#403=CARTESIAN_POINT('Ctrl Pts',(53.6235159735876,9.92218082715915,70.087613325096));
#404=CARTESIAN_POINT('Ctrl Pts',(52.7930255705636,13.6684886373125,71.6586728981181));
#405=CARTESIAN_POINT('Ctrl Pts',(52.2920348138978,15.4527230480817,72.6295857691346));
#406=CARTESIAN_POINT('Ctrl Pts',(51.206581604924,18.7384512428022,74.853450741945));
#407=CARTESIAN_POINT('Ctrl Pts',(50.6228790670739,20.240083193425,76.1065695433254));
#408=CARTESIAN_POINT('Ctrl Pts',(49.4769220668046,22.8995720866178,78.7660584364528));
#409=CARTESIAN_POINT('Ctrl Pts',(48.8714947239305,24.1536433442255,80.2708085115623));
#410=CARTESIAN_POINT('Ctrl Pts',(47.7092504917624,26.375156894662,83.5555123461177));
#411=CARTESIAN_POINT('Ctrl Pts',(47.1534496223342,27.3429915570741,85.3355601506052));
#412=CARTESIAN_POINT('Ctrl Pts',(46.2090858905996,28.9103369009659,89.0728515773467));
#413=CARTESIAN_POINT('Ctrl Pts',(45.8210712249177,29.5111087797117,91.0338787377425));
#414=CARTESIAN_POINT('Ctrl Pts',(45.2991679495375,30.3061296452615,95.0121266532536));
#415=CARTESIAN_POINT('Ctrl Pts',(45.1663591625449,30.5,97.0295646508018));
#416=CARTESIAN_POINT('Ctrl Pts',(45.1663591625449,30.5,99.0000000020278));
#417=CARTESIAN_POINT('Origin',(0.,0.,25.5));
#418=CARTESIAN_POINT('',(-45.,-5.510729E-015,51.));
#419=CARTESIAN_POINT('Origin',(0.,0.,51.));
#420=CARTESIAN_POINT('',(-45.,-5.510729E-015,0.));
#421=CARTESIAN_POINT('Origin',(0.,0.,0.));
#422=CARTESIAN_POINT('Origin',(0.,0.,99.));
#423=CARTESIAN_POINT('',(78.9999999986306,-3.735049E-015,129.500000003547));
#424=CARTESIAN_POINT('Origin',(79.,0.,99.000000003547));
#425=CARTESIAN_POINT('Origin',(0.,0.,172.5));
#426=CARTESIAN_POINT('',(-45.,-5.510729E-015,198.));
#427=CARTESIAN_POINT('Origin',(0.,0.,198.));
#428=CARTESIAN_POINT('',(-45.,-5.510729E-015,147.));
#429=CARTESIAN_POINT('Origin',(0.,0.,147.));
#430=CARTESIAN_POINT('Origin',(63.5,0.,99.000000002851));
#431=CARTESIAN_POINT('',(78.9999999988776,-3.061516E-015,124.000000003547));
#432=CARTESIAN_POINT('Origin',(79.,0.,99.000000003547));
#433=CARTESIAN_POINT('',(47.9999999988776,-3.061516E-015,124.000000002155));
#434=CARTESIAN_POINT('Origin',(48.,0.,99.000000002155));
#435=CARTESIAN_POINT('Origin',(0.,0.,0.));
#436=CARTESIAN_POINT('Origin',(0.,0.,51.));
#437=CARTESIAN_POINT('Origin',(0.,0.,198.));
#438=CARTESIAN_POINT('Origin',(79.,0.,99.000000003547));
#439=CARTESIAN_POINT('Origin',(0.,0.,147.));
#440=CARTESIAN_POINT('Origin',(48.,0.,99.000000002155));
#441=UNCERTAINTY_MEASURE_WITH_UNIT(LENGTH_MEASURE(0.01),#443,
'DISTANCE_ACCURACY_VALUE',
'Maximum model space distance between geometric entities at asserted c
onnectivities');
#442=(
GEOMETRIC_REPRESENTATION_CONTEXT(3)
GLOBAL_UNCERTAINTY_ASSIGNED_CONTEXT((#441))
GLOBAL_UNIT_ASSIGNED_CONTEXT((#443,#446,#444))
REPRESENTATION_CONTEXT('','3D')
);
#443=(
LENGTH_UNIT()
NAMED_UNIT(*)
SI_UNIT(.MILLI.,.METRE.)
);
#444=(
NAMED_UNIT(*)
SI_UNIT($,.STERADIAN.)
SOLID_ANGLE_UNIT()
);
#445=DIMENSIONAL_EXPONENTS(0.,0.,0.,0.,0.,0.,0.);
#446=(
CONVERSION_BASED_UNIT('degree',#448)
NAMED_UNIT(#445)
PLANE_ANGLE_UNIT()
);
#447=(
NAMED_UNIT(*)
PLANE_ANGLE_UNIT()
SI_UNIT($,.RADIAN.)
);
#448=PLANE_ANGLE_MEASURE_WITH_UNIT(PLANE_ANGLE_MEASURE(0.01745329252),#447);
#449=SHAPE_DEFINITION_REPRESENTATION(#450,#451);
#450=PRODUCT_DEFINITION_SHAPE('',$,#453);
#451=SHAPE_REPRESENTATION('',(#182),#442);
#452=PRODUCT_DEFINITION_CONTEXT('3D Mechanical Parts',#456,'design');
#453=PRODUCT_DEFINITION('TRIV090050','TRIV090050',#454,#452);
#454=PRODUCT_DEFINITION_FORMATION('',$,#458);
#455=APPLICATION_PROTOCOL_DEFINITION('international standard',
'automotive_design',2009,#456);
#456=APPLICATION_CONTEXT(
'Core Data for Automotive Mechanical Design Process');
#457=PRODUCT_CONTEXT('3D Mechanical Parts',#456,'mechanical');
#458=PRODUCT('TRIV090050','TRIV090050',$,(#457));
#459=PRESENTATION_STYLE_ASSIGNMENT((#460));
#460=SURFACE_STYLE_USAGE(.BOTH.,#461);
#461=SURFACE_SIDE_STYLE($,(#462));
#462=SURFACE_STYLE_FILL_AREA(#463);
#463=FILL_AREA_STYLE($,(#464));
#464=FILL_AREA_STYLE_COLOUR($,#465);
#465=COLOUR_RGB('',0.509803921568627,0.509803921568627,0.588235294117647);
ENDSEC;
END-ISO-10303-21;
