ISO-10303-21;
HEADER;
/* Generated by software containing ST-Developer
 * from STEP Tools, Inc. (www.steptools.com) 
 */

FILE_DESCRIPTION(
/* description */ (''),
/* implementation_level */ '2;1');

FILE_NAME(
/* name */ 'C:\\Users\\Gabriele\\Desktop\\catalogo\\TR40\\TR40110G.stp',

/* time_stamp */ '2016-10-17T15:23:03+02:00',
/* author */ ('Gabriele'),
/* organization */ (''),
/* preprocessor_version */ 'ST-DEVELOPER v16.5',
/* originating_system */ 'Autodesk Inventor 2017',
/* authorisation */ '');

FILE_SCHEMA (('AUTOMOTIVE_DESIGN { 1 0 10303 214 3 1 1 }'));
ENDSEC;

DATA;
#10=MECHANICAL_DESIGN_GEOMETRIC_PRESENTATION_REPRESENTATION('',(#13),#481);
#11=SHAPE_REPRESENTATION_RELATIONSHIP('SRR','None',#490,#12);
#12=ADVANCED_BREP_SHAPE_REPRESENTATION('',(#14),#480);
#13=STYLED_ITEM('',(#499),#14);
#14=MANIFOLD_SOLID_BREP('Solido1',#200);
#15=B_SPLINE_CURVE_WITH_KNOTS('',3,(#333,#334,#335,#336,#337,#338,#339,
#340,#341,#342,#343,#344,#345,#346,#347,#348,#349,#350,#351,#352,#353,#354,
#355,#356,#357,#358,#359,#360,#361,#362,#363,#364,#365,#366,#367,#368,#369,
#370,#371,#372,#373,#374,#375,#376,#377,#378,#379,#380,#381,#382,#383,#384,
#385,#386,#387,#388,#389,#390,#391,#392,#393,#394,#395,#396,#397,#398),
 .UNSPECIFIED.,.T.,.F.,(4,2,2,2,2,2,2,2,2,2,2,2,2,2,2,2,2,2,2,2,2,2,2,2,
2,2,2,2,2,2,2,2,4),(0.,0.581525468685632,1.16305093737126,1.7445764060569,
2.32610187474253,2.9049221652111,3.48374245567967,4.06256274614825,4.64138303661682,
5.22020332708539,5.79902361755397,6.37784390802254,6.95666419849111,7.53818966717675,
8.11971513586238,8.70124060454801,9.28276607323364,9.86429154191927,10.4458170106049,
11.0273424792905,11.6088679479762,12.1876882384447,12.7665085289133,13.3453288193819,
13.9241491098505,14.502969400319,15.0817896907876,15.6606099812562,16.2394302717248,
16.8209557404104,17.402481209096,17.9840066777817,18.5655321464673),
 .UNSPECIFIED.);
#16=B_SPLINE_CURVE_WITH_KNOTS('',3,(#409,#410,#411,#412,#413,#414,#415,
#416,#417,#418,#419,#420,#421,#422,#423,#424,#425,#426,#427,#428,#429,#430,
#431,#432,#433,#434,#435,#436,#437,#438,#439,#440,#441,#442,#443,#444,#445,
#446,#447,#448,#449,#450,#451,#452,#453,#454,#455,#456,#457,#458,#459,#460,
#461,#462,#463,#464,#465,#466,#467,#468,#469,#470,#471,#472,#473,#474),
 .UNSPECIFIED.,.T.,.F.,(4,2,2,2,2,2,2,2,2,2,2,2,2,2,2,2,2,2,2,2,2,2,2,2,
2,2,2,2,2,2,2,2,4),(0.,0.728977172073425,1.45795434414685,2.18693151622027,
2.9159086882937,3.64085202196797,4.36579535564223,5.0907386893165,5.81568202299076,
6.54062535666503,7.26556869033929,7.99051202401356,8.71545535768782,9.44443252976125,
10.1734097018347,10.9023868739081,11.6313640459815,12.360341218055,13.0893183901284,
13.8182955622018,14.5472727342752,15.2722160679495,15.9971594016238,16.722102735298,
17.4470460689723,18.1719894026465,18.8969327363208,19.6218760699951,20.3468194036693,
21.0757965757428,21.8047737478162,22.5337509198896,23.262728091963),
 .UNSPECIFIED.);
#17=PLANE('',#207);
#18=PLANE('',#214);
#19=PLANE('',#221);
#20=PLANE('',#228);
#21=PLANE('',#231);
#22=PLANE('',#232);
#23=CYLINDRICAL_SURFACE('',#205,55.);
#24=CYLINDRICAL_SURFACE('',#212,55.);
#25=CYLINDRICAL_SURFACE('',#219,31.5);
#26=CYLINDRICAL_SURFACE('',#223,30.);
#27=CYLINDRICAL_SURFACE('',#225,53.5);
#28=CYLINDRICAL_SURFACE('',#229,37.5);
#29=CYLINDRICAL_SURFACE('',#230,64.5);
#30=FACE_BOUND('',#65,.T.);
#31=FACE_BOUND('',#67,.T.);
#32=FACE_BOUND('',#69,.T.);
#33=FACE_BOUND('',#71,.T.);
#34=FACE_BOUND('',#73,.T.);
#35=FACE_BOUND('',#75,.T.);
#36=FACE_BOUND('',#77,.T.);
#37=FACE_BOUND('',#79,.T.);
#38=FACE_BOUND('',#81,.T.);
#39=FACE_BOUND('',#83,.T.);
#40=FACE_BOUND('',#85,.T.);
#41=FACE_BOUND('',#86,.T.);
#42=FACE_BOUND('',#88,.T.);
#43=FACE_BOUND('',#90,.T.);
#44=FACE_BOUND('',#92,.T.);
#45=FACE_BOUND('',#93,.T.);
#46=FACE_BOUND('',#95,.T.);
#47=FACE_BOUND('',#97,.T.);
#48=FACE_OUTER_BOUND('',#64,.T.);
#49=FACE_OUTER_BOUND('',#66,.T.);
#50=FACE_OUTER_BOUND('',#68,.T.);
#51=FACE_OUTER_BOUND('',#70,.T.);
#52=FACE_OUTER_BOUND('',#72,.T.);
#53=FACE_OUTER_BOUND('',#74,.T.);
#54=FACE_OUTER_BOUND('',#76,.T.);
#55=FACE_OUTER_BOUND('',#78,.T.);
#56=FACE_OUTER_BOUND('',#80,.T.);
#57=FACE_OUTER_BOUND('',#82,.T.);
#58=FACE_OUTER_BOUND('',#84,.T.);
#59=FACE_OUTER_BOUND('',#87,.T.);
#60=FACE_OUTER_BOUND('',#89,.T.);
#61=FACE_OUTER_BOUND('',#91,.T.);
#62=FACE_OUTER_BOUND('',#94,.T.);
#63=FACE_OUTER_BOUND('',#96,.T.);
#64=EDGE_LOOP('',(#147));
#65=EDGE_LOOP('',(#148));
#66=EDGE_LOOP('',(#149));
#67=EDGE_LOOP('',(#150));
#68=EDGE_LOOP('',(#151));
#69=EDGE_LOOP('',(#152));
#70=EDGE_LOOP('',(#153));
#71=EDGE_LOOP('',(#154));
#72=EDGE_LOOP('',(#155));
#73=EDGE_LOOP('',(#156));
#74=EDGE_LOOP('',(#157));
#75=EDGE_LOOP('',(#158));
#76=EDGE_LOOP('',(#159));
#77=EDGE_LOOP('',(#160));
#78=EDGE_LOOP('',(#161));
#79=EDGE_LOOP('',(#162));
#80=EDGE_LOOP('',(#163));
#81=EDGE_LOOP('',(#164));
#82=EDGE_LOOP('',(#165));
#83=EDGE_LOOP('',(#166));
#84=EDGE_LOOP('',(#167));
#85=EDGE_LOOP('',(#168));
#86=EDGE_LOOP('',(#169));
#87=EDGE_LOOP('',(#170));
#88=EDGE_LOOP('',(#171));
#89=EDGE_LOOP('',(#172));
#90=EDGE_LOOP('',(#173));
#91=EDGE_LOOP('',(#174));
#92=EDGE_LOOP('',(#175));
#93=EDGE_LOOP('',(#176));
#94=EDGE_LOOP('',(#177));
#95=EDGE_LOOP('',(#178));
#96=EDGE_LOOP('',(#179));
#97=EDGE_LOOP('',(#180));
#98=CIRCLE('',#203,55.);
#99=CIRCLE('',#204,55.5);
#100=CIRCLE('',#206,55.);
#101=CIRCLE('',#208,64.5);
#102=CIRCLE('',#210,55.);
#103=CIRCLE('',#211,55.5);
#104=CIRCLE('',#213,55.);
#105=CIRCLE('',#215,64.5);
#106=CIRCLE('',#217,31.5);
#107=CIRCLE('',#218,32.);
#108=CIRCLE('',#220,31.5);
#109=CIRCLE('',#222,37.5);
#110=CIRCLE('',#224,30.);
#111=CIRCLE('',#226,53.5);
#112=CIRCLE('',#227,53.5);
#113=VERTEX_POINT('',#299);
#114=VERTEX_POINT('',#301);
#115=VERTEX_POINT('',#304);
#116=VERTEX_POINT('',#307);
#117=VERTEX_POINT('',#310);
#118=VERTEX_POINT('',#312);
#119=VERTEX_POINT('',#315);
#120=VERTEX_POINT('',#318);
#121=VERTEX_POINT('',#321);
#122=VERTEX_POINT('',#323);
#123=VERTEX_POINT('',#326);
#124=VERTEX_POINT('',#329);
#125=VERTEX_POINT('',#332);
#126=VERTEX_POINT('',#399);
#127=VERTEX_POINT('',#402);
#128=VERTEX_POINT('',#404);
#129=VERTEX_POINT('',#408);
#130=EDGE_CURVE('',#113,#113,#98,.T.);
#131=EDGE_CURVE('',#114,#114,#99,.T.);
#132=EDGE_CURVE('',#115,#115,#100,.T.);
#133=EDGE_CURVE('',#116,#116,#101,.T.);
#134=EDGE_CURVE('',#117,#117,#102,.T.);
#135=EDGE_CURVE('',#118,#118,#103,.T.);
#136=EDGE_CURVE('',#119,#119,#104,.T.);
#137=EDGE_CURVE('',#120,#120,#105,.T.);
#138=EDGE_CURVE('',#121,#121,#106,.T.);
#139=EDGE_CURVE('',#122,#122,#107,.T.);
#140=EDGE_CURVE('',#123,#123,#108,.T.);
#141=EDGE_CURVE('',#124,#124,#109,.T.);
#142=EDGE_CURVE('',#125,#125,#15,.T.);
#143=EDGE_CURVE('',#126,#126,#110,.T.);
#144=EDGE_CURVE('',#127,#127,#111,.T.);
#145=EDGE_CURVE('',#128,#128,#112,.T.);
#146=EDGE_CURVE('',#129,#129,#16,.T.);
#147=ORIENTED_EDGE('',*,*,#130,.T.);
#148=ORIENTED_EDGE('',*,*,#131,.T.);
#149=ORIENTED_EDGE('',*,*,#132,.T.);
#150=ORIENTED_EDGE('',*,*,#130,.F.);
#151=ORIENTED_EDGE('',*,*,#133,.T.);
#152=ORIENTED_EDGE('',*,*,#131,.F.);
#153=ORIENTED_EDGE('',*,*,#134,.T.);
#154=ORIENTED_EDGE('',*,*,#135,.T.);
#155=ORIENTED_EDGE('',*,*,#136,.F.);
#156=ORIENTED_EDGE('',*,*,#134,.F.);
#157=ORIENTED_EDGE('',*,*,#137,.T.);
#158=ORIENTED_EDGE('',*,*,#135,.F.);
#159=ORIENTED_EDGE('',*,*,#138,.T.);
#160=ORIENTED_EDGE('',*,*,#139,.T.);
#161=ORIENTED_EDGE('',*,*,#140,.T.);
#162=ORIENTED_EDGE('',*,*,#138,.F.);
#163=ORIENTED_EDGE('',*,*,#141,.F.);
#164=ORIENTED_EDGE('',*,*,#139,.F.);
#165=ORIENTED_EDGE('',*,*,#142,.F.);
#166=ORIENTED_EDGE('',*,*,#143,.F.);
#167=ORIENTED_EDGE('',*,*,#144,.F.);
#168=ORIENTED_EDGE('',*,*,#142,.T.);
#169=ORIENTED_EDGE('',*,*,#145,.F.);
#170=ORIENTED_EDGE('',*,*,#140,.F.);
#171=ORIENTED_EDGE('',*,*,#143,.T.);
#172=ORIENTED_EDGE('',*,*,#141,.T.);
#173=ORIENTED_EDGE('',*,*,#146,.F.);
#174=ORIENTED_EDGE('',*,*,#133,.F.);
#175=ORIENTED_EDGE('',*,*,#137,.F.);
#176=ORIENTED_EDGE('',*,*,#146,.T.);
#177=ORIENTED_EDGE('',*,*,#136,.T.);
#178=ORIENTED_EDGE('',*,*,#145,.T.);
#179=ORIENTED_EDGE('',*,*,#132,.F.);
#180=ORIENTED_EDGE('',*,*,#144,.T.);
#181=TOROIDAL_SURFACE('',#202,55.5,0.5);
#182=TOROIDAL_SURFACE('',#209,55.5,0.5);
#183=TOROIDAL_SURFACE('',#216,32.,0.5);
#184=ADVANCED_FACE('',(#48,#30),#181,.T.);
#185=ADVANCED_FACE('',(#49,#31),#23,.F.);
#186=ADVANCED_FACE('',(#50,#32),#17,.T.);
#187=ADVANCED_FACE('',(#51,#33),#182,.T.);
#188=ADVANCED_FACE('',(#52,#34),#24,.F.);
#189=ADVANCED_FACE('',(#53,#35),#18,.F.);
#190=ADVANCED_FACE('',(#54,#36),#183,.T.);
#191=ADVANCED_FACE('',(#55,#37),#25,.F.);
#192=ADVANCED_FACE('',(#56,#38),#19,.T.);
#193=ADVANCED_FACE('',(#57,#39),#26,.F.);
#194=ADVANCED_FACE('',(#58,#40,#41),#27,.F.);
#195=ADVANCED_FACE('',(#59,#42),#20,.T.);
#196=ADVANCED_FACE('',(#60,#43),#28,.T.);
#197=ADVANCED_FACE('',(#61,#44,#45),#29,.T.);
#198=ADVANCED_FACE('',(#62,#46),#21,.F.);
#199=ADVANCED_FACE('',(#63,#47),#22,.T.);
#200=CLOSED_SHELL('',(#184,#185,#186,#187,#188,#189,#190,#191,#192,#193,
#194,#195,#196,#197,#198,#199));
#201=AXIS2_PLACEMENT_3D('placement',#297,#233,#234);
#202=AXIS2_PLACEMENT_3D('',#298,#235,#236);
#203=AXIS2_PLACEMENT_3D('',#300,#237,#238);
#204=AXIS2_PLACEMENT_3D('',#302,#239,#240);
#205=AXIS2_PLACEMENT_3D('',#303,#241,#242);
#206=AXIS2_PLACEMENT_3D('',#305,#243,#244);
#207=AXIS2_PLACEMENT_3D('',#306,#245,#246);
#208=AXIS2_PLACEMENT_3D('',#308,#247,#248);
#209=AXIS2_PLACEMENT_3D('',#309,#249,#250);
#210=AXIS2_PLACEMENT_3D('',#311,#251,#252);
#211=AXIS2_PLACEMENT_3D('',#313,#253,#254);
#212=AXIS2_PLACEMENT_3D('',#314,#255,#256);
#213=AXIS2_PLACEMENT_3D('',#316,#257,#258);
#214=AXIS2_PLACEMENT_3D('',#317,#259,#260);
#215=AXIS2_PLACEMENT_3D('',#319,#261,#262);
#216=AXIS2_PLACEMENT_3D('',#320,#263,#264);
#217=AXIS2_PLACEMENT_3D('',#322,#265,#266);
#218=AXIS2_PLACEMENT_3D('',#324,#267,#268);
#219=AXIS2_PLACEMENT_3D('',#325,#269,#270);
#220=AXIS2_PLACEMENT_3D('',#327,#271,#272);
#221=AXIS2_PLACEMENT_3D('',#328,#273,#274);
#222=AXIS2_PLACEMENT_3D('',#330,#275,#276);
#223=AXIS2_PLACEMENT_3D('',#331,#277,#278);
#224=AXIS2_PLACEMENT_3D('',#400,#279,#280);
#225=AXIS2_PLACEMENT_3D('',#401,#281,#282);
#226=AXIS2_PLACEMENT_3D('',#403,#283,#284);
#227=AXIS2_PLACEMENT_3D('',#405,#285,#286);
#228=AXIS2_PLACEMENT_3D('',#406,#287,#288);
#229=AXIS2_PLACEMENT_3D('',#407,#289,#290);
#230=AXIS2_PLACEMENT_3D('',#475,#291,#292);
#231=AXIS2_PLACEMENT_3D('',#476,#293,#294);
#232=AXIS2_PLACEMENT_3D('',#477,#295,#296);
#233=DIRECTION('axis',(0.,0.,1.));
#234=DIRECTION('refdir',(1.,0.,0.));
#235=DIRECTION('center_axis',(0.,0.,-1.));
#236=DIRECTION('ref_axis',(-1.,0.,0.));
#237=DIRECTION('center_axis',(0.,0.,-1.));
#238=DIRECTION('ref_axis',(-1.,0.,0.));
#239=DIRECTION('center_axis',(0.,0.,1.));
#240=DIRECTION('ref_axis',(-1.,0.,0.));
#241=DIRECTION('center_axis',(0.,0.,-1.));
#242=DIRECTION('ref_axis',(-1.,0.,0.));
#243=DIRECTION('center_axis',(0.,0.,-1.));
#244=DIRECTION('ref_axis',(-1.,0.,0.));
#245=DIRECTION('center_axis',(0.,0.,1.));
#246=DIRECTION('ref_axis',(1.,0.,0.));
#247=DIRECTION('center_axis',(0.,0.,1.));
#248=DIRECTION('ref_axis',(-1.,0.,0.));
#249=DIRECTION('center_axis',(0.,0.,1.));
#250=DIRECTION('ref_axis',(1.,0.,0.));
#251=DIRECTION('center_axis',(0.,0.,1.));
#252=DIRECTION('ref_axis',(-1.,0.,0.));
#253=DIRECTION('center_axis',(0.,0.,-1.));
#254=DIRECTION('ref_axis',(-1.,0.,0.));
#255=DIRECTION('center_axis',(0.,0.,-1.));
#256=DIRECTION('ref_axis',(-1.,0.,0.));
#257=DIRECTION('center_axis',(0.,0.,-1.));
#258=DIRECTION('ref_axis',(-1.,0.,0.));
#259=DIRECTION('center_axis',(0.,0.,1.));
#260=DIRECTION('ref_axis',(1.,0.,0.));
#261=DIRECTION('center_axis',(0.,0.,-1.));
#262=DIRECTION('ref_axis',(-1.,0.,0.));
#263=DIRECTION('center_axis',(0.,-1.,0.));
#264=DIRECTION('ref_axis',(0.,0.,-1.));
#265=DIRECTION('center_axis',(0.,-1.,0.));
#266=DIRECTION('ref_axis',(-1.,0.,0.));
#267=DIRECTION('center_axis',(0.,1.,0.));
#268=DIRECTION('ref_axis',(-1.,0.,0.));
#269=DIRECTION('center_axis',(0.,-1.,0.));
#270=DIRECTION('ref_axis',(-1.,0.,0.));
#271=DIRECTION('center_axis',(0.,-1.,0.));
#272=DIRECTION('ref_axis',(-1.,0.,0.));
#273=DIRECTION('center_axis',(0.,1.,0.));
#274=DIRECTION('ref_axis',(0.,0.,1.));
#275=DIRECTION('center_axis',(0.,-1.,0.));
#276=DIRECTION('ref_axis',(1.,0.,0.));
#277=DIRECTION('center_axis',(0.,-1.,0.));
#278=DIRECTION('ref_axis',(-1.,0.,0.));
#279=DIRECTION('center_axis',(0.,-1.,0.));
#280=DIRECTION('ref_axis',(-1.,0.,0.));
#281=DIRECTION('center_axis',(0.,0.,1.));
#282=DIRECTION('ref_axis',(1.,0.,0.));
#283=DIRECTION('center_axis',(0.,0.,-1.));
#284=DIRECTION('ref_axis',(1.,0.,0.));
#285=DIRECTION('center_axis',(0.,0.,1.));
#286=DIRECTION('ref_axis',(1.,0.,0.));
#287=DIRECTION('center_axis',(0.,1.,0.));
#288=DIRECTION('ref_axis',(0.,0.,1.));
#289=DIRECTION('center_axis',(0.,-1.,0.));
#290=DIRECTION('ref_axis',(1.,0.,0.));
#291=DIRECTION('center_axis',(0.,0.,1.));
#292=DIRECTION('ref_axis',(-1.,0.,0.));
#293=DIRECTION('center_axis',(0.,0.,1.));
#294=DIRECTION('ref_axis',(1.,0.,0.));
#295=DIRECTION('center_axis',(0.,0.,1.));
#296=DIRECTION('ref_axis',(1.,0.,0.));
#297=CARTESIAN_POINT('',(0.,0.,0.));
#298=CARTESIAN_POINT('Origin',(0.,0.,117.5));
#299=CARTESIAN_POINT('',(55.,-6.73555739531044E-15,117.5));
#300=CARTESIAN_POINT('Origin',(0.,0.,117.5));
#301=CARTESIAN_POINT('',(55.5,6.79678973526781E-15,118.));
#302=CARTESIAN_POINT('Origin',(0.,0.,118.));
#303=CARTESIAN_POINT('Origin',(0.,0.,118.));
#304=CARTESIAN_POINT('',(55.,6.73555739531044E-15,57.));
#305=CARTESIAN_POINT('Origin',(0.,0.,57.));
#306=CARTESIAN_POINT('Origin',(-6.16633087748822E-15,9.18013870491085E-16,
118.));
#307=CARTESIAN_POINT('',(64.5,7.89897185450043E-15,118.));
#308=CARTESIAN_POINT('Origin',(0.,0.,118.));
#309=CARTESIAN_POINT('Origin',(0.,0.,-117.5));
#310=CARTESIAN_POINT('',(55.,6.73555739531044E-15,-117.5));
#311=CARTESIAN_POINT('Origin',(0.,0.,-117.5));
#312=CARTESIAN_POINT('',(55.5,-6.79678973526781E-15,-118.));
#313=CARTESIAN_POINT('Origin',(0.,0.,-118.));
#314=CARTESIAN_POINT('Origin',(0.,0.,-118.));
#315=CARTESIAN_POINT('',(55.,6.73555739531044E-15,-57.));
#316=CARTESIAN_POINT('Origin',(0.,0.,-57.));
#317=CARTESIAN_POINT('Origin',(-6.16633087748822E-15,9.18013870491085E-16,
-118.));
#318=CARTESIAN_POINT('',(64.5,7.89897185450043E-15,-118.));
#319=CARTESIAN_POINT('Origin',(0.,0.,-118.));
#320=CARTESIAN_POINT('Origin',(0.,94.5,0.));
#321=CARTESIAN_POINT('',(31.5,94.5,3.85763741731416E-15));
#322=CARTESIAN_POINT('Origin',(0.,94.5,0.));
#323=CARTESIAN_POINT('',(32.,95.,-3.91886975727153E-15));
#324=CARTESIAN_POINT('Origin',(0.,95.,0.));
#325=CARTESIAN_POINT('Origin',(0.,95.,0.));
#326=CARTESIAN_POINT('',(31.5,57.,-3.85763741731416E-15));
#327=CARTESIAN_POINT('Origin',(0.,57.,0.));
#328=CARTESIAN_POINT('Origin',(3.54066983922288E-15,95.,-7.89491928622334E-16));
#329=CARTESIAN_POINT('',(-37.5,95.,4.59242549680258E-15));
#330=CARTESIAN_POINT('Origin',(0.,95.,0.));
#331=CARTESIAN_POINT('Origin',(0.,57.,0.));
#332=CARTESIAN_POINT('',(30.,44.2972911135659,-5.55111512312578E-16));
#333=CARTESIAN_POINT('Ctrl Pts',(30.,44.2972911135659,-5.55111512312578E-16));
#334=CARTESIAN_POINT('Ctrl Pts',(30.,44.2972911135659,-1.93841822895211));
#335=CARTESIAN_POINT('Ctrl Pts',(29.8092536412731,44.4283421945513,-3.92295407976816));
#336=CARTESIAN_POINT('Ctrl Pts',(29.0271612649002,44.9432208497898,-7.83613946474582));
#337=CARTESIAN_POINT('Ctrl Pts',(28.436188743459,45.3259787258693,-9.76500430707219));
#338=CARTESIAN_POINT('Ctrl Pts',(26.8945055634569,46.2573945878837,-13.4409058780138));
#339=CARTESIAN_POINT('Ctrl Pts',(25.9425539972962,46.8055104648167,-15.1916668393991));
#340=CARTESIAN_POINT('Ctrl Pts',(23.7575443368883,47.9515485100818,-18.4223217006774));
#341=CARTESIAN_POINT('Ctrl Pts',(22.5240986996729,48.5484705897555,-19.90230817152));
#342=CARTESIAN_POINT('Ctrl Pts',(19.9084062798646,49.6782190891989,-22.5180005913282));
#343=CARTESIAN_POINT('Ctrl Pts',(18.4315173821628,50.253619757003,-23.7504989736702));
#344=CARTESIAN_POINT('Ctrl Pts',(15.1998500633395,51.3235977858379,-25.9378409437149));
#345=CARTESIAN_POINT('Ctrl Pts',(13.4449349891312,51.8174274538379,-26.8928483131536));
#346=CARTESIAN_POINT('Ctrl Pts',(9.7600816513641,52.6360416255294,-28.4382207413512));
#347=CARTESIAN_POINT('Ctrl Pts',(7.82648977584633,52.9610717963861,-29.0298286184018));
#348=CARTESIAN_POINT('Ctrl Pts',(3.91119222913056,53.3931797460419,-29.8108615640735));
#349=CARTESIAN_POINT('Ctrl Pts',(1.92940096822857,53.5,-30.));
#350=CARTESIAN_POINT('Ctrl Pts',(-1.92940096822858,53.5,-30.));
#351=CARTESIAN_POINT('Ctrl Pts',(-3.91119222913057,53.3931797460419,-29.8108615640735));
#352=CARTESIAN_POINT('Ctrl Pts',(-7.82648977584633,52.9610717963861,-29.0298286184018));
#353=CARTESIAN_POINT('Ctrl Pts',(-9.76008165136409,52.6360416255294,-28.4382207413512));
#354=CARTESIAN_POINT('Ctrl Pts',(-13.4449349891312,51.8174274538379,-26.8928483131536));
#355=CARTESIAN_POINT('Ctrl Pts',(-15.1998500633395,51.3235977858378,-25.9378409437149));
#356=CARTESIAN_POINT('Ctrl Pts',(-18.4315173821628,50.253619757003,-23.7504989736702));
#357=CARTESIAN_POINT('Ctrl Pts',(-19.9084062798646,49.6782190891989,-22.5180005913282));
#358=CARTESIAN_POINT('Ctrl Pts',(-22.5240986996729,48.5484705897555,-19.90230817152));
#359=CARTESIAN_POINT('Ctrl Pts',(-23.7575443368883,47.9515485100818,-18.4223217006773));
#360=CARTESIAN_POINT('Ctrl Pts',(-25.9425539972963,46.8055104648166,-15.1916668393991));
#361=CARTESIAN_POINT('Ctrl Pts',(-26.8945055634569,46.2573945878837,-13.4409058780138));
#362=CARTESIAN_POINT('Ctrl Pts',(-28.436188743459,45.3259787258693,-9.76500430707219));
#363=CARTESIAN_POINT('Ctrl Pts',(-29.0271612649002,44.9432208497898,-7.83613946474582));
#364=CARTESIAN_POINT('Ctrl Pts',(-29.8092536412731,44.4283421945513,-3.92295407976816));
#365=CARTESIAN_POINT('Ctrl Pts',(-30.,44.2972911135659,-1.93841822895211));
#366=CARTESIAN_POINT('Ctrl Pts',(-30.,44.2972911135659,1.93841822895211));
#367=CARTESIAN_POINT('Ctrl Pts',(-29.8092536412731,44.4283421945513,3.92295407976816));
#368=CARTESIAN_POINT('Ctrl Pts',(-29.0271612649002,44.9432208497898,7.83613946474582));
#369=CARTESIAN_POINT('Ctrl Pts',(-28.436188743459,45.3259787258693,9.76500430707219));
#370=CARTESIAN_POINT('Ctrl Pts',(-26.8945055634569,46.2573945878837,13.4409058780138));
#371=CARTESIAN_POINT('Ctrl Pts',(-25.9425539972963,46.8055104648167,15.1916668393991));
#372=CARTESIAN_POINT('Ctrl Pts',(-23.7575443368883,47.9515485100818,18.4223217006774));
#373=CARTESIAN_POINT('Ctrl Pts',(-22.5240986996729,48.5484705897555,19.90230817152));
#374=CARTESIAN_POINT('Ctrl Pts',(-19.9084062798646,49.6782190891989,22.5180005913282));
#375=CARTESIAN_POINT('Ctrl Pts',(-18.4315173821628,50.253619757003,23.7504989736702));
#376=CARTESIAN_POINT('Ctrl Pts',(-15.1998500633395,51.3235977858378,25.9378409437149));
#377=CARTESIAN_POINT('Ctrl Pts',(-13.4449349891312,51.8174274538379,26.8928483131536));
#378=CARTESIAN_POINT('Ctrl Pts',(-9.76008165136411,52.6360416255294,28.4382207413512));
#379=CARTESIAN_POINT('Ctrl Pts',(-7.82648977584635,52.9610717963861,29.0298286184018));
#380=CARTESIAN_POINT('Ctrl Pts',(-3.91119222913057,53.3931797460419,29.8108615640735));
#381=CARTESIAN_POINT('Ctrl Pts',(-1.92940096822858,53.5,30.));
#382=CARTESIAN_POINT('Ctrl Pts',(1.92940096822858,53.5,30.));
#383=CARTESIAN_POINT('Ctrl Pts',(3.91119222913057,53.3931797460419,29.8108615640735));
#384=CARTESIAN_POINT('Ctrl Pts',(7.82648977584634,52.9610717963861,29.0298286184018));
#385=CARTESIAN_POINT('Ctrl Pts',(9.7600816513641,52.6360416255294,28.4382207413512));
#386=CARTESIAN_POINT('Ctrl Pts',(13.4449349891312,51.8174274538379,26.8928483131536));
#387=CARTESIAN_POINT('Ctrl Pts',(15.1998500633395,51.3235977858378,25.9378409437149));
#388=CARTESIAN_POINT('Ctrl Pts',(18.4315173821628,50.253619757003,23.7504989736702));
#389=CARTESIAN_POINT('Ctrl Pts',(19.9084062798646,49.6782190891989,22.5180005913282));
#390=CARTESIAN_POINT('Ctrl Pts',(22.5240986996729,48.5484705897555,19.90230817152));
#391=CARTESIAN_POINT('Ctrl Pts',(23.7575443368882,47.9515485100818,18.4223217006774));
#392=CARTESIAN_POINT('Ctrl Pts',(25.9425539972962,46.8055104648167,15.1916668393991));
#393=CARTESIAN_POINT('Ctrl Pts',(26.8945055634569,46.2573945878837,13.4409058780138));
#394=CARTESIAN_POINT('Ctrl Pts',(28.436188743459,45.3259787258693,9.76500430707219));
#395=CARTESIAN_POINT('Ctrl Pts',(29.0271612649002,44.9432208497898,7.83613946474581));
#396=CARTESIAN_POINT('Ctrl Pts',(29.8092536412731,44.4283421945513,3.92295407976815));
#397=CARTESIAN_POINT('Ctrl Pts',(30.,44.2972911135659,1.9384182289521));
#398=CARTESIAN_POINT('Ctrl Pts',(30.,44.2972911135659,0.));
#399=CARTESIAN_POINT('',(30.,57.,-3.67394039744206E-15));
#400=CARTESIAN_POINT('Origin',(0.,57.,0.));
#401=CARTESIAN_POINT('Origin',(0.,0.,-57.));
#402=CARTESIAN_POINT('',(-53.5,6.55186037543834E-15,57.));
#403=CARTESIAN_POINT('Origin',(0.,0.,57.));
#404=CARTESIAN_POINT('',(-53.5,6.55186037543834E-15,-57.));
#405=CARTESIAN_POINT('Origin',(0.,0.,-57.));
#406=CARTESIAN_POINT('Origin',(-3.14108381557023E-15,57.,4.69935671799008E-16));
#407=CARTESIAN_POINT('Origin',(0.,95.,0.));
#408=CARTESIAN_POINT('',(37.5,52.4785670536077,5.55111512312578E-16));
#409=CARTESIAN_POINT('Ctrl Pts',(37.5,52.4785670536077,5.55111512312578E-16));
#410=CARTESIAN_POINT('Ctrl Pts',(37.5,52.4785670536077,2.42992390691142));
#411=CARTESIAN_POINT('Ctrl Pts',(37.2602562914369,52.6524366257575,4.91466971233728));
#412=CARTESIAN_POINT('Ctrl Pts',(36.2801448960088,53.3325122735534,9.80977911230581));
#413=CARTESIAN_POINT('Ctrl Pts',(35.5402694378988,53.8371916145294,12.2204532344687));
#414=CARTESIAN_POINT('Ctrl Pts',(33.6124472456798,55.061393203183,16.8123174787642));
#415=CARTESIAN_POINT('Ctrl Pts',(32.4229392031019,55.7801690934565,18.9982241202927));
#416=CARTESIAN_POINT('Ctrl Pts',(29.6937272784866,57.2796369616358,23.0317621420782));
#417=CARTESIAN_POINT('Ctrl Pts',(28.1535000264613,58.0590665738518,24.8795085625298));
#418=CARTESIAN_POINT('Ctrl Pts',(24.8885669754621,59.5314909845976,28.144441613529));
#419=CARTESIAN_POINT('Ctrl Pts',(23.0454661305733,60.2802675593288,29.6832173992702));
#420=CARTESIAN_POINT('Ctrl Pts',(19.0105579528071,61.6717346312795,32.4158231593255));
#421=CARTESIAN_POINT('Ctrl Pts',(16.8185624224067,62.3134868199152,33.6098529527422));
#422=CARTESIAN_POINT('Ctrl Pts',(12.2134230283001,63.3771803785287,35.5431934066917));
#423=CARTESIAN_POINT('Ctrl Pts',(9.79565002852182,63.7994726023102,36.2840635902884));
#424=CARTESIAN_POINT('Ctrl Pts',(4.89723316670255,64.3610485553829,37.2626507034956));
#425=CARTESIAN_POINT('Ctrl Pts',(2.41647777891422,64.5,37.5));
#426=CARTESIAN_POINT('Ctrl Pts',(-2.41647777891422,64.5,37.5));
#427=CARTESIAN_POINT('Ctrl Pts',(-4.89723316670255,64.3610485553829,37.2626507034956));
#428=CARTESIAN_POINT('Ctrl Pts',(-9.79565002852181,63.7994726023102,36.2840635902884));
#429=CARTESIAN_POINT('Ctrl Pts',(-12.2134230283001,63.3771803785286,35.5431934066917));
#430=CARTESIAN_POINT('Ctrl Pts',(-16.8185624224067,62.3134868199152,33.6098529527422));
#431=CARTESIAN_POINT('Ctrl Pts',(-19.0105579528071,61.6717346312795,32.4158231593255));
#432=CARTESIAN_POINT('Ctrl Pts',(-23.0454661305733,60.2802675593288,29.6832173992703));
#433=CARTESIAN_POINT('Ctrl Pts',(-24.8885669754621,59.5314909845976,28.144441613529));
#434=CARTESIAN_POINT('Ctrl Pts',(-28.1535000264613,58.0590665738518,24.8795085625298));
#435=CARTESIAN_POINT('Ctrl Pts',(-29.6937272784866,57.2796369616358,23.0317621420782));
#436=CARTESIAN_POINT('Ctrl Pts',(-32.4229392031019,55.7801690934565,18.9982241202927));
#437=CARTESIAN_POINT('Ctrl Pts',(-33.6124472456798,55.061393203183,16.8123174787642));
#438=CARTESIAN_POINT('Ctrl Pts',(-35.5402694378988,53.8371916145294,12.2204532344687));
#439=CARTESIAN_POINT('Ctrl Pts',(-36.2801448960088,53.3325122735534,9.80977911230582));
#440=CARTESIAN_POINT('Ctrl Pts',(-37.2602562914369,52.6524366257575,4.91466971233729));
#441=CARTESIAN_POINT('Ctrl Pts',(-37.5,52.4785670536077,2.42992390691142));
#442=CARTESIAN_POINT('Ctrl Pts',(-37.5,52.4785670536077,-2.42992390691142));
#443=CARTESIAN_POINT('Ctrl Pts',(-37.2602562914369,52.6524366257575,-4.91466971233729));
#444=CARTESIAN_POINT('Ctrl Pts',(-36.2801448960088,53.3325122735534,-9.80977911230582));
#445=CARTESIAN_POINT('Ctrl Pts',(-35.5402694378988,53.8371916145294,-12.2204532344687));
#446=CARTESIAN_POINT('Ctrl Pts',(-33.6124472456798,55.061393203183,-16.8123174787642));
#447=CARTESIAN_POINT('Ctrl Pts',(-32.4229392031019,55.7801690934565,-18.9982241202927));
#448=CARTESIAN_POINT('Ctrl Pts',(-29.6937272784866,57.2796369616358,-23.0317621420782));
#449=CARTESIAN_POINT('Ctrl Pts',(-28.1535000264613,58.0590665738518,-24.8795085625298));
#450=CARTESIAN_POINT('Ctrl Pts',(-24.8885669754621,59.5314909845976,-28.144441613529));
#451=CARTESIAN_POINT('Ctrl Pts',(-23.0454661305733,60.2802675593288,-29.6832173992702));
#452=CARTESIAN_POINT('Ctrl Pts',(-19.0105579528071,61.6717346312795,-32.4158231593255));
#453=CARTESIAN_POINT('Ctrl Pts',(-16.8185624224067,62.3134868199152,-33.6098529527422));
#454=CARTESIAN_POINT('Ctrl Pts',(-12.2134230283001,63.3771803785287,-35.5431934066917));
#455=CARTESIAN_POINT('Ctrl Pts',(-9.79565002852182,63.7994726023102,-36.2840635902884));
#456=CARTESIAN_POINT('Ctrl Pts',(-4.89723316670256,64.3610485553829,-37.2626507034956));
#457=CARTESIAN_POINT('Ctrl Pts',(-2.41647777891422,64.5,-37.5));
#458=CARTESIAN_POINT('Ctrl Pts',(2.41647777891421,64.5,-37.5));
#459=CARTESIAN_POINT('Ctrl Pts',(4.89723316670253,64.3610485553829,-37.2626507034956));
#460=CARTESIAN_POINT('Ctrl Pts',(9.79565002852179,63.7994726023102,-36.2840635902884));
#461=CARTESIAN_POINT('Ctrl Pts',(12.2134230283,63.3771803785287,-35.5431934066917));
#462=CARTESIAN_POINT('Ctrl Pts',(16.8185624224067,62.3134868199152,-33.6098529527422));
#463=CARTESIAN_POINT('Ctrl Pts',(19.0105579528071,61.6717346312795,-32.4158231593255));
#464=CARTESIAN_POINT('Ctrl Pts',(23.0454661305733,60.2802675593288,-29.6832173992703));
#465=CARTESIAN_POINT('Ctrl Pts',(24.8885669754621,59.5314909845976,-28.144441613529));
#466=CARTESIAN_POINT('Ctrl Pts',(28.1535000264613,58.0590665738518,-24.8795085625298));
#467=CARTESIAN_POINT('Ctrl Pts',(29.6937272784866,57.2796369616358,-23.0317621420782));
#468=CARTESIAN_POINT('Ctrl Pts',(32.4229392031019,55.7801690934565,-18.9982241202927));
#469=CARTESIAN_POINT('Ctrl Pts',(33.6124472456798,55.061393203183,-16.8123174787642));
#470=CARTESIAN_POINT('Ctrl Pts',(35.5402694378989,53.8371916145294,-12.2204532344687));
#471=CARTESIAN_POINT('Ctrl Pts',(36.2801448960089,53.3325122735534,-9.8097791123058));
#472=CARTESIAN_POINT('Ctrl Pts',(37.2602562914369,52.6524366257575,-4.91466971233728));
#473=CARTESIAN_POINT('Ctrl Pts',(37.5,52.4785670536077,-2.42992390691141));
#474=CARTESIAN_POINT('Ctrl Pts',(37.5,52.4785670536077,0.));
#475=CARTESIAN_POINT('Origin',(0.,0.,0.));
#476=CARTESIAN_POINT('Origin',(-4.86761606027648E-15,0.,-57.));
#477=CARTESIAN_POINT('Origin',(-4.86761606027648E-15,0.,57.));
#478=UNCERTAINTY_MEASURE_WITH_UNIT(LENGTH_MEASURE(0.01),#482,
'DISTANCE_ACCURACY_VALUE',
'Maximum model space distance between geometric entities at asserted c
onnectivities');
#479=UNCERTAINTY_MEASURE_WITH_UNIT(LENGTH_MEASURE(1.E-6),#482,
'DISTANCE_ACCURACY_VALUE',
'Maximum model space distance between geometric entities at asserted c
onnectivities');
#480=(
GEOMETRIC_REPRESENTATION_CONTEXT(3)
GLOBAL_UNCERTAINTY_ASSIGNED_CONTEXT((#478))
GLOBAL_UNIT_ASSIGNED_CONTEXT((#482,#485,#483))
REPRESENTATION_CONTEXT('','3D')
);
#481=(
GEOMETRIC_REPRESENTATION_CONTEXT(3)
GLOBAL_UNCERTAINTY_ASSIGNED_CONTEXT((#479))
GLOBAL_UNIT_ASSIGNED_CONTEXT((#482,#485,#483))
REPRESENTATION_CONTEXT('','3D')
);
#482=(
LENGTH_UNIT()
NAMED_UNIT(*)
SI_UNIT(.MILLI.,.METRE.)
);
#483=(
NAMED_UNIT(*)
SI_UNIT($,.STERADIAN.)
SOLID_ANGLE_UNIT()
);
#484=DIMENSIONAL_EXPONENTS(0.,0.,0.,0.,0.,0.,0.);
#485=(
CONVERSION_BASED_UNIT('degree',#487)
NAMED_UNIT(#484)
PLANE_ANGLE_UNIT()
);
#486=(
NAMED_UNIT(*)
PLANE_ANGLE_UNIT()
SI_UNIT($,.RADIAN.)
);
#487=PLANE_ANGLE_MEASURE_WITH_UNIT(PLANE_ANGLE_MEASURE(0.01745329252),#486);
#488=SHAPE_DEFINITION_REPRESENTATION(#489,#490);
#489=PRODUCT_DEFINITION_SHAPE('',$,#492);
#490=SHAPE_REPRESENTATION('',(#201),#480);
#491=PRODUCT_DEFINITION_CONTEXT('part definition',#496,'design');
#492=PRODUCT_DEFINITION('TR40110G','TR40110G',#493,#491);
#493=PRODUCT_DEFINITION_FORMATION('',$,#498);
#494=PRODUCT_RELATED_PRODUCT_CATEGORY('TR40110G','TR40110G',(#498));
#495=APPLICATION_PROTOCOL_DEFINITION('international standard',
'automotive_design',2009,#496);
#496=APPLICATION_CONTEXT(
'Core Data for Automotive Mechanical Design Process');
#497=PRODUCT_CONTEXT('part definition',#496,'mechanical');
#498=PRODUCT('TR40110G','TR40110G',$,(#497));
#499=PRESENTATION_STYLE_ASSIGNMENT((#500));
#500=SURFACE_STYLE_USAGE(.BOTH.,#501);
#501=SURFACE_SIDE_STYLE('',(#502));
#502=SURFACE_STYLE_FILL_AREA(#503);
#503=FILL_AREA_STYLE('',(#504));
#504=FILL_AREA_STYLE_COLOUR('',#505);
#505=COLOUR_RGB('',0.8,0.8,0.8);
ENDSEC;
END-ISO-10303-21;
