ISO-10303-21;
HEADER;
FILE_DESCRIPTION( ( 'STEP AP214' ), '1' );
FILE_NAME( 'p:/temp/worker_55/temp/exporttempdir_6628_308_ld6Ly/format_0/AGRU_11050004007_Elbow 45\X2\00B0\X0\_PPR grey_40 - MOP 20 bar (architecture400).stp', '2022-03-09T12:13:00', ( 'License CC BY-ND 4.0' ), ( 'CADENAS' ), ' ', 'PARTsolutions', ' ' );
FILE_SCHEMA( ( 'AUTOMOTIVE_DESIGN { 1 0 10303 214 1 1 1 1 }' ) );
ENDSEC;
DATA;
#1 = MECHANICAL_DESIGN_GEOMETRIC_PRESENTATION_REPRESENTATION( ' ', ( #10, #11, #12, #13, #14, #15, #16, #17, #18, #19, #20, #21 ), #6 );
#2 = PRODUCT_DEFINITION_CONTEXT( '', #22, 'design' );
#3 = APPLICATION_PROTOCOL_DEFINITION( 'international standard', 'automotive_design', 2001, #22 );
#4 = PRODUCT_CATEGORY_RELATIONSHIP( 'NONE', 'NONE', #23, #24 );
#5 = SHAPE_DEFINITION_REPRESENTATION( #25, #26 );
#6 =  ( GEOMETRIC_REPRESENTATION_CONTEXT( 3 )GLOBAL_UNCERTAINTY_ASSIGNED_CONTEXT( ( #29 ) )GLOBAL_UNIT_ASSIGNED_CONTEXT( ( #31, #32, #33 ) )REPRESENTATION_CONTEXT( 'NONE', 'WORKSPACE' ) );
#10 = STYLED_ITEM( '', ( #35 ), #36 );
#11 = STYLED_ITEM( '', ( #37 ), #38 );
#12 = STYLED_ITEM( '', ( #39 ), #40 );
#13 = STYLED_ITEM( '', ( #41 ), #42 );
#14 = STYLED_ITEM( '', ( #43 ), #44 );
#15 = STYLED_ITEM( '', ( #45 ), #46 );
#16 = STYLED_ITEM( '', ( #47 ), #48 );
#17 = STYLED_ITEM( '', ( #49 ), #50 );
#18 = STYLED_ITEM( '', ( #51 ), #52 );
#19 = STYLED_ITEM( '', ( #53 ), #54 );
#20 = STYLED_ITEM( '', ( #55 ), #56 );
#21 = STYLED_ITEM( '', ( #57 ), #58 );
#22 = APPLICATION_CONTEXT( 'core data for automotive mechanical design processes' );
#23 = PRODUCT_CATEGORY( 'part', 'NONE' );
#24 = PRODUCT_RELATED_PRODUCT_CATEGORY( 'detail', ' ', ( #59 ) );
#25 = PRODUCT_DEFINITION_SHAPE( 'NONE', 'NONE', #60 );
#26 = ADVANCED_BREP_SHAPE_REPRESENTATION( '_AGRU_11050004007_Elbow 45\X2\00B0\X0\_PPR grey_40 - MOP 20 bar (architecture400)', ( #61, #62 ), #6 );
#29 = UNCERTAINTY_MEASURE_WITH_UNIT( LENGTH_MEASURE( 0.00100000000000000 ), #31, '', '' );
#31 =  ( CONVERSION_BASED_UNIT( 'MILLIMETRE', #65 )LENGTH_UNIT(  )NAMED_UNIT( #68 ) );
#32 =  ( NAMED_UNIT( #70 )PLANE_ANGLE_UNIT(  )SI_UNIT( $, .RADIAN. ) );
#33 =  ( NAMED_UNIT( #70 )SI_UNIT( $, .STERADIAN. )SOLID_ANGLE_UNIT(  ) );
#35 = PRESENTATION_STYLE_ASSIGNMENT( ( #76 ) );
#36 = ADVANCED_FACE( '', ( #77, #78 ), #79, .T. );
#37 = PRESENTATION_STYLE_ASSIGNMENT( ( #80 ) );
#38 = ADVANCED_FACE( '', ( #81, #82 ), #83, .F. );
#39 = PRESENTATION_STYLE_ASSIGNMENT( ( #84 ) );
#40 = ADVANCED_FACE( '', ( #85, #86 ), #87, .T. );
#41 = PRESENTATION_STYLE_ASSIGNMENT( ( #88 ) );
#42 = ADVANCED_FACE( '', ( #89, #90 ), #91, .F. );
#43 = PRESENTATION_STYLE_ASSIGNMENT( ( #92 ) );
#44 = ADVANCED_FACE( '', ( #93, #94 ), #95, .T. );
#45 = PRESENTATION_STYLE_ASSIGNMENT( ( #96 ) );
#46 = ADVANCED_FACE( '', ( #97, #98 ), #99, .T. );
#47 = PRESENTATION_STYLE_ASSIGNMENT( ( #100 ) );
#48 = ADVANCED_FACE( '', ( #101 ), #102, .F. );
#49 = PRESENTATION_STYLE_ASSIGNMENT( ( #103 ) );
#50 = ADVANCED_FACE( '', ( #104 ), #105, .T. );
#51 = PRESENTATION_STYLE_ASSIGNMENT( ( #106 ) );
#52 = ADVANCED_FACE( '', ( #107, #108 ), #109, .F. );
#53 = PRESENTATION_STYLE_ASSIGNMENT( ( #110 ) );
#54 = ADVANCED_FACE( '', ( #111, #112 ), #113, .F. );
#55 = PRESENTATION_STYLE_ASSIGNMENT( ( #114 ) );
#56 = ADVANCED_FACE( '', ( #115, #116 ), #117, .F. );
#57 = PRESENTATION_STYLE_ASSIGNMENT( ( #118 ) );
#58 = ADVANCED_FACE( '', ( #119, #120 ), #121, .F. );
#59 = PRODUCT( '_AGRU_11050004007_Elbow 45\X2\00B0\X0\_PPR grey_40 - MOP 20 bar (architecture400)', '_AGRU_11050004007_Elbow 45\X2\00B0\X0\_PPR grey_40 - MOP 20 bar (architecture400)', 'PART-_AGRU_11050004007_Elbow 45\X2\00B0\X0\_PPR grey_40 - MOP 20 bar (architecture400)-DESC', ( #122 ) );
#60 = PRODUCT_DEFINITION( 'NONE', 'NONE', #123, #2 );
#61 = MANIFOLD_SOLID_BREP( '_AGRU_11050004007_Elbow 45\X2\00B0\X0\_PPR grey_40 - MOP 20 bar (architecture400)', #124 );
#62 = AXIS2_PLACEMENT_3D( '', #125, #126, #127 );
#65 = LENGTH_MEASURE_WITH_UNIT( LENGTH_MEASURE( 1.00000000000000 ), #128 );
#68 = DIMENSIONAL_EXPONENTS( 1.00000000000000, 0.000000000000000, 0.000000000000000, 0.000000000000000, 0.000000000000000, 0.000000000000000, 0.000000000000000 );
#70 = DIMENSIONAL_EXPONENTS( 0.000000000000000, 0.000000000000000, 0.000000000000000, 0.000000000000000, 0.000000000000000, 0.000000000000000, 0.000000000000000 );
#76 = SURFACE_STYLE_USAGE( .BOTH., #129 );
#77 = FACE_OUTER_BOUND( '', #130, .T. );
#78 = FACE_OUTER_BOUND( '', #131, .T. );
#79 = CYLINDRICAL_SURFACE( '', #132, 26.5000000000000 );
#80 = SURFACE_STYLE_USAGE( .BOTH., #133 );
#81 = FACE_OUTER_BOUND( '', #134, .T. );
#82 = FACE_OUTER_BOUND( '', #135, .T. );
#83 = CYLINDRICAL_SURFACE( '', #136, 17.8333333333000 );
#84 = SURFACE_STYLE_USAGE( .BOTH., #137 );
#85 = FACE_OUTER_BOUND( '', #138, .T. );
#86 = FACE_OUTER_BOUND( '', #139, .T. );
#87 = CYLINDRICAL_SURFACE( '', #140, 26.5000000000000 );
#88 = SURFACE_STYLE_USAGE( .BOTH., #141 );
#89 = FACE_OUTER_BOUND( '', #142, .T. );
#90 = FACE_OUTER_BOUND( '', #143, .T. );
#91 = CYLINDRICAL_SURFACE( '', #144, 20.0000000000000 );
#92 = SURFACE_STYLE_USAGE( .BOTH., #145 );
#93 = FACE_BOUND( '', #146, .T. );
#94 = FACE_OUTER_BOUND( '', #147, .T. );
#95 = PLANE( '', #148 );
#96 = SURFACE_STYLE_USAGE( .BOTH., #149 );
#97 = FACE_OUTER_BOUND( '', #150, .T. );
#98 = FACE_BOUND( '', #151, .T. );
#99 = PLANE( '', #152 );
#100 = SURFACE_STYLE_USAGE( .BOTH., #153 );
#101 = FACE_OUTER_BOUND( '', #154, .T. );
#102 = SPHERICAL_SURFACE( '', #155, 17.8333333333000 );
#103 = SURFACE_STYLE_USAGE( .BOTH., #156 );
#104 = FACE_OUTER_BOUND( '', #157, .T. );
#105 = SPHERICAL_SURFACE( '', #158, 26.5000000000000 );
#106 = SURFACE_STYLE_USAGE( .BOTH., #159 );
#107 = FACE_OUTER_BOUND( '', #160, .T. );
#108 = FACE_OUTER_BOUND( '', #161, .T. );
#109 = CYLINDRICAL_SURFACE( '', #162, 17.8333333333000 );
#110 = SURFACE_STYLE_USAGE( .BOTH., #163 );
#111 = FACE_BOUND( '', #164, .T. );
#112 = FACE_OUTER_BOUND( '', #165, .T. );
#113 = PLANE( '', #166 );
#114 = SURFACE_STYLE_USAGE( .BOTH., #167 );
#115 = FACE_OUTER_BOUND( '', #168, .T. );
#116 = FACE_OUTER_BOUND( '', #169, .T. );
#117 = CYLINDRICAL_SURFACE( '', #170, 20.0000000000000 );
#118 = SURFACE_STYLE_USAGE( .BOTH., #171 );
#119 = FACE_BOUND( '', #172, .T. );
#120 = FACE_OUTER_BOUND( '', #173, .T. );
#121 = PLANE( '', #174 );
#122 = PRODUCT_CONTEXT( '', #22, 'mechanical' );
#123 = PRODUCT_DEFINITION_FORMATION_WITH_SPECIFIED_SOURCE( ' ', 'NONE', #59, .NOT_KNOWN. );
#124 = CLOSED_SHELL( '', ( #58, #40, #50, #36, #38, #44, #42, #54, #56, #46, #52, #48 ) );
#125 = CARTESIAN_POINT( '', ( 0.000000000000000, 0.000000000000000, 0.000000000000000 ) );
#126 = DIRECTION( '', ( 0.000000000000000, 0.000000000000000, 1.00000000000000 ) );
#127 = DIRECTION( '', ( 1.00000000000000, 0.000000000000000, 0.000000000000000 ) );
#128 =  ( LENGTH_UNIT(  )NAMED_UNIT( #68 )SI_UNIT( .MILLI., .METRE. ) );
#129 = SURFACE_SIDE_STYLE( '', ( #176 ) );
#130 = EDGE_LOOP( '', ( #177 ) );
#131 = EDGE_LOOP( '', ( #178, #179 ) );
#132 = AXIS2_PLACEMENT_3D( '', #180, #181, #182 );
#133 = SURFACE_SIDE_STYLE( '', ( #183 ) );
#134 = EDGE_LOOP( '', ( #184, #185 ) );
#135 = EDGE_LOOP( '', ( #186 ) );
#136 = AXIS2_PLACEMENT_3D( '', #187, #188, #189 );
#137 = SURFACE_SIDE_STYLE( '', ( #190 ) );
#138 = EDGE_LOOP( '', ( #191 ) );
#139 = EDGE_LOOP( '', ( #192, #193 ) );
#140 = AXIS2_PLACEMENT_3D( '', #194, #195, #196 );
#141 = SURFACE_SIDE_STYLE( '', ( #197 ) );
#142 = EDGE_LOOP( '', ( #198 ) );
#143 = EDGE_LOOP( '', ( #199 ) );
#144 = AXIS2_PLACEMENT_3D( '', #200, #201, #202 );
#145 = SURFACE_SIDE_STYLE( '', ( #203 ) );
#146 = EDGE_LOOP( '', ( #204 ) );
#147 = EDGE_LOOP( '', ( #205 ) );
#148 = AXIS2_PLACEMENT_3D( '', #206, #207, #208 );
#149 = SURFACE_SIDE_STYLE( '', ( #209 ) );
#150 = EDGE_LOOP( '', ( #210 ) );
#151 = EDGE_LOOP( '', ( #211 ) );
#152 = AXIS2_PLACEMENT_3D( '', #212, #213, #214 );
#153 = SURFACE_SIDE_STYLE( '', ( #215 ) );
#154 = EDGE_LOOP( '', ( #216, #217 ) );
#155 = AXIS2_PLACEMENT_3D( '', #218, #219, #220 );
#156 = SURFACE_SIDE_STYLE( '', ( #221 ) );
#157 = EDGE_LOOP( '', ( #222, #223 ) );
#158 = AXIS2_PLACEMENT_3D( '', #224, #225, #226 );
#159 = SURFACE_SIDE_STYLE( '', ( #227 ) );
#160 = EDGE_LOOP( '', ( #228 ) );
#161 = EDGE_LOOP( '', ( #229, #230 ) );
#162 = AXIS2_PLACEMENT_3D( '', #231, #232, #233 );
#163 = SURFACE_SIDE_STYLE( '', ( #234 ) );
#164 = EDGE_LOOP( '', ( #235 ) );
#165 = EDGE_LOOP( '', ( #236 ) );
#166 = AXIS2_PLACEMENT_3D( '', #237, #238, #239 );
#167 = SURFACE_SIDE_STYLE( '', ( #240 ) );
#168 = EDGE_LOOP( '', ( #241 ) );
#169 = EDGE_LOOP( '', ( #242 ) );
#170 = AXIS2_PLACEMENT_3D( '', #243, #244, #245 );
#171 = SURFACE_SIDE_STYLE( '', ( #246 ) );
#172 = EDGE_LOOP( '', ( #247 ) );
#173 = EDGE_LOOP( '', ( #248 ) );
#174 = AXIS2_PLACEMENT_3D( '', #249, #250, #251 );
#176 = SURFACE_STYLE_FILL_AREA( #252 );
#177 = ORIENTED_EDGE( '', *, *, #253, .F. );
#178 = ORIENTED_EDGE( '', *, *, #254, .T. );
#179 = ORIENTED_EDGE( '', *, *, #255, .T. );
#180 = CARTESIAN_POINT( '', ( 24.3951839509359, 0.000000000000000, 36.8951839509359 ) );
#181 = DIRECTION( '', ( -0.707106781186548, 0.000000000000000, -0.707106781186548 ) );
#182 = DIRECTION( '', ( 0.707106781186548, 0.000000000000000, -0.707106781186548 ) );
#183 = SURFACE_STYLE_FILL_AREA( #256 );
#184 = ORIENTED_EDGE( '', *, *, #257, .T. );
#185 = ORIENTED_EDGE( '', *, *, #258, .T. );
#186 = ORIENTED_EDGE( '', *, *, #259, .F. );
#187 = CARTESIAN_POINT( '', ( 0.000000000000000, 0.000000000000000, 30.3333333333333 ) );
#188 = DIRECTION( '', ( -0.000000000000000, 0.000000000000000, -1.00000000000000 ) );
#189 = DIRECTION( '', ( 1.00000000000000, 0.000000000000000, 0.000000000000000 ) );
#190 = SURFACE_STYLE_FILL_AREA( #260 );
#191 = ORIENTED_EDGE( '', *, *, #261, .T. );
#192 = ORIENTED_EDGE( '', *, *, #255, .F. );
#193 = ORIENTED_EDGE( '', *, *, #262, .F. );
#194 = CARTESIAN_POINT( '', ( 0.000000000000000, 0.000000000000000, 12.5000000000000 ) );
#195 = DIRECTION( '', ( 0.000000000000000, -0.000000000000000, 1.00000000000000 ) );
#196 = DIRECTION( '', ( -1.00000000000000, 0.000000000000000, 0.000000000000000 ) );
#197 = SURFACE_STYLE_FILL_AREA( #263 );
#198 = ORIENTED_EDGE( '', *, *, #264, .T. );
#199 = ORIENTED_EDGE( '', *, *, #265, .T. );
#200 = CARTESIAN_POINT( '', ( 0.000000000000000, 0.000000000000000, 30.3333333333333 ) );
#201 = DIRECTION( '', ( -0.000000000000000, 0.000000000000000, -1.00000000000000 ) );
#202 = DIRECTION( '', ( 1.00000000000000, 0.000000000000000, 0.000000000000000 ) );
#203 = SURFACE_STYLE_FILL_AREA( #266 );
#204 = ORIENTED_EDGE( '', *, *, #259, .T. );
#205 = ORIENTED_EDGE( '', *, *, #264, .F. );
#206 = CARTESIAN_POINT( '', ( -20.0000000000000, 0.000000000000000, 0.000000000000000 ) );
#207 = DIRECTION( '', ( 0.000000000000000, 0.000000000000000, -1.00000000000000 ) );
#208 = DIRECTION( '', ( -1.00000000000000, 0.000000000000000, 0.000000000000000 ) );
#209 = SURFACE_STYLE_FILL_AREA( #267 );
#210 = ORIENTED_EDGE( '', *, *, #268, .T. );
#211 = ORIENTED_EDGE( '', *, *, #269, .F. );
#212 = CARTESIAN_POINT( '', ( -3.77123616632826, 0.000000000000000, 33.9489056959919 ) );
#213 = DIRECTION( '', ( 0.707106781186548, -0.000000000000000, 0.707106781186548 ) );
#214 = DIRECTION( '', ( 0.707106781186547, 0.000000000000000, -0.707106781186547 ) );
#215 = SURFACE_STYLE_FILL_AREA( #270 );
#216 = ORIENTED_EDGE( '', *, *, #258, .F. );
#217 = ORIENTED_EDGE( '', *, *, #271, .T. );
#218 = CARTESIAN_POINT( '', ( 3.46944695195361E-15, 0.000000000000000, 12.5000000000000 ) );
#219 = DIRECTION( '', ( 0.000000000000000, 0.000000000000000, 1.00000000000000 ) );
#220 = DIRECTION( '', ( -1.00000000000000, 0.000000000000000, 0.000000000000000 ) );
#221 = SURFACE_STYLE_FILL_AREA( #272 );
#222 = ORIENTED_EDGE( '', *, *, #262, .T. );
#223 = ORIENTED_EDGE( '', *, *, #254, .F. );
#224 = CARTESIAN_POINT( '', ( 1.73472347597681E-15, 0.000000000000000, 12.5000000000000 ) );
#225 = DIRECTION( '', ( 0.000000000000000, 0.000000000000000, 1.00000000000000 ) );
#226 = DIRECTION( '', ( -1.00000000000000, 0.000000000000000, 0.000000000000000 ) );
#227 = SURFACE_STYLE_FILL_AREA( #273 );
#228 = ORIENTED_EDGE( '', *, *, #269, .T. );
#229 = ORIENTED_EDGE( '', *, *, #257, .F. );
#230 = ORIENTED_EDGE( '', *, *, #271, .F. );
#231 = CARTESIAN_POINT( '', ( 25.1022907321224, 0.000000000000000, 37.6022907321224 ) );
#232 = DIRECTION( '', ( -0.707106781186548, 0.000000000000000, -0.707106781186548 ) );
#233 = DIRECTION( '', ( 0.707106781186547, 0.000000000000000, -0.707106781186547 ) );
#234 = SURFACE_STYLE_FILL_AREA( #274 );
#235 = ORIENTED_EDGE( '', *, *, #275, .F. );
#236 = ORIENTED_EDGE( '', *, *, #253, .T. );
#237 = CARTESIAN_POINT( '', ( 5.65685424949238, 0.000000000000000, 55.6335136523794 ) );
#238 = DIRECTION( '', ( -0.707106781186548, 0.000000000000000, -0.707106781186547 ) );
#239 = DIRECTION( '', ( -0.707106781186547, 0.000000000000000, 0.707106781186548 ) );
#240 = SURFACE_STYLE_FILL_AREA( #276 );
#241 = ORIENTED_EDGE( '', *, *, #275, .T. );
#242 = ORIENTED_EDGE( '', *, *, #268, .F. );
#243 = CARTESIAN_POINT( '', ( 25.1022907321224, 0.000000000000000, 37.6022907321224 ) );
#244 = DIRECTION( '', ( -0.707106781186548, 0.000000000000000, -0.707106781186548 ) );
#245 = DIRECTION( '', ( 0.707106781186547, 0.000000000000000, -0.707106781186547 ) );
#246 = SURFACE_STYLE_FILL_AREA( #277 );
#247 = ORIENTED_EDGE( '', *, *, #265, .F. );
#248 = ORIENTED_EDGE( '', *, *, #261, .F. );
#249 = CARTESIAN_POINT( '', ( 0.000000000000000, 0.000000000000000, -22.0000000000000 ) );
#250 = DIRECTION( '', ( 0.000000000000000, 0.000000000000000, 1.00000000000000 ) );
#251 = DIRECTION( '', ( 1.00000000000000, 0.000000000000000, -0.000000000000000 ) );
#252 = FILL_AREA_STYLE( '', ( #278 ) );
#253 = EDGE_CURVE( '', #279, #279, #280, .T. );
#254 = EDGE_CURVE( '', #281, #282, #283, .T. );
#255 = EDGE_CURVE( '', #282, #281, #284, .F. );
#256 = FILL_AREA_STYLE( '', ( #285 ) );
#257 = EDGE_CURVE( '', #286, #287, #288, .T. );
#258 = EDGE_CURVE( '', #287, #286, #289, .T. );
#259 = EDGE_CURVE( '', #290, #290, #291, .T. );
#260 = FILL_AREA_STYLE( '', ( #292 ) );
#261 = EDGE_CURVE( '', #293, #293, #294, .T. );
#262 = EDGE_CURVE( '', #281, #282, #295, .T. );
#263 = FILL_AREA_STYLE( '', ( #296 ) );
#264 = EDGE_CURVE( '', #297, #297, #298, .T. );
#265 = EDGE_CURVE( '', #299, #299, #300, .F. );
#266 = FILL_AREA_STYLE( '', ( #301 ) );
#267 = FILL_AREA_STYLE( '', ( #302 ) );
#268 = EDGE_CURVE( '', #303, #303, #304, .T. );
#269 = EDGE_CURVE( '', #305, #305, #306, .T. );
#270 = FILL_AREA_STYLE( '', ( #307 ) );
#271 = EDGE_CURVE( '', #287, #286, #308, .T. );
#272 = FILL_AREA_STYLE( '', ( #309 ) );
#273 = FILL_AREA_STYLE( '', ( #310 ) );
#274 = FILL_AREA_STYLE( '', ( #311 ) );
#275 = EDGE_CURVE( '', #312, #312, #313, .F. );
#276 = FILL_AREA_STYLE( '', ( #314 ) );
#277 = FILL_AREA_STYLE( '', ( #315 ) );
#278 = FILL_AREA_STYLE_COLOUR( '', #316 );
#279 = VERTEX_POINT( '', #317 );
#280 = CIRCLE( '', #318, 26.5000000000000 );
#281 = VERTEX_POINT( '', #319 );
#282 = VERTEX_POINT( '', #320 );
#283 = CIRCLE( '', #321, 26.5000000000000 );
#284 = ELLIPSE( '', #322, 28.6833933077000, 26.5000000000000 );
#285 = FILL_AREA_STYLE_COLOUR( '', #323 );
#286 = VERTEX_POINT( '', #324 );
#287 = VERTEX_POINT( '', #325 );
#288 = ELLIPSE( '', #326, 19.3026609052000, 17.8333333333000 );
#289 = CIRCLE( '', #327, 17.8333333333000 );
#290 = VERTEX_POINT( '', #328 );
#291 = CIRCLE( '', #329, 17.8333333333000 );
#292 = FILL_AREA_STYLE_COLOUR( '', #330 );
#293 = VERTEX_POINT( '', #331 );
#294 = CIRCLE( '', #332, 26.5000000000000 );
#295 = CIRCLE( '', #333, 26.5000000000000 );
#296 = FILL_AREA_STYLE_COLOUR( '', #334 );
#297 = VERTEX_POINT( '', #335 );
#298 = CIRCLE( '', #336, 20.0000000000000 );
#299 = VERTEX_POINT( '', #337 );
#300 = CIRCLE( '', #338, 20.0000000000000 );
#301 = FILL_AREA_STYLE_COLOUR( '', #339 );
#302 = FILL_AREA_STYLE_COLOUR( '', #340 );
#303 = VERTEX_POINT( '', #341 );
#304 = CIRCLE( '', #342, 20.0000000000000 );
#305 = VERTEX_POINT( '', #343 );
#306 = CIRCLE( '', #344, 17.8333333333000 );
#307 = FILL_AREA_STYLE_COLOUR( '', #345 );
#308 = CIRCLE( '', #346, 17.8333333333000 );
#309 = FILL_AREA_STYLE_COLOUR( '', #347 );
#310 = FILL_AREA_STYLE_COLOUR( '', #348 );
#311 = FILL_AREA_STYLE_COLOUR( '', #349 );
#312 = VERTEX_POINT( '', #350 );
#313 = CIRCLE( '', #351, 20.0000000000000 );
#314 = FILL_AREA_STYLE_COLOUR( '', #352 );
#315 = FILL_AREA_STYLE_COLOUR( '', #353 );
#316 = COLOUR_RGB( '', 0.713725507300000, 0.709803938900000, 0.650980413000000 );
#317 = CARTESIAN_POINT( '', ( 43.1335136523794, 0.000000000000000, 18.1568542494924 ) );
#318 = AXIS2_PLACEMENT_3D( '', #354, #355, #356 );
#319 = CARTESIAN_POINT( '', ( -2.52767734032930E-15, 26.5000000000000, 12.5000000000000 ) );
#320 = CARTESIAN_POINT( '', ( -3.23400454904754E-15, -26.5000000000000, 12.5000000000000 ) );
#321 = AXIS2_PLACEMENT_3D( '', #357, #358, #359 );
#322 = AXIS2_PLACEMENT_3D( '', #360, #361, #362 );
#323 = COLOUR_RGB( '', 0.713725507300000, 0.709803938900000, 0.650980413000000 );
#324 = CARTESIAN_POINT( '', ( -5.05535468065861E-15, -17.8333333333333, 12.5000000000000 ) );
#325 = CARTESIAN_POINT( '', ( -3.96476932176247E-16, 17.8333333333333, 12.5000000000000 ) );
#326 = AXIS2_PLACEMENT_3D( '', #363, #364, #365 );
#327 = AXIS2_PLACEMENT_3D( '', #366, #367, #368 );
#328 = CARTESIAN_POINT( '', ( 17.8333333333333, 0.000000000000000, 0.000000000000000 ) );
#329 = AXIS2_PLACEMENT_3D( '', #369, #370, #371 );
#330 = COLOUR_RGB( '', 0.713725507300000, 0.709803938900000, 0.650980413000000 );
#331 = CARTESIAN_POINT( '', ( 26.5000000000000, 0.000000000000000, -22.0000000000000 ) );
#332 = AXIS2_PLACEMENT_3D( '', #372, #373, #374 );
#333 = AXIS2_PLACEMENT_3D( '', #375, #376, #377 );
#334 = COLOUR_RGB( '', 0.713725507300000, 0.709803938900000, 0.650980413000000 );
#335 = CARTESIAN_POINT( '', ( 20.0000000000000, 0.000000000000000, 0.000000000000000 ) );
#336 = AXIS2_PLACEMENT_3D( '', #378, #379, #380 );
#337 = CARTESIAN_POINT( '', ( 20.0000000000000, 0.000000000000000, -22.0000000000000 ) );
#338 = AXIS2_PLACEMENT_3D( '', #381, #382, #383 );
#339 = COLOUR_RGB( '', 0.713725507300000, 0.709803938900000, 0.650980413000000 );
#340 = COLOUR_RGB( '', 0.713725507300000, 0.709803938900000, 0.650980413000000 );
#341 = CARTESIAN_POINT( '', ( 22.9809703885628, 0.000000000000000, 7.19669914110088 ) );
#342 = AXIS2_PLACEMENT_3D( '', #384, #385, #386 );
#343 = CARTESIAN_POINT( '', ( 21.4489056959919, 0.000000000000000, 8.72876383367173 ) );
#344 = AXIS2_PLACEMENT_3D( '', #387, #388, #389 );
#345 = COLOUR_RGB( '', 0.713725507300000, 0.709803938900000, 0.650980413000000 );
#346 = AXIS2_PLACEMENT_3D( '', #390, #391, #392 );
#347 = COLOUR_RGB( '', 0.713725507300000, 0.709803938900000, 0.650980413000000 );
#348 = COLOUR_RGB( '', 0.713725507300000, 0.709803938900000, 0.650980413000000 );
#349 = COLOUR_RGB( '', 0.713725507300000, 0.709803938900000, 0.650980413000000 );
#350 = CARTESIAN_POINT( '', ( 10.2530483272049, 0.000000000000000, 51.0373195746668 ) );
#351 = AXIS2_PLACEMENT_3D( '', #393, #394, #395 );
#352 = COLOUR_RGB( '', 0.713725507300000, 0.709803938900000, 0.650980413000000 );
#353 = COLOUR_RGB( '', 0.713725507300000, 0.709803938900000, 0.650980413000000 );
#354 = CARTESIAN_POINT( '', ( 24.3951839509359, 0.000000000000000, 36.8951839509359 ) );
#355 = DIRECTION( '', ( 0.707106781186548, -0.000000000000000, 0.707106781186548 ) );
#356 = DIRECTION( '', ( 0.707106781186548, 0.000000000000000, -0.707106781186548 ) );
#357 = CARTESIAN_POINT( '', ( 8.67361737988404E-16, 0.000000000000000, 12.5000000000000 ) );
#358 = DIRECTION( '', ( 0.707106781186548, -0.000000000000000, 0.707106781186548 ) );
#359 = DIRECTION( '', ( 0.707106781186548, 0.000000000000000, -0.707106781186548 ) );
#360 = CARTESIAN_POINT( '', ( 0.000000000000000, 0.000000000000000, 12.5000000000000 ) );
#361 = DIRECTION( '', ( -0.382683432365090, 0.000000000000000, -0.923879532511287 ) );
#362 = DIRECTION( '', ( 0.923879532511287, 0.000000000000000, -0.382683432365090 ) );
#363 = CARTESIAN_POINT( '', ( -1.73472347597681E-15, 0.000000000000000, 12.5000000000000 ) );
#364 = DIRECTION( '', ( 0.382683432365090, 0.000000000000000, 0.923879532511287 ) );
#365 = DIRECTION( '', ( -0.923879532511287, 0.000000000000000, 0.382683432365090 ) );
#366 = CARTESIAN_POINT( '', ( 0.000000000000000, 0.000000000000000, 12.5000000000000 ) );
#367 = DIRECTION( '', ( 0.000000000000000, -0.000000000000000, 1.00000000000000 ) );
#368 = DIRECTION( '', ( 1.00000000000000, 0.000000000000000, 0.000000000000000 ) );
#369 = CARTESIAN_POINT( '', ( 0.000000000000000, 0.000000000000000, 0.000000000000000 ) );
#370 = DIRECTION( '', ( 0.000000000000000, -0.000000000000000, 1.00000000000000 ) );
#371 = DIRECTION( '', ( 1.00000000000000, 0.000000000000000, 0.000000000000000 ) );
#372 = CARTESIAN_POINT( '', ( 0.000000000000000, 0.000000000000000, -22.0000000000000 ) );
#373 = DIRECTION( '', ( 0.000000000000000, 0.000000000000000, 1.00000000000000 ) );
#374 = DIRECTION( '', ( 1.00000000000000, 0.000000000000000, 0.000000000000000 ) );
#375 = CARTESIAN_POINT( '', ( 0.000000000000000, 0.000000000000000, 12.5000000000000 ) );
#376 = DIRECTION( '', ( 0.000000000000000, 0.000000000000000, 1.00000000000000 ) );
#377 = DIRECTION( '', ( 1.00000000000000, 0.000000000000000, 0.000000000000000 ) );
#378 = CARTESIAN_POINT( '', ( 0.000000000000000, 0.000000000000000, 0.000000000000000 ) );
#379 = DIRECTION( '', ( 0.000000000000000, -0.000000000000000, 1.00000000000000 ) );
#380 = DIRECTION( '', ( 1.00000000000000, 0.000000000000000, 0.000000000000000 ) );
#381 = CARTESIAN_POINT( '', ( 0.000000000000000, 0.000000000000000, -22.0000000000000 ) );
#382 = DIRECTION( '', ( 0.000000000000000, 0.000000000000000, 1.00000000000000 ) );
#383 = DIRECTION( '', ( 1.00000000000000, 0.000000000000000, -0.000000000000000 ) );
#384 = CARTESIAN_POINT( '', ( 8.83883476483183, 0.000000000000000, 21.3388347648318 ) );
#385 = DIRECTION( '', ( 0.707106781186548, -0.000000000000000, 0.707106781186548 ) );
#386 = DIRECTION( '', ( 0.707106781186547, 0.000000000000000, -0.707106781186547 ) );
#387 = CARTESIAN_POINT( '', ( 8.83883476483183, 0.000000000000000, 21.3388347648318 ) );
#388 = DIRECTION( '', ( 0.707106781186548, -0.000000000000000, 0.707106781186548 ) );
#389 = DIRECTION( '', ( 0.707106781186547, 0.000000000000000, -0.707106781186547 ) );
#390 = CARTESIAN_POINT( '', ( 0.000000000000000, 0.000000000000000, 12.5000000000000 ) );
#391 = DIRECTION( '', ( 0.707106781186548, -0.000000000000000, 0.707106781186548 ) );
#392 = DIRECTION( '', ( 0.707106781186548, 0.000000000000000, -0.707106781186548 ) );
#393 = CARTESIAN_POINT( '', ( 24.3951839509359, 0.000000000000000, 36.8951839509359 ) );
#394 = DIRECTION( '', ( -0.707106781186548, 0.000000000000000, -0.707106781186548 ) );
#395 = DIRECTION( '', ( -0.707106781186547, 0.000000000000000, 0.707106781186548 ) );
ENDSEC;
END-ISO-10303-21;
