ISO-10303-21;
HEADER;
/* Generated by software containing ST-Developer
 * from STEP Tools, Inc. (www.steptools.com) 
 */

FILE_DESCRIPTION(
/* description */ (''),
/* implementation_level */ '2;1');

FILE_NAME(
/* name */ 
'Q:\\Ric010\\FF7\\FIPlastiCAD\\FIP\\Lavoro\\PVC Fittings\\PVC Fittings
 STEP\\TRIV\\TRIV025020.ipt.stp',
/* time_stamp */ '2013-10-01T14:56:20+02:00',
/* author */ ('bfaro'),
/* organization */ (''),
/* preprocessor_version */ 'ST-DEVELOPER v15.2',
/* originating_system */ 'Autodesk Inventor 2014',
/* authorisation */ '');

FILE_SCHEMA (('AUTOMOTIVE_DESIGN { 1 0 10303 214 3 1 1 }'));
ENDSEC;

DATA;
#10=SHAPE_REPRESENTATION_RELATIONSHIP('SRR','None',#419,#11);
#11=ADVANCED_BREP_SHAPE_REPRESENTATION($,(#181),#410);
#12=STYLED_ITEM($,(#427),#181);
#13=PLANE($,#202);
#14=PLANE($,#203);
#15=PLANE($,#204);
#16=PLANE($,#205);
#17=PLANE($,#206);
#18=PLANE($,#207);
#19=FACE_OUTER_BOUND($,#62,.T.);
#20=FACE_OUTER_BOUND($,#64,.T.);
#21=FACE_OUTER_BOUND($,#69,.T.);
#22=FACE_OUTER_BOUND($,#71,.T.);
#23=FACE_OUTER_BOUND($,#73,.T.);
#24=FACE_OUTER_BOUND($,#75,.T.);
#25=FACE_OUTER_BOUND($,#79,.T.);
#26=FACE_OUTER_BOUND($,#81,.T.);
#27=CIRCLE($,#184,12.);
#28=CIRCLE($,#185,12.);
#29=CIRCLE($,#187,9.5);
#30=CIRCLE($,#189,12.5);
#31=CIRCLE($,#190,12.5);
#32=CIRCLE($,#192,16.5);
#33=CIRCLE($,#193,16.5);
#34=CIRCLE($,#195,14.);
#35=CIRCLE($,#197,12.5);
#36=CIRCLE($,#198,12.5);
#37=CIRCLE($,#200,10.);
#38=CIRCLE($,#201,10.);
#39=FACE_BOUND($,#59,.T.);
#40=FACE_BOUND($,#60,.T.);
#41=FACE_BOUND($,#61,.T.);
#42=FACE_BOUND($,#63,.T.);
#43=FACE_BOUND($,#65,.T.);
#44=FACE_BOUND($,#66,.T.);
#45=FACE_BOUND($,#67,.T.);
#46=FACE_BOUND($,#68,.T.);
#47=FACE_BOUND($,#70,.T.);
#48=FACE_BOUND($,#72,.T.);
#49=FACE_BOUND($,#74,.T.);
#50=FACE_BOUND($,#76,.T.);
#51=FACE_BOUND($,#77,.T.);
#52=FACE_BOUND($,#78,.T.);
#53=FACE_BOUND($,#80,.T.);
#54=FACE_BOUND($,#82,.T.);
#55=FACE_BOUND($,#83,.T.);
#56=FACE_BOUND($,#84,.T.);
#57=FACE_BOUND($,#85,.T.);
#58=FACE_BOUND($,#86,.T.);
#59=EDGE_LOOP($,(#126));
#60=EDGE_LOOP($,(#127));
#61=EDGE_LOOP($,(#128));
#62=EDGE_LOOP($,(#129));
#63=EDGE_LOOP($,(#130));
#64=EDGE_LOOP($,(#131));
#65=EDGE_LOOP($,(#132));
#66=EDGE_LOOP($,(#133,#134,#135,#136));
#67=EDGE_LOOP($,(#137));
#68=EDGE_LOOP($,(#138));
#69=EDGE_LOOP($,(#139,#140,#141,#142));
#70=EDGE_LOOP($,(#143));
#71=EDGE_LOOP($,(#144));
#72=EDGE_LOOP($,(#145));
#73=EDGE_LOOP($,(#146));
#74=EDGE_LOOP($,(#147));
#75=EDGE_LOOP($,(#148));
#76=EDGE_LOOP($,(#149));
#77=EDGE_LOOP($,(#150));
#78=EDGE_LOOP($,(#151));
#79=EDGE_LOOP($,(#152));
#80=EDGE_LOOP($,(#153));
#81=EDGE_LOOP($,(#154));
#82=EDGE_LOOP($,(#155));
#83=EDGE_LOOP($,(#156));
#84=EDGE_LOOP($,(#157));
#85=EDGE_LOOP($,(#158));
#86=EDGE_LOOP($,(#159));
#87=B_SPLINE_CURVE_WITH_KNOTS($,3,(#263,#264,#265,#266,#267,#268,#269,#270,
#271,#272,#273,#274,#275,#276,#277,#278,#279,#280,#281,#282,#283,#284,#285,
#286,#287,#288,#289,#290,#291,#292,#293,#294,#295,#296,#297,#298,#299,#300,
#301,#302,#303,#304),.UNSPECIFIED.,.T.,.F.,(4,2,2,2,2,2,2,2,2,2,2,2,2,2,
2,2,2,2,2,2,4),(0.,0.194167696408082,0.388335392816164,0.776670785632328,
1.15369750429689,1.53072422296145,1.90775094162601,2.28477766029057,2.67311305310673,
2.86728074951482,3.0614484459229,3.25561614233748,3.44978383875207,3.83811923158125,
4.21514595024606,4.59217266891088,4.9691993875757,5.34622610624052,5.73456149906969,
5.92872919548428,6.12289689189887),.UNSPECIFIED.);
#88=B_SPLINE_CURVE_WITH_KNOTS($,3,(#320,#321,#322,#323,#324,#325,#326,#327,
#328,#329,#330,#331,#332,#333,#334,#335),.UNSPECIFIED.,.F.,.F.,(4,2,2,2,
2,2,2,4),(4.59539112026074,4.88936917928332,5.1833472383059,5.47732529732848,
5.77130335635106,6.33219501834962,6.6126408493489,6.89308668034817),
 .UNSPECIFIED.);
#89=B_SPLINE_CURVE_WITH_KNOTS($,3,(#337,#338,#339,#340,#341,#342,#343,#344,
#345,#346,#347,#348,#349,#350,#351,#352),.UNSPECIFIED.,.F.,.F.,(4,2,2,2,
2,2,2,4),(-4.59539112026074,-4.30141306123294,-4.00743500220514,-3.71345694317734,
-3.41947888414954,-2.85858722213995,-2.57814139113516,-2.29769556013037),
 .UNSPECIFIED.);
#90=B_SPLINE_CURVE_WITH_KNOTS($,3,(#354,#355,#356,#357,#358,#359,#360,#361,
#362,#363,#364,#365,#366,#367,#368,#369),.UNSPECIFIED.,.F.,.F.,(4,2,2,2,
2,2,2,4),(6.89308668030579,7.17353251131059,7.45397834231538,8.01487000432496,
8.30884806335276,8.60282612238056,8.89680418140836,9.19078224043617),
 .UNSPECIFIED.);
#91=B_SPLINE_CURVE_WITH_KNOTS($,3,(#370,#371,#372,#373,#374,#375,#376,#377,
#378,#379,#380,#381,#382,#383,#384,#385),.UNSPECIFIED.,.F.,.F.,(4,2,2,2,
2,2,2,4),(-2.29769556008771,-2.01724972909026,-1.73680389809281,-1.17591223609791,
-0.881934177073436,-0.587956118048959,-0.293978059024481,-4.44089209850063E-015),
 .UNSPECIFIED.);
#92=VERTEX_POINT($,#262);
#93=VERTEX_POINT($,#305);
#94=VERTEX_POINT($,#307);
#95=VERTEX_POINT($,#310);
#96=VERTEX_POINT($,#313);
#97=VERTEX_POINT($,#315);
#98=VERTEX_POINT($,#318);
#99=VERTEX_POINT($,#319);
#100=VERTEX_POINT($,#336);
#101=VERTEX_POINT($,#353);
#102=VERTEX_POINT($,#386);
#103=VERTEX_POINT($,#388);
#104=VERTEX_POINT($,#391);
#105=VERTEX_POINT($,#394);
#106=VERTEX_POINT($,#396);
#107=VERTEX_POINT($,#399);
#108=VERTEX_POINT($,#401);
#109=EDGE_CURVE($,#92,#92,#87,.T.);
#110=EDGE_CURVE($,#93,#93,#27,.T.);
#111=EDGE_CURVE($,#94,#94,#28,.T.);
#112=EDGE_CURVE($,#95,#95,#29,.T.);
#113=EDGE_CURVE($,#96,#96,#30,.T.);
#114=EDGE_CURVE($,#97,#97,#31,.T.);
#115=EDGE_CURVE($,#98,#99,#88,.T.);
#116=EDGE_CURVE($,#98,#100,#89,.T.);
#117=EDGE_CURVE($,#100,#101,#90,.T.);
#118=EDGE_CURVE($,#99,#101,#91,.T.);
#119=EDGE_CURVE($,#102,#102,#32,.T.);
#120=EDGE_CURVE($,#103,#103,#33,.T.);
#121=EDGE_CURVE($,#104,#104,#34,.T.);
#122=EDGE_CURVE($,#105,#105,#35,.T.);
#123=EDGE_CURVE($,#106,#106,#36,.T.);
#124=EDGE_CURVE($,#107,#107,#37,.T.);
#125=EDGE_CURVE($,#108,#108,#38,.T.);
#126=ORIENTED_EDGE($,*,*,#109,.F.);
#127=ORIENTED_EDGE($,*,*,#110,.F.);
#128=ORIENTED_EDGE($,*,*,#111,.F.);
#129=ORIENTED_EDGE($,*,*,#109,.T.);
#130=ORIENTED_EDGE($,*,*,#112,.F.);
#131=ORIENTED_EDGE($,*,*,#113,.T.);
#132=ORIENTED_EDGE($,*,*,#114,.F.);
#133=ORIENTED_EDGE($,*,*,#115,.F.);
#134=ORIENTED_EDGE($,*,*,#116,.T.);
#135=ORIENTED_EDGE($,*,*,#117,.T.);
#136=ORIENTED_EDGE($,*,*,#118,.F.);
#137=ORIENTED_EDGE($,*,*,#119,.T.);
#138=ORIENTED_EDGE($,*,*,#120,.F.);
#139=ORIENTED_EDGE($,*,*,#116,.F.);
#140=ORIENTED_EDGE($,*,*,#115,.T.);
#141=ORIENTED_EDGE($,*,*,#118,.T.);
#142=ORIENTED_EDGE($,*,*,#117,.F.);
#143=ORIENTED_EDGE($,*,*,#121,.F.);
#144=ORIENTED_EDGE($,*,*,#122,.T.);
#145=ORIENTED_EDGE($,*,*,#123,.F.);
#146=ORIENTED_EDGE($,*,*,#124,.T.);
#147=ORIENTED_EDGE($,*,*,#125,.F.);
#148=ORIENTED_EDGE($,*,*,#119,.F.);
#149=ORIENTED_EDGE($,*,*,#114,.T.);
#150=ORIENTED_EDGE($,*,*,#110,.T.);
#151=ORIENTED_EDGE($,*,*,#113,.F.);
#152=ORIENTED_EDGE($,*,*,#120,.T.);
#153=ORIENTED_EDGE($,*,*,#122,.F.);
#154=ORIENTED_EDGE($,*,*,#121,.T.);
#155=ORIENTED_EDGE($,*,*,#124,.F.);
#156=ORIENTED_EDGE($,*,*,#111,.T.);
#157=ORIENTED_EDGE($,*,*,#123,.T.);
#158=ORIENTED_EDGE($,*,*,#112,.T.);
#159=ORIENTED_EDGE($,*,*,#125,.T.);
#160=CYLINDRICAL_SURFACE($,#183,12.);
#161=CYLINDRICAL_SURFACE($,#186,9.5);
#162=CYLINDRICAL_SURFACE($,#188,12.5);
#163=CYLINDRICAL_SURFACE($,#191,16.5);
#164=CYLINDRICAL_SURFACE($,#194,14.);
#165=CYLINDRICAL_SURFACE($,#196,12.5);
#166=CYLINDRICAL_SURFACE($,#199,10.);
#167=ADVANCED_FACE($,(#39,#40,#41),#160,.F.);
#168=ADVANCED_FACE($,(#19,#42),#161,.F.);
#169=ADVANCED_FACE($,(#20,#43),#162,.F.);
#170=ADVANCED_FACE($,(#44,#45,#46),#163,.T.);
#171=ADVANCED_FACE($,(#21,#47),#164,.T.);
#172=ADVANCED_FACE($,(#22,#48),#165,.F.);
#173=ADVANCED_FACE($,(#23,#49),#166,.F.);
#174=ADVANCED_FACE($,(#24,#50),#13,.T.);
#175=ADVANCED_FACE($,(#51,#52),#14,.T.);
#176=ADVANCED_FACE($,(#25,#53),#15,.T.);
#177=ADVANCED_FACE($,(#26,#54),#16,.T.);
#178=ADVANCED_FACE($,(#55,#56),#17,.T.);
#179=ADVANCED_FACE($,(#57,#58),#18,.T.);
#180=CLOSED_SHELL($,(#167,#168,#169,#170,#171,#172,#173,#174,#175,#176,
#177,#178,#179));
#181=MANIFOLD_SOLID_BREP('Solido1',#180);
#182=AXIS2_PLACEMENT_3D('placement',#260,#208,#209);
#183=AXIS2_PLACEMENT_3D($,#261,#210,#211);
#184=AXIS2_PLACEMENT_3D($,#306,#212,#213);
#185=AXIS2_PLACEMENT_3D($,#308,#214,#215);
#186=AXIS2_PLACEMENT_3D($,#309,#216,#217);
#187=AXIS2_PLACEMENT_3D($,#311,#218,#219);
#188=AXIS2_PLACEMENT_3D($,#312,#220,#221);
#189=AXIS2_PLACEMENT_3D($,#314,#222,#223);
#190=AXIS2_PLACEMENT_3D($,#316,#224,#225);
#191=AXIS2_PLACEMENT_3D($,#317,#226,#227);
#192=AXIS2_PLACEMENT_3D($,#387,#228,#229);
#193=AXIS2_PLACEMENT_3D($,#389,#230,#231);
#194=AXIS2_PLACEMENT_3D($,#390,#232,#233);
#195=AXIS2_PLACEMENT_3D($,#392,#234,#235);
#196=AXIS2_PLACEMENT_3D($,#393,#236,#237);
#197=AXIS2_PLACEMENT_3D($,#395,#238,#239);
#198=AXIS2_PLACEMENT_3D($,#397,#240,#241);
#199=AXIS2_PLACEMENT_3D($,#398,#242,#243);
#200=AXIS2_PLACEMENT_3D($,#400,#244,#245);
#201=AXIS2_PLACEMENT_3D($,#402,#246,#247);
#202=AXIS2_PLACEMENT_3D($,#403,#248,#249);
#203=AXIS2_PLACEMENT_3D($,#404,#250,#251);
#204=AXIS2_PLACEMENT_3D($,#405,#252,#253);
#205=AXIS2_PLACEMENT_3D($,#406,#254,#255);
#206=AXIS2_PLACEMENT_3D($,#407,#256,#257);
#207=AXIS2_PLACEMENT_3D($,#408,#258,#259);
#208=DIRECTION('axis',(0.,0.,1.));
#209=DIRECTION('refdir',(1.,0.,0.));
#210=DIRECTION('center_axis',(0.,0.,-1.));
#211=DIRECTION('ref_axis',(-1.,0.,0.));
#212=DIRECTION('center_axis',(0.,0.,1.));
#213=DIRECTION('ref_axis',(-1.,0.,0.));
#214=DIRECTION('center_axis',(0.,0.,-1.));
#215=DIRECTION('ref_axis',(-1.,0.,0.));
#216=DIRECTION('center_axis',(-1.,0.,-4.4896573221159E-011));
#217=DIRECTION('ref_axis',(-4.4896573221159E-011,0.,1.));
#218=DIRECTION('center_axis',(-1.,0.,-4.489664E-011));
#219=DIRECTION('ref_axis',(-4.4896573221159E-011,0.,1.));
#220=DIRECTION('center_axis',(0.,0.,1.));
#221=DIRECTION('ref_axis',(1.,0.,0.));
#222=DIRECTION('center_axis',(0.,0.,1.));
#223=DIRECTION('ref_axis',(1.,0.,0.));
#224=DIRECTION('center_axis',(0.,0.,1.));
#225=DIRECTION('ref_axis',(1.,0.,0.));
#226=DIRECTION('center_axis',(0.,0.,1.));
#227=DIRECTION('ref_axis',(1.,0.,0.));
#228=DIRECTION('center_axis',(0.,0.,1.));
#229=DIRECTION('ref_axis',(1.,0.,0.));
#230=DIRECTION('center_axis',(0.,0.,1.));
#231=DIRECTION('ref_axis',(1.,0.,0.));
#232=DIRECTION('center_axis',(1.,0.,4.489664E-011));
#233=DIRECTION('ref_axis',(4.489664E-011,0.,-1.));
#234=DIRECTION('center_axis',(1.,0.,4.489664E-011));
#235=DIRECTION('ref_axis',(4.489664E-011,0.,-1.));
#236=DIRECTION('center_axis',(0.,0.,1.));
#237=DIRECTION('ref_axis',(1.,0.,0.));
#238=DIRECTION('center_axis',(0.,0.,1.));
#239=DIRECTION('ref_axis',(1.,0.,0.));
#240=DIRECTION('center_axis',(0.,0.,1.));
#241=DIRECTION('ref_axis',(1.,0.,0.));
#242=DIRECTION('center_axis',(1.,1.40107502438246E-014,4.48976209745731E-011));
#243=DIRECTION('ref_axis',(4.48974191158413E-011,0.,-1.));
#244=DIRECTION('center_axis',(1.,0.,4.489664E-011));
#245=DIRECTION('ref_axis',(4.489664E-011,0.,-1.));
#246=DIRECTION('center_axis',(1.,0.,4.489664E-011));
#247=DIRECTION('ref_axis',(4.489664E-011,0.,-1.));
#248=DIRECTION('center_axis',(0.,0.,-1.));
#249=DIRECTION('ref_axis',(-1.,0.,0.));
#250=DIRECTION('center_axis',(0.,0.,-1.));
#251=DIRECTION('ref_axis',(-1.,0.,0.));
#252=DIRECTION('center_axis',(0.,0.,1.));
#253=DIRECTION('ref_axis',(1.,0.,0.));
#254=DIRECTION('center_axis',(1.,0.,4.489664E-011));
#255=DIRECTION('ref_axis',(4.48967085731056E-011,0.,-1.));
#256=DIRECTION('center_axis',(0.,0.,1.));
#257=DIRECTION('ref_axis',(1.,0.,0.));
#258=DIRECTION('center_axis',(1.,0.,4.489664E-011));
#259=DIRECTION('ref_axis',(4.48967085731056E-011,0.,-1.));
#260=CARTESIAN_POINT('',(0.,0.,0.));
#261=CARTESIAN_POINT('Origin',(0.,0.,47.));
#262=CARTESIAN_POINT('',(7.3314391493076,9.5,33.0000000003296));
#263=CARTESIAN_POINT('Ctrl Pts',(7.3314391493076,9.5,33.0000000003296));
#264=CARTESIAN_POINT('Ctrl Pts',(7.3314391493076,9.5,32.352774345636));
#265=CARTESIAN_POINT('Ctrl Pts',(7.41966659192174,9.43344266331367,31.7094068224497));
#266=CARTESIAN_POINT('Ctrl Pts',(7.73480949746663,9.17681941050349,30.4619974116557));
#267=CARTESIAN_POINT('Ctrl Pts',(7.96010335462453,8.98685286970659,29.8575259669435));
#268=CARTESIAN_POINT('Ctrl Pts',(8.7383255198477,8.25522462967894,28.1362615215625));
#269=CARTESIAN_POINT('Ctrl Pts',(9.38563108796406,7.54343361826265,27.1084047761468));
#270=CARTESIAN_POINT('Ctrl Pts',(10.4853024242986,5.91564673044912,25.4806178883694));
#271=CARTESIAN_POINT('Ctrl Pts',(11.0281892406225,4.88655247819811,24.7554580472007));
#272=CARTESIAN_POINT('Ctrl Pts',(11.7878734726789,2.55839764001681,23.7639035862677));
#273=CARTESIAN_POINT('Ctrl Pts',(12.,1.25675572888187,23.5000000005392));
#274=CARTESIAN_POINT('Ctrl Pts',(12.,-1.25675572888187,23.5000000005392));
#275=CARTESIAN_POINT('Ctrl Pts',(11.7878734726789,-2.55839764001681,23.7639035862677));
#276=CARTESIAN_POINT('Ctrl Pts',(11.0281892406225,-4.88655247819811,24.7554580472007));
#277=CARTESIAN_POINT('Ctrl Pts',(10.4853024242986,-5.91564673044912,25.4806178883694));
#278=CARTESIAN_POINT('Ctrl Pts',(9.38563108796406,-7.54343361826265,27.1084047761468));
#279=CARTESIAN_POINT('Ctrl Pts',(8.7383255198477,-8.25522462967894,28.1362615215625));
#280=CARTESIAN_POINT('Ctrl Pts',(7.96010335462452,-8.98685286970659,29.8575259669435));
#281=CARTESIAN_POINT('Ctrl Pts',(7.73480949746663,-9.17681941050349,30.4619974116557));
#282=CARTESIAN_POINT('Ctrl Pts',(7.41966659192174,-9.43344266331367,31.7094068224497));
#283=CARTESIAN_POINT('Ctrl Pts',(7.3314391493076,-9.5,32.352774345636));
#284=CARTESIAN_POINT('Ctrl Pts',(7.3314391493076,-9.5,33.6472256550449));
#285=CARTESIAN_POINT('Ctrl Pts',(7.41966659192714,-9.43344266330956,34.2905931782515));
#286=CARTESIAN_POINT('Ctrl Pts',(7.73480949748216,-9.17681941049055,35.5380025890886));
#287=CARTESIAN_POINT('Ctrl Pts',(7.96010335464483,-8.98685286968884,36.1424740338235));
#288=CARTESIAN_POINT('Ctrl Pts',(8.73832551987884,-8.25522462964699,37.863738479279));
#289=CARTESIAN_POINT('Ctrl Pts',(9.38563108799792,-7.54343361822236,38.8915952247506));
#290=CARTESIAN_POINT('Ctrl Pts',(10.4853024243211,-5.91564673040638,40.5193821126027));
#291=CARTESIAN_POINT('Ctrl Pts',(11.0281892406335,-4.88655247817013,41.2445419538051));
#292=CARTESIAN_POINT('Ctrl Pts',(11.7878734726789,-2.55839764001085,42.2360964147915));
#293=CARTESIAN_POINT('Ctrl Pts',(12.,-1.25675572888273,42.5000000005392));
#294=CARTESIAN_POINT('Ctrl Pts',(12.,1.25675572888272,42.5000000005392));
#295=CARTESIAN_POINT('Ctrl Pts',(11.7878734726789,2.55839764001083,42.2360964147916));
#296=CARTESIAN_POINT('Ctrl Pts',(11.0281892406335,4.88655247817011,41.2445419538051));
#297=CARTESIAN_POINT('Ctrl Pts',(10.4853024243211,5.91564673040637,40.5193821126027));
#298=CARTESIAN_POINT('Ctrl Pts',(9.38563108799793,7.54343361822235,38.8915952247506));
#299=CARTESIAN_POINT('Ctrl Pts',(8.73832551987885,8.25522462964698,37.863738479279));
#300=CARTESIAN_POINT('Ctrl Pts',(7.96010335464483,8.98685286968883,36.1424740338235));
#301=CARTESIAN_POINT('Ctrl Pts',(7.73480949748217,9.17681941049054,35.5380025890886));
#302=CARTESIAN_POINT('Ctrl Pts',(7.41966659192714,9.43344266330956,34.2905931782515));
#303=CARTESIAN_POINT('Ctrl Pts',(7.3314391493076,9.5,33.6472256550449));
#304=CARTESIAN_POINT('Ctrl Pts',(7.3314391493076,9.5,33.0000000003296));
#305=CARTESIAN_POINT('',(12.,1.46957615897682E-015,19.));
#306=CARTESIAN_POINT('Origin',(0.,0.,19.));
#307=CARTESIAN_POINT('',(12.,1.46957615897682E-015,47.));
#308=CARTESIAN_POINT('Origin',(0.,0.,47.));
#309=CARTESIAN_POINT('Origin',(14.,0.,33.000000000629));
#310=CARTESIAN_POINT('',(14.0000000004265,1.16341445918999E-015,23.500000000629));
#311=CARTESIAN_POINT('Origin',(14.,0.,33.000000000629));
#312=CARTESIAN_POINT('Origin',(2.22044604925031E-015,0.,9.5));
#313=CARTESIAN_POINT('',(-12.5,-1.530758E-015,19.));
#314=CARTESIAN_POINT('Origin',(0.,0.,19.));
#315=CARTESIAN_POINT('',(-12.5,-1.530758E-015,0.));
#316=CARTESIAN_POINT('Origin',(0.,0.,0.));
#317=CARTESIAN_POINT('Origin',(0.,0.,0.));
#318=CARTESIAN_POINT('',(8.732124598286,-14.,33.000000000392));
#319=CARTESIAN_POINT('',(16.5,-3.735049E-015,19.000000000741));
#320=CARTESIAN_POINT('Ctrl Pts',(8.73212459828649,-14.,33.000000000392));
#321=CARTESIAN_POINT('Ctrl Pts',(8.7321245982865,-14.,32.0200731369834));
#322=CARTESIAN_POINT('Ctrl Pts',(8.9009562205306,-13.8974909670391,31.0669234552527));
#323=CARTESIAN_POINT('Ctrl Pts',(9.46992660055301,-13.5162038655444,29.2331348242924));
#324=CARTESIAN_POINT('Ctrl Pts',(9.8667983150909,-13.2371933099273,28.3515321367263));
#325=CARTESIAN_POINT('Ctrl Pts',(10.7595423700912,-12.5223499689979,26.6736817587116));
#326=CARTESIAN_POINT('Ctrl Pts',(11.2552132560584,-12.0858667133872,25.8773243822151));
#327=CARTESIAN_POINT('Ctrl Pts',(12.2460293280056,-11.0807384976699,24.3966334277794));
#328=CARTESIAN_POINT('Ctrl Pts',(12.7412907521086,-10.5116611060697,23.7126712334184));
#329=CARTESIAN_POINT('Ctrl Pts',(14.0762898936156,-8.73152035596375,21.9325304833724));
#330=CARTESIAN_POINT('Ctrl Pts',(14.9450133770817,-7.22530788555196,20.8643778372279));
#331=CARTESIAN_POINT('Ctrl Pts',(15.8562691831365,-4.65358560910353,19.7631669864922));
#332=CARTESIAN_POINT('Ctrl Pts',(16.0971106159932,-3.74476155902712,19.476780130533));
#333=CARTESIAN_POINT('Ctrl Pts',(16.4190571578313,-1.88541013502418,19.0951108093182));
#334=CARTESIAN_POINT('Ctrl Pts',(16.5,-0.934819436664262,19.0000000007408));
#335=CARTESIAN_POINT('Ctrl Pts',(16.5,0.,19.0000000007408));
#336=CARTESIAN_POINT('',(16.5,-4.041201E-015,47.000000000741));
#337=CARTESIAN_POINT('Ctrl Pts',(8.73212459828649,-14.,33.000000000392));
#338=CARTESIAN_POINT('Ctrl Pts',(8.73212459828649,-14.,33.9799268638181));
#339=CARTESIAN_POINT('Ctrl Pts',(8.90095622053525,-13.8974909670362,34.9330765455664));
#340=CARTESIAN_POINT('Ctrl Pts',(9.46992660055872,-13.5162038655404,36.7668651765715));
#341=CARTESIAN_POINT('Ctrl Pts',(9.86679831509366,-13.237193309925,37.6484678641644));
#342=CARTESIAN_POINT('Ctrl Pts',(10.7595423700843,-12.5223499690035,39.3263182422421));
#343=CARTESIAN_POINT('Ctrl Pts',(11.2552132560449,-12.0858667133992,40.1226756187739));
#344=CARTESIAN_POINT('Ctrl Pts',(12.2460293279801,-11.0807384976974,41.6033665732837));
#345=CARTESIAN_POINT('Ctrl Pts',(12.7412907520779,-10.5116611061063,42.2873287676835));
#346=CARTESIAN_POINT('Ctrl Pts',(14.0762898935778,-8.73152035602241,44.0674695178435));
#347=CARTESIAN_POINT('Ctrl Pts',(14.94501337705,-7.22530788561955,45.1356221640753));
#348=CARTESIAN_POINT('Ctrl Pts',(15.8562691831193,-4.6535856091632,46.2368330149109));
#349=CARTESIAN_POINT('Ctrl Pts',(16.0971106159814,-3.74476155908054,46.5232198708984));
#350=CARTESIAN_POINT('Ctrl Pts',(16.4190571578281,-1.88541013505696,46.9048891921525));
#351=CARTESIAN_POINT('Ctrl Pts',(16.5,-0.934819436682638,47.0000000007408));
#352=CARTESIAN_POINT('Ctrl Pts',(16.5,-1.59594559789866E-015,47.0000000007408));
#353=CARTESIAN_POINT('',(8.732124598287,14.,33.000000000392));
#354=CARTESIAN_POINT('Ctrl Pts',(16.5,1.52655665885959E-015,47.0000000007408));
#355=CARTESIAN_POINT('Ctrl Pts',(16.5,0.93481943668264,47.0000000007408));
#356=CARTESIAN_POINT('Ctrl Pts',(16.4190571578281,1.88541013505696,46.9048891921525));
#357=CARTESIAN_POINT('Ctrl Pts',(16.0971106159814,3.74476155908054,46.5232198708984));
#358=CARTESIAN_POINT('Ctrl Pts',(15.8562691831193,4.65358560916319,46.2368330149109));
#359=CARTESIAN_POINT('Ctrl Pts',(14.94501337705,7.22530788561955,45.1356221640753));
#360=CARTESIAN_POINT('Ctrl Pts',(14.0762898935778,8.73152035602241,44.0674695178435));
#361=CARTESIAN_POINT('Ctrl Pts',(12.7412907520779,10.5116611061063,42.2873287676835));
#362=CARTESIAN_POINT('Ctrl Pts',(12.2460293279801,11.0807384976974,41.6033665732837));
#363=CARTESIAN_POINT('Ctrl Pts',(11.2552132560449,12.0858667133992,40.122675618774));
#364=CARTESIAN_POINT('Ctrl Pts',(10.7595423700844,12.5223499690035,39.3263182422421));
#365=CARTESIAN_POINT('Ctrl Pts',(9.86679831509366,13.237193309925,37.6484678641644));
#366=CARTESIAN_POINT('Ctrl Pts',(9.46992660055873,13.5162038655404,36.7668651765715));
#367=CARTESIAN_POINT('Ctrl Pts',(8.90095622053525,13.8974909670362,34.9330765455664));
#368=CARTESIAN_POINT('Ctrl Pts',(8.73212459828649,14.,33.9799268638181));
#369=CARTESIAN_POINT('Ctrl Pts',(8.73212459828649,14.,33.000000000392));
#370=CARTESIAN_POINT('Ctrl Pts',(16.5,-3.2612801348364E-015,19.0000000007408));
#371=CARTESIAN_POINT('Ctrl Pts',(16.5,0.934819436658165,19.0000000007408));
#372=CARTESIAN_POINT('Ctrl Pts',(16.4190571578323,1.88541013501231,19.0951108093169));
#373=CARTESIAN_POINT('Ctrl Pts',(16.0971106159981,3.74476155900485,19.4767801305272));
#374=CARTESIAN_POINT('Ctrl Pts',(15.8562691831442,4.65358560907663,19.7631669864831));
#375=CARTESIAN_POINT('Ctrl Pts',(14.9450133770992,7.22530788551341,20.8643778372065));
#376=CARTESIAN_POINT('Ctrl Pts',(14.0762898936418,8.73152035592045,21.9325304833397));
#377=CARTESIAN_POINT('Ctrl Pts',(12.7412907521403,10.5116611060318,23.7126712333749));
#378=CARTESIAN_POINT('Ctrl Pts',(12.2460293280345,11.0807384976383,24.3966334277382));
#379=CARTESIAN_POINT('Ctrl Pts',(11.255213256081,12.0858667133666,25.8773243821793));
#380=CARTESIAN_POINT('Ctrl Pts',(10.7595423701101,12.5223499689819,26.6736817586792));
#381=CARTESIAN_POINT('Ctrl Pts',(9.86679831510252,13.2371933099189,28.3515321367013));
#382=CARTESIAN_POINT('Ctrl Pts',(9.46992660056096,13.5162038655389,29.2331348242715));
#383=CARTESIAN_POINT('Ctrl Pts',(8.90095622053272,13.8974909670378,31.0669234552412));
#384=CARTESIAN_POINT('Ctrl Pts',(8.73212459828649,14.,32.0200731369771));
#385=CARTESIAN_POINT('Ctrl Pts',(8.73212459828649,14.,33.000000000392));
#386=CARTESIAN_POINT('',(16.5,-4.041201E-015,0.));
#387=CARTESIAN_POINT('Origin',(0.,0.,0.));
#388=CARTESIAN_POINT('',(-16.5,-2.0206E-015,66.));
#389=CARTESIAN_POINT('Origin',(0.,0.,66.));
#390=CARTESIAN_POINT('Origin',(0.,0.,33.));
#391=CARTESIAN_POINT('',(29.9999999993715,-1.714449E-015,47.0000000013469));
#392=CARTESIAN_POINT('Origin',(30.,0.,33.000000001347));
#393=CARTESIAN_POINT('Origin',(2.22044604925031E-015,0.,56.5));
#394=CARTESIAN_POINT('',(-12.5,-1.530758E-015,66.));
#395=CARTESIAN_POINT('Origin',(0.,0.,66.));
#396=CARTESIAN_POINT('',(-12.5,-1.530758E-015,47.));
#397=CARTESIAN_POINT('Origin',(0.,0.,47.));
#398=CARTESIAN_POINT('Origin',(22.,0.,33.0000000009882));
#399=CARTESIAN_POINT('',(29.999999999551,-1.224606E-015,43.0000000013474));
#400=CARTESIAN_POINT('Origin',(30.,0.,33.000000001347));
#401=CARTESIAN_POINT('',(13.999999999551,-1.224606E-015,43.000000000629));
#402=CARTESIAN_POINT('Origin',(14.,0.,33.000000000629));
#403=CARTESIAN_POINT('Origin',(0.,0.,0.));
#404=CARTESIAN_POINT('Origin',(0.,0.,19.));
#405=CARTESIAN_POINT('Origin',(0.,0.,66.));
#406=CARTESIAN_POINT('Origin',(30.,0.,33.000000001347));
#407=CARTESIAN_POINT('Origin',(0.,0.,47.));
#408=CARTESIAN_POINT('Origin',(14.,0.,33.000000000629));
#409=UNCERTAINTY_MEASURE_WITH_UNIT(LENGTH_MEASURE(0.01),#411,
'DISTANCE_ACCURACY_VALUE',
'Maximum model space distance between geometric entities at asserted c
onnectivities');
#410=(
GEOMETRIC_REPRESENTATION_CONTEXT(3)
GLOBAL_UNCERTAINTY_ASSIGNED_CONTEXT((#409))
GLOBAL_UNIT_ASSIGNED_CONTEXT((#411,#414,#412))
REPRESENTATION_CONTEXT('','3D')
);
#411=(
LENGTH_UNIT()
NAMED_UNIT(*)
SI_UNIT(.MILLI.,.METRE.)
);
#412=(
NAMED_UNIT(*)
SI_UNIT($,.STERADIAN.)
SOLID_ANGLE_UNIT()
);
#413=DIMENSIONAL_EXPONENTS(0.,0.,0.,0.,0.,0.,0.);
#414=(
CONVERSION_BASED_UNIT('degree',#416)
NAMED_UNIT(#413)
PLANE_ANGLE_UNIT()
);
#415=(
NAMED_UNIT(*)
PLANE_ANGLE_UNIT()
SI_UNIT($,.RADIAN.)
);
#416=PLANE_ANGLE_MEASURE_WITH_UNIT(PLANE_ANGLE_MEASURE(0.01745329252),#415);
#417=SHAPE_DEFINITION_REPRESENTATION(#418,#419);
#418=PRODUCT_DEFINITION_SHAPE('',$,#421);
#419=SHAPE_REPRESENTATION('',(#182),#410);
#420=PRODUCT_DEFINITION_CONTEXT('3D Mechanical Parts',#424,'design');
#421=PRODUCT_DEFINITION('TRIV025020','TRIV025020',#422,#420);
#422=PRODUCT_DEFINITION_FORMATION('',$,#426);
#423=APPLICATION_PROTOCOL_DEFINITION('international standard',
'automotive_design',2009,#424);
#424=APPLICATION_CONTEXT(
'Core Data for Automotive Mechanical Design Process');
#425=PRODUCT_CONTEXT('3D Mechanical Parts',#424,'mechanical');
#426=PRODUCT('TRIV025020','TRIV025020',$,(#425));
#427=PRESENTATION_STYLE_ASSIGNMENT((#428));
#428=SURFACE_STYLE_USAGE(.BOTH.,#429);
#429=SURFACE_SIDE_STYLE($,(#430));
#430=SURFACE_STYLE_FILL_AREA(#431);
#431=FILL_AREA_STYLE($,(#432));
#432=FILL_AREA_STYLE_COLOUR($,#433);
#433=COLOUR_RGB('',0.509803921568627,0.509803921568627,0.588235294117647);
ENDSEC;
END-ISO-10303-21;
