ISO-10303-21;
HEADER;
/* Generated by software containing ST-Developer
 * from STEP Tools, Inc. (www.steptools.com) 
 */

FILE_DESCRIPTION(
/* description */ (''),
/* implementation_level */ '2;1');

FILE_NAME(
/* name */ 
'Q:\\Ric010\\FF7\\FIPlastiCAD\\FIP\\Lavoro\\PVC Fittings\\PVC Fittings
 STEP\\TRIV\\TRIV050032.ipt.stp',
/* time_stamp */ '2013-10-01T14:56:28+02:00',
/* author */ ('bfaro'),
/* organization */ (''),
/* preprocessor_version */ 'ST-DEVELOPER v15.2',
/* originating_system */ 'Autodesk Inventor 2014',
/* authorisation */ '');

FILE_SCHEMA (('AUTOMOTIVE_DESIGN { 1 0 10303 214 3 1 1 }'));
ENDSEC;

DATA;
#10=SHAPE_REPRESENTATION_RELATIONSHIP('SRR','None',#435,#11);
#11=ADVANCED_BREP_SHAPE_REPRESENTATION($,(#181),#426);
#12=STYLED_ITEM($,(#443),#181);
#13=PLANE($,#202);
#14=PLANE($,#203);
#15=PLANE($,#204);
#16=PLANE($,#205);
#17=PLANE($,#206);
#18=PLANE($,#207);
#19=FACE_BOUND($,#53,.T.);
#20=FACE_BOUND($,#55,.T.);
#21=FACE_BOUND($,#56,.T.);
#22=FACE_BOUND($,#58,.T.);
#23=FACE_BOUND($,#59,.T.);
#24=FACE_BOUND($,#61,.T.);
#25=FACE_BOUND($,#63,.T.);
#26=FACE_BOUND($,#65,.T.);
#27=FACE_BOUND($,#67,.T.);
#28=FACE_BOUND($,#69,.T.);
#29=FACE_BOUND($,#70,.T.);
#30=FACE_BOUND($,#71,.T.);
#31=FACE_BOUND($,#73,.T.);
#32=FACE_BOUND($,#75,.T.);
#33=FACE_BOUND($,#76,.T.);
#34=FACE_BOUND($,#77,.T.);
#35=FACE_BOUND($,#78,.T.);
#36=FACE_BOUND($,#79,.T.);
#37=B_SPLINE_CURVE_WITH_KNOTS($,3,(#265,#266,#267,#268,#269,#270,#271,#272,
#273,#274,#275,#276,#277,#278,#279,#280,#281,#282,#283,#284,#285,#286,#287,
#288,#289,#290,#291,#292,#293,#294,#295,#296,#297,#298,#299,#300,#301,#302,
#303,#304,#305,#306,#307,#308,#309,#310,#311,#312,#313,#314),
 .UNSPECIFIED.,.T.,.F.,(4,2,2,2,2,2,2,2,2,2,2,2,2,2,2,2,2,2,2,2,2,2,2,2,
4),(0.,0.30451252931492,0.60902505862984,1.21805011725968,1.82139115071312,
2.12306166743984,2.42473218416656,2.72640270089329,3.02807321762001,3.63141425107345,
4.24043930970329,4.54495183901821,4.84946436833313,5.15397689764031,5.45848942694748,
6.06751448556184,6.67085551901448,6.9725260357408,7.27419655246712,7.57586706919344,
7.87753758591976,8.4808786193724,9.08990367798675,9.39441620729393,9.69892873660111),
 .UNSPECIFIED.);
#38=B_SPLINE_CURVE_WITH_KNOTS($,3,(#327,#328,#329,#330,#331,#332,#333,#334,
#335,#336,#337,#338,#339,#340,#341,#342,#343,#344),.UNSPECIFIED.,.F.,.F.,
(4,2,2,2,2,2,2,2,4),(6.61592833070799,7.03214027642214,7.44835222213628,
7.86456416785043,8.28077611356458,8.691555209177,9.10233430478942,9.51311340040185,
9.92389249601428),.UNSPECIFIED.);
#39=B_SPLINE_CURVE_WITH_KNOTS($,3,(#346,#347,#348,#349,#350,#351,#352,#353,
#354,#355,#356,#357,#358,#359,#360,#361,#362,#363),.UNSPECIFIED.,.F.,.F.,
(4,2,2,2,2,2,2,2,4),(-6.61592833070799,-6.1997163849882,-5.78350443926842,
-5.36729249354863,-4.95108054782884,-4.54030145221012,-4.12952235659139,
-3.71874326097267,-3.30796416535395),.UNSPECIFIED.);
#40=B_SPLINE_CURVE_WITH_KNOTS($,3,(#365,#366,#367,#368,#369,#370,#371,#372,
#373,#374,#375,#376,#377,#378,#379,#380,#381,#382),.UNSPECIFIED.,.F.,.F.,
(4,2,2,2,2,2,2,2,4),(9.92389249596653,10.3346715915853,10.745450687204,
11.1562297828227,11.5670088784414,11.9832208241612,12.399432769881,12.8156447156008,
13.2318566613206),.UNSPECIFIED.);
#41=B_SPLINE_CURVE_WITH_KNOTS($,3,(#383,#384,#385,#386,#387,#388,#389,#390,
#391,#392,#393,#394,#395,#396,#397,#398,#399,#400),.UNSPECIFIED.,.F.,.F.,
(4,2,2,2,2,2,2,2,4),(-3.30796416530629,-2.89718506969387,-2.48640597408144,
-2.07562687846902,-1.66484778285659,-1.24863583714245,-0.832423891428301,
-0.416211945714154,-7.99360577730113E-015),.UNSPECIFIED.);
#42=FACE_OUTER_BOUND($,#52,.T.);
#43=FACE_OUTER_BOUND($,#54,.T.);
#44=FACE_OUTER_BOUND($,#57,.T.);
#45=FACE_OUTER_BOUND($,#60,.T.);
#46=FACE_OUTER_BOUND($,#62,.T.);
#47=FACE_OUTER_BOUND($,#64,.T.);
#48=FACE_OUTER_BOUND($,#66,.T.);
#49=FACE_OUTER_BOUND($,#68,.T.);
#50=FACE_OUTER_BOUND($,#72,.T.);
#51=FACE_OUTER_BOUND($,#74,.T.);
#52=EDGE_LOOP($,(#126));
#53=EDGE_LOOP($,(#127));
#54=EDGE_LOOP($,(#128));
#55=EDGE_LOOP($,(#129));
#56=EDGE_LOOP($,(#130));
#57=EDGE_LOOP($,(#131));
#58=EDGE_LOOP($,(#132));
#59=EDGE_LOOP($,(#133,#134,#135,#136));
#60=EDGE_LOOP($,(#137));
#61=EDGE_LOOP($,(#138));
#62=EDGE_LOOP($,(#139,#140,#141,#142));
#63=EDGE_LOOP($,(#143));
#64=EDGE_LOOP($,(#144));
#65=EDGE_LOOP($,(#145));
#66=EDGE_LOOP($,(#146));
#67=EDGE_LOOP($,(#147));
#68=EDGE_LOOP($,(#148));
#69=EDGE_LOOP($,(#149));
#70=EDGE_LOOP($,(#150));
#71=EDGE_LOOP($,(#151));
#72=EDGE_LOOP($,(#152));
#73=EDGE_LOOP($,(#153));
#74=EDGE_LOOP($,(#154));
#75=EDGE_LOOP($,(#155));
#76=EDGE_LOOP($,(#156));
#77=EDGE_LOOP($,(#157));
#78=EDGE_LOOP($,(#158));
#79=EDGE_LOOP($,(#159));
#80=CIRCLE($,#184,15.5);
#81=CIRCLE($,#186,24.);
#82=CIRCLE($,#187,24.);
#83=CIRCLE($,#189,30.5);
#84=CIRCLE($,#190,30.5);
#85=CIRCLE($,#192,25.);
#86=CIRCLE($,#193,25.);
#87=CIRCLE($,#195,21.);
#88=CIRCLE($,#197,25.);
#89=CIRCLE($,#198,25.);
#90=CIRCLE($,#200,16.);
#91=CIRCLE($,#201,16.);
#92=VERTEX_POINT($,#262);
#93=VERTEX_POINT($,#264);
#94=VERTEX_POINT($,#316);
#95=VERTEX_POINT($,#318);
#96=VERTEX_POINT($,#321);
#97=VERTEX_POINT($,#323);
#98=VERTEX_POINT($,#325);
#99=VERTEX_POINT($,#326);
#100=VERTEX_POINT($,#345);
#101=VERTEX_POINT($,#364);
#102=VERTEX_POINT($,#402);
#103=VERTEX_POINT($,#404);
#104=VERTEX_POINT($,#407);
#105=VERTEX_POINT($,#410);
#106=VERTEX_POINT($,#412);
#107=VERTEX_POINT($,#415);
#108=VERTEX_POINT($,#417);
#109=EDGE_CURVE($,#92,#92,#80,.T.);
#110=EDGE_CURVE($,#93,#93,#37,.T.);
#111=EDGE_CURVE($,#94,#94,#81,.T.);
#112=EDGE_CURVE($,#95,#95,#82,.T.);
#113=EDGE_CURVE($,#96,#96,#83,.T.);
#114=EDGE_CURVE($,#97,#97,#84,.T.);
#115=EDGE_CURVE($,#98,#99,#38,.T.);
#116=EDGE_CURVE($,#98,#100,#39,.T.);
#117=EDGE_CURVE($,#100,#101,#40,.T.);
#118=EDGE_CURVE($,#99,#101,#41,.T.);
#119=EDGE_CURVE($,#102,#102,#85,.T.);
#120=EDGE_CURVE($,#103,#103,#86,.T.);
#121=EDGE_CURVE($,#104,#104,#87,.T.);
#122=EDGE_CURVE($,#105,#105,#88,.T.);
#123=EDGE_CURVE($,#106,#106,#89,.T.);
#124=EDGE_CURVE($,#107,#107,#90,.T.);
#125=EDGE_CURVE($,#108,#108,#91,.T.);
#126=ORIENTED_EDGE($,*,*,#109,.F.);
#127=ORIENTED_EDGE($,*,*,#110,.F.);
#128=ORIENTED_EDGE($,*,*,#111,.F.);
#129=ORIENTED_EDGE($,*,*,#112,.F.);
#130=ORIENTED_EDGE($,*,*,#110,.T.);
#131=ORIENTED_EDGE($,*,*,#113,.F.);
#132=ORIENTED_EDGE($,*,*,#114,.T.);
#133=ORIENTED_EDGE($,*,*,#115,.F.);
#134=ORIENTED_EDGE($,*,*,#116,.T.);
#135=ORIENTED_EDGE($,*,*,#117,.T.);
#136=ORIENTED_EDGE($,*,*,#118,.F.);
#137=ORIENTED_EDGE($,*,*,#119,.T.);
#138=ORIENTED_EDGE($,*,*,#120,.F.);
#139=ORIENTED_EDGE($,*,*,#116,.F.);
#140=ORIENTED_EDGE($,*,*,#115,.T.);
#141=ORIENTED_EDGE($,*,*,#118,.T.);
#142=ORIENTED_EDGE($,*,*,#117,.F.);
#143=ORIENTED_EDGE($,*,*,#121,.F.);
#144=ORIENTED_EDGE($,*,*,#122,.T.);
#145=ORIENTED_EDGE($,*,*,#123,.F.);
#146=ORIENTED_EDGE($,*,*,#124,.T.);
#147=ORIENTED_EDGE($,*,*,#125,.F.);
#148=ORIENTED_EDGE($,*,*,#114,.F.);
#149=ORIENTED_EDGE($,*,*,#120,.T.);
#150=ORIENTED_EDGE($,*,*,#112,.T.);
#151=ORIENTED_EDGE($,*,*,#119,.F.);
#152=ORIENTED_EDGE($,*,*,#113,.T.);
#153=ORIENTED_EDGE($,*,*,#122,.F.);
#154=ORIENTED_EDGE($,*,*,#121,.T.);
#155=ORIENTED_EDGE($,*,*,#124,.F.);
#156=ORIENTED_EDGE($,*,*,#111,.T.);
#157=ORIENTED_EDGE($,*,*,#123,.T.);
#158=ORIENTED_EDGE($,*,*,#109,.T.);
#159=ORIENTED_EDGE($,*,*,#125,.T.);
#160=CYLINDRICAL_SURFACE($,#183,15.5);
#161=CYLINDRICAL_SURFACE($,#185,24.);
#162=CYLINDRICAL_SURFACE($,#188,30.5);
#163=CYLINDRICAL_SURFACE($,#191,25.);
#164=CYLINDRICAL_SURFACE($,#194,21.);
#165=CYLINDRICAL_SURFACE($,#196,25.);
#166=CYLINDRICAL_SURFACE($,#199,16.);
#167=ADVANCED_FACE($,(#42,#19),#160,.F.);
#168=ADVANCED_FACE($,(#43,#20,#21),#161,.F.);
#169=ADVANCED_FACE($,(#44,#22,#23),#162,.T.);
#170=ADVANCED_FACE($,(#45,#24),#163,.F.);
#171=ADVANCED_FACE($,(#46,#25),#164,.T.);
#172=ADVANCED_FACE($,(#47,#26),#165,.F.);
#173=ADVANCED_FACE($,(#48,#27),#166,.F.);
#174=ADVANCED_FACE($,(#49,#28),#13,.T.);
#175=ADVANCED_FACE($,(#29,#30),#14,.T.);
#176=ADVANCED_FACE($,(#50,#31),#15,.T.);
#177=ADVANCED_FACE($,(#51,#32),#16,.T.);
#178=ADVANCED_FACE($,(#33,#34),#17,.T.);
#179=ADVANCED_FACE($,(#35,#36),#18,.T.);
#180=CLOSED_SHELL($,(#167,#168,#169,#170,#171,#172,#173,#174,#175,#176,
#177,#178,#179));
#181=MANIFOLD_SOLID_BREP('Solido1',#180);
#182=AXIS2_PLACEMENT_3D('placement',#260,#208,#209);
#183=AXIS2_PLACEMENT_3D($,#261,#210,#211);
#184=AXIS2_PLACEMENT_3D($,#263,#212,#213);
#185=AXIS2_PLACEMENT_3D($,#315,#214,#215);
#186=AXIS2_PLACEMENT_3D($,#317,#216,#217);
#187=AXIS2_PLACEMENT_3D($,#319,#218,#219);
#188=AXIS2_PLACEMENT_3D($,#320,#220,#221);
#189=AXIS2_PLACEMENT_3D($,#322,#222,#223);
#190=AXIS2_PLACEMENT_3D($,#324,#224,#225);
#191=AXIS2_PLACEMENT_3D($,#401,#226,#227);
#192=AXIS2_PLACEMENT_3D($,#403,#228,#229);
#193=AXIS2_PLACEMENT_3D($,#405,#230,#231);
#194=AXIS2_PLACEMENT_3D($,#406,#232,#233);
#195=AXIS2_PLACEMENT_3D($,#408,#234,#235);
#196=AXIS2_PLACEMENT_3D($,#409,#236,#237);
#197=AXIS2_PLACEMENT_3D($,#411,#238,#239);
#198=AXIS2_PLACEMENT_3D($,#413,#240,#241);
#199=AXIS2_PLACEMENT_3D($,#414,#242,#243);
#200=AXIS2_PLACEMENT_3D($,#416,#244,#245);
#201=AXIS2_PLACEMENT_3D($,#418,#246,#247);
#202=AXIS2_PLACEMENT_3D($,#419,#248,#249);
#203=AXIS2_PLACEMENT_3D($,#420,#250,#251);
#204=AXIS2_PLACEMENT_3D($,#421,#252,#253);
#205=AXIS2_PLACEMENT_3D($,#422,#254,#255);
#206=AXIS2_PLACEMENT_3D($,#423,#256,#257);
#207=AXIS2_PLACEMENT_3D($,#424,#258,#259);
#208=DIRECTION('axis',(0.,0.,1.));
#209=DIRECTION('refdir',(1.,0.,0.));
#210=DIRECTION('center_axis',(-1.,0.,-4.48966210393587E-011));
#211=DIRECTION('ref_axis',(-4.48966210393587E-011,0.,1.));
#212=DIRECTION('center_axis',(-1.,0.,-4.489664E-011));
#213=DIRECTION('ref_axis',(-4.48966210393587E-011,0.,1.));
#214=DIRECTION('center_axis',(0.,0.,-1.));
#215=DIRECTION('ref_axis',(-1.,0.,0.));
#216=DIRECTION('center_axis',(0.,0.,-1.));
#217=DIRECTION('ref_axis',(-1.,0.,0.));
#218=DIRECTION('center_axis',(0.,0.,1.));
#219=DIRECTION('ref_axis',(-1.,0.,0.));
#220=DIRECTION('center_axis',(0.,0.,1.));
#221=DIRECTION('ref_axis',(1.,0.,0.));
#222=DIRECTION('center_axis',(0.,0.,1.));
#223=DIRECTION('ref_axis',(1.,0.,0.));
#224=DIRECTION('center_axis',(0.,0.,1.));
#225=DIRECTION('ref_axis',(1.,0.,0.));
#226=DIRECTION('center_axis',(0.,0.,1.));
#227=DIRECTION('ref_axis',(1.,0.,0.));
#228=DIRECTION('center_axis',(0.,0.,1.));
#229=DIRECTION('ref_axis',(1.,0.,0.));
#230=DIRECTION('center_axis',(0.,0.,1.));
#231=DIRECTION('ref_axis',(1.,0.,0.));
#232=DIRECTION('center_axis',(1.,0.,4.489664E-011));
#233=DIRECTION('ref_axis',(4.489664E-011,0.,-1.));
#234=DIRECTION('center_axis',(1.,0.,4.489664E-011));
#235=DIRECTION('ref_axis',(4.489664E-011,0.,-1.));
#236=DIRECTION('center_axis',(0.,0.,1.));
#237=DIRECTION('ref_axis',(1.,0.,0.));
#238=DIRECTION('center_axis',(0.,0.,1.));
#239=DIRECTION('ref_axis',(1.,0.,0.));
#240=DIRECTION('center_axis',(0.,0.,1.));
#241=DIRECTION('ref_axis',(1.,0.,0.));
#242=DIRECTION('center_axis',(1.,1.51659706659289E-014,4.48969052936149E-011));
#243=DIRECTION('ref_axis',(4.4896864004329E-011,0.,-1.));
#244=DIRECTION('center_axis',(1.,0.,4.489664E-011));
#245=DIRECTION('ref_axis',(4.489664E-011,0.,-1.));
#246=DIRECTION('center_axis',(1.,0.,4.489664E-011));
#247=DIRECTION('ref_axis',(4.489664E-011,0.,-1.));
#248=DIRECTION('center_axis',(0.,0.,-1.));
#249=DIRECTION('ref_axis',(-1.,0.,0.));
#250=DIRECTION('center_axis',(0.,0.,-1.));
#251=DIRECTION('ref_axis',(-1.,0.,0.));
#252=DIRECTION('center_axis',(0.,0.,1.));
#253=DIRECTION('ref_axis',(1.,0.,0.));
#254=DIRECTION('center_axis',(1.,0.,4.489664E-011));
#255=DIRECTION('ref_axis',(4.48963533017377E-011,0.,-1.));
#256=DIRECTION('center_axis',(0.,0.,1.));
#257=DIRECTION('ref_axis',(1.,0.,0.));
#258=DIRECTION('center_axis',(1.,0.,4.489664E-011));
#259=DIRECTION('ref_axis',(4.48967085731056E-011,0.,-1.));
#260=CARTESIAN_POINT('',(0.,0.,0.));
#261=CARTESIAN_POINT('Origin',(27.,0.,58.000000001212));
#262=CARTESIAN_POINT('',(27.0000000006959,1.8982025386784E-015,42.500000001212));
#263=CARTESIAN_POINT('Origin',(27.,0.,58.000000001212));
#264=CARTESIAN_POINT('',(18.3234822018087,15.5,58.0000000008225));
#265=CARTESIAN_POINT('Ctrl Pts',(18.3234822018087,15.5,58.0000000008225));
#266=CARTESIAN_POINT('Ctrl Pts',(18.3234822018087,15.5,59.0150417652055));
#267=CARTESIAN_POINT('Ctrl Pts',(18.4104288927883,15.3988897860587,60.0479923108471));
#268=CARTESIAN_POINT('Ctrl Pts',(18.7447142118262,14.990176354177,62.0761124518757));
#269=CARTESIAN_POINT('Ctrl Pts',(18.9910868085082,14.6828100068605,63.0714888813045));
#270=CARTESIAN_POINT('Ctrl Pts',(19.8771298168229,13.4864628546677,65.9110797851438));
#271=CARTESIAN_POINT('Ctrl Pts',(20.6585743308672,12.3095008735415,67.6108093441772));
#272=CARTESIAN_POINT('Ctrl Pts',(22.0374200707984,9.62340277457994,70.2969074431839));
#273=CARTESIAN_POINT('Ctrl Pts',(22.7403623273451,7.92067903602852,71.4823459533917));
#274=CARTESIAN_POINT('Ctrl Pts',(23.4795063183871,5.06735578049794,72.6845876320729));
#275=CARTESIAN_POINT('Ctrl Pts',(23.6750666458829,4.06684976612008,72.9927786492241));
#276=CARTESIAN_POINT('Ctrl Pts',(23.935388538244,2.03598213065059,73.4005667238944));
#277=CARTESIAN_POINT('Ctrl Pts',(24.,1.00556838908907,73.5000000010773));
#278=CARTESIAN_POINT('Ctrl Pts',(24.,-1.00556838908907,73.5000000010773));
#279=CARTESIAN_POINT('Ctrl Pts',(23.935388538244,-2.03598213065059,73.4005667238944));
#280=CARTESIAN_POINT('Ctrl Pts',(23.6750666458829,-4.06684976612007,72.9927786492241));
#281=CARTESIAN_POINT('Ctrl Pts',(23.4795063183871,-5.06735578049794,72.6845876320729));
#282=CARTESIAN_POINT('Ctrl Pts',(22.7403623273451,-7.92067903602852,71.4823459533917));
#283=CARTESIAN_POINT('Ctrl Pts',(22.0374200707984,-9.62340277457994,70.2969074431839));
#284=CARTESIAN_POINT('Ctrl Pts',(20.6585743308672,-12.3095008735415,67.6108093441772));
#285=CARTESIAN_POINT('Ctrl Pts',(19.8771298168229,-13.4864628546677,65.9110797851439));
#286=CARTESIAN_POINT('Ctrl Pts',(18.9910868085082,-14.6828100068605,63.0714888813045));
#287=CARTESIAN_POINT('Ctrl Pts',(18.7447142118262,-14.990176354177,62.0761124518757));
#288=CARTESIAN_POINT('Ctrl Pts',(18.4104288927883,-15.3988897860587,60.0479923108471));
#289=CARTESIAN_POINT('Ctrl Pts',(18.3234822018087,-15.5,59.0150417652055));
#290=CARTESIAN_POINT('Ctrl Pts',(18.3234822018087,-15.5,56.9849582364652));
#291=CARTESIAN_POINT('Ctrl Pts',(18.4104288927841,-15.3988897860637,55.9520076908485));
#292=CARTESIAN_POINT('Ctrl Pts',(18.7447142118127,-14.9901763541937,53.9238875498716));
#293=CARTESIAN_POINT('Ctrl Pts',(18.9910868084898,-14.6828100068841,52.9285111204694));
#294=CARTESIAN_POINT('Ctrl Pts',(19.877129816793,-13.4864628547107,50.0889202167161));
#295=CARTESIAN_POINT('Ctrl Pts',(20.6585743308346,-12.3095008735945,48.3891906577472));
#296=CARTESIAN_POINT('Ctrl Pts',(22.0374200707773,-9.62340277463158,45.7030925588295));
#297=CARTESIAN_POINT('Ctrl Pts',(22.7403623273353,-7.9206790360604,44.5176540486661));
#298=CARTESIAN_POINT('Ctrl Pts',(23.479506318385,-5.0673557805092,43.3154123700384));
#299=CARTESIAN_POINT('Ctrl Pts',(23.6750666458821,-4.06684976612602,43.0072213529027));
#300=CARTESIAN_POINT('Ctrl Pts',(23.9353885382442,-2.03598213065023,42.5994332782541));
#301=CARTESIAN_POINT('Ctrl Pts',(24.,-1.00556838908773,42.5000000010773));
#302=CARTESIAN_POINT('Ctrl Pts',(24.,1.00556838908773,42.5000000010773));
#303=CARTESIAN_POINT('Ctrl Pts',(23.9353885382442,2.03598213065023,42.5994332782541));
#304=CARTESIAN_POINT('Ctrl Pts',(23.6750666458821,4.06684976612602,43.0072213529027));
#305=CARTESIAN_POINT('Ctrl Pts',(23.479506318385,5.0673557805092,43.3154123700384));
#306=CARTESIAN_POINT('Ctrl Pts',(22.7403623273353,7.9206790360604,44.5176540486661));
#307=CARTESIAN_POINT('Ctrl Pts',(22.0374200707773,9.62340277463158,45.7030925588295));
#308=CARTESIAN_POINT('Ctrl Pts',(20.6585743308346,12.3095008735945,48.3891906577472));
#309=CARTESIAN_POINT('Ctrl Pts',(19.877129816793,13.4864628547107,50.0889202167161));
#310=CARTESIAN_POINT('Ctrl Pts',(18.9910868084898,14.682810006884,52.9285111204694));
#311=CARTESIAN_POINT('Ctrl Pts',(18.7447142118127,14.9901763541937,53.9238875498716));
#312=CARTESIAN_POINT('Ctrl Pts',(18.4104288927841,15.3988897860637,55.9520076908485));
#313=CARTESIAN_POINT('Ctrl Pts',(18.3234822018087,15.5,56.9849582364652));
#314=CARTESIAN_POINT('Ctrl Pts',(18.3234822018087,15.5,58.0000000008225));
#315=CARTESIAN_POINT('Origin',(0.,0.,85.));
#316=CARTESIAN_POINT('',(24.,2.93915231795365E-015,85.));
#317=CARTESIAN_POINT('Origin',(0.,0.,85.));
#318=CARTESIAN_POINT('',(24.,2.93915231795365E-015,31.));
#319=CARTESIAN_POINT('Origin',(0.,0.,31.));
#320=CARTESIAN_POINT('Origin',(0.,0.,0.));
#321=CARTESIAN_POINT('',(-30.5,-3.735049E-015,116.));
#322=CARTESIAN_POINT('Origin',(0.,0.,116.));
#323=CARTESIAN_POINT('',(30.5,-7.470099E-015,0.));
#324=CARTESIAN_POINT('Origin',(0.,0.,0.));
#325=CARTESIAN_POINT('',(22.118996360595,-21.,58.000000000993));
#326=CARTESIAN_POINT('',(30.5,-2.63677968348473E-015,37.0000000013694));
#327=CARTESIAN_POINT('Ctrl Pts',(22.1189963605947,-21.,58.0000000009931));
#328=CARTESIAN_POINT('Ctrl Pts',(22.1189963605947,-21.,56.6126268486126));
#329=CARTESIAN_POINT('Ctrl Pts',(22.2535890555839,-20.8607382572414,55.2070499023929));
#330=CARTESIAN_POINT('Ctrl Pts',(22.7632922455077,-20.3033285720144,52.4551085278205));
#331=CARTESIAN_POINT('Ctrl Pts',(23.1366498681304,-19.8855247701012,51.108350037542));
#332=CARTESIAN_POINT('Ctrl Pts',(24.0233601505719,-18.8046995125471,48.5494792103382));
#333=CARTESIAN_POINT('Ctrl Pts',(24.5360969455242,-18.1407443626242,47.3346515190143));
#334=CARTESIAN_POINT('Ctrl Pts',(25.59094048689,-16.6195795462427,45.0916368164102));
#335=CARTESIAN_POINT('Ctrl Pts',(26.1324173029285,-15.7619340240312,44.0634492153633));
#336=CARTESIAN_POINT('Ctrl Pts',(27.1432095987254,-13.9484642274175,42.2499794188073));
#337=CARTESIAN_POINT('Ctrl Pts',(27.6519184376201,-12.9267777628912,41.3946320387458));
#338=CARTESIAN_POINT('Ctrl Pts',(28.5937041028562,-10.6831766003484,39.8696506836405));
#339=CARTESIAN_POINT('Ctrl Pts',(29.0262772101255,-9.46110831749851,39.1999316313918));
#340=CARTESIAN_POINT('Ctrl Pts',(29.7427841867094,-6.88506623604966,38.1115354775718));
#341=CARTESIAN_POINT('Ctrl Pts',(30.0270731570904,-5.52830772118273,37.6919592832492));
#342=CARTESIAN_POINT('Ctrl Pts',(30.4057880347587,-2.77044448422107,37.1360755995756));
#343=CARTESIAN_POINT('Ctrl Pts',(30.5,-1.36926365204142,37.0000000013694));
#344=CARTESIAN_POINT('Ctrl Pts',(30.5,0.,37.0000000013694));
#345=CARTESIAN_POINT('',(30.5,-7.470099E-015,79.000000001369));
#346=CARTESIAN_POINT('Ctrl Pts',(22.1189963605947,-21.,58.0000000009931));
#347=CARTESIAN_POINT('Ctrl Pts',(22.1189963605947,-21.,59.3873731533924));
#348=CARTESIAN_POINT('Ctrl Pts',(22.2535890555871,-20.860738257238,60.7929500996304));
#349=CARTESIAN_POINT('Ctrl Pts',(22.7632922455133,-20.3033285720081,63.5448914742461));
#350=CARTESIAN_POINT('Ctrl Pts',(23.1366498681351,-19.8855247700956,64.8916499645495));
#351=CARTESIAN_POINT('Ctrl Pts',(24.02336015057,-18.8046995125493,67.450520791813));
#352=CARTESIAN_POINT('Ctrl Pts',(24.5360969455168,-18.1407443626337,68.6653484831711));
#353=CARTESIAN_POINT('Ctrl Pts',(25.5909404868713,-16.6195795462709,70.90836318585));
#354=CARTESIAN_POINT('Ctrl Pts',(26.1324173029041,-15.7619340240708,71.9365507869374));
#355=CARTESIAN_POINT('Ctrl Pts',(27.1432095986947,-13.9484642274766,73.750020583577));
#356=CARTESIAN_POINT('Ctrl Pts',(27.6519184375889,-12.9267777629577,74.6053679636853));
#357=CARTESIAN_POINT('Ctrl Pts',(28.5937041028281,-10.6831766004234,76.1303493188828));
#358=CARTESIAN_POINT('Ctrl Pts',(29.0262772101008,-9.46110831757469,76.8000683711767));
#359=CARTESIAN_POINT('Ctrl Pts',(29.7427841866934,-6.88506623611963,77.8884645250751));
#360=CARTESIAN_POINT('Ctrl Pts',(30.0270731570795,-5.52830772124513,78.3080407194309));
#361=CARTESIAN_POINT('Ctrl Pts',(30.4057880347558,-2.77044448425899,78.8639244031505));
#362=CARTESIAN_POINT('Ctrl Pts',(30.5,-1.36926365206241,79.0000000013694));
#363=CARTESIAN_POINT('Ctrl Pts',(30.5,-2.63677968348475E-015,79.0000000013694));
#364=CARTESIAN_POINT('',(22.118996360595,21.,58.000000000993));
#365=CARTESIAN_POINT('Ctrl Pts',(30.5,2.63677968348475E-015,79.0000000013694));
#366=CARTESIAN_POINT('Ctrl Pts',(30.5,1.36926365206241,79.0000000013694));
#367=CARTESIAN_POINT('Ctrl Pts',(30.4057880347558,2.77044448425899,78.8639244031505));
#368=CARTESIAN_POINT('Ctrl Pts',(30.0270731570795,5.52830772124514,78.3080407194309));
#369=CARTESIAN_POINT('Ctrl Pts',(29.7427841866934,6.88506623611964,77.8884645250751));
#370=CARTESIAN_POINT('Ctrl Pts',(29.0262772101008,9.4611083175747,76.8000683711767));
#371=CARTESIAN_POINT('Ctrl Pts',(28.5937041028281,10.6831766004234,76.1303493188828));
#372=CARTESIAN_POINT('Ctrl Pts',(27.6519184375889,12.9267777629577,74.6053679636853));
#373=CARTESIAN_POINT('Ctrl Pts',(27.1432095986947,13.9484642274766,73.750020583577));
#374=CARTESIAN_POINT('Ctrl Pts',(26.1324173029041,15.7619340240708,71.9365507869374));
#375=CARTESIAN_POINT('Ctrl Pts',(25.5909404868713,16.6195795462709,70.90836318585));
#376=CARTESIAN_POINT('Ctrl Pts',(24.5360969455168,18.1407443626337,68.6653484831711));
#377=CARTESIAN_POINT('Ctrl Pts',(24.02336015057,18.8046995125493,67.450520791813));
#378=CARTESIAN_POINT('Ctrl Pts',(23.1366498681351,19.8855247700956,64.8916499645495));
#379=CARTESIAN_POINT('Ctrl Pts',(22.7632922455133,20.3033285720081,63.5448914742461));
#380=CARTESIAN_POINT('Ctrl Pts',(22.2535890555871,20.860738257238,60.7929500996304));
#381=CARTESIAN_POINT('Ctrl Pts',(22.1189963605947,21.,59.3873731533924));
#382=CARTESIAN_POINT('Ctrl Pts',(22.1189963605947,21.,58.0000000009931));
#383=CARTESIAN_POINT('Ctrl Pts',(30.5,-5.27355936696949E-015,37.0000000013694));
#384=CARTESIAN_POINT('Ctrl Pts',(30.5,1.36926365204141,37.0000000013694));
#385=CARTESIAN_POINT('Ctrl Pts',(30.4057880347587,2.77044448422106,37.1360755995756));
#386=CARTESIAN_POINT('Ctrl Pts',(30.0270731570904,5.52830772118272,37.6919592832492));
#387=CARTESIAN_POINT('Ctrl Pts',(29.7427841867094,6.88506623604965,38.1115354775718));
#388=CARTESIAN_POINT('Ctrl Pts',(29.0262772101255,9.46110831749849,39.1999316313918));
#389=CARTESIAN_POINT('Ctrl Pts',(28.5937041028562,10.6831766003484,39.8696506836405));
#390=CARTESIAN_POINT('Ctrl Pts',(27.6519184376201,12.9267777628912,41.3946320387458));
#391=CARTESIAN_POINT('Ctrl Pts',(27.1432095987254,13.9484642274175,42.2499794188073));
#392=CARTESIAN_POINT('Ctrl Pts',(26.1324173029285,15.7619340240312,44.0634492153633));
#393=CARTESIAN_POINT('Ctrl Pts',(25.59094048689,16.6195795462427,45.0916368164102));
#394=CARTESIAN_POINT('Ctrl Pts',(24.5360969455242,18.1407443626242,47.3346515190143));
#395=CARTESIAN_POINT('Ctrl Pts',(24.0233601505719,18.8046995125471,48.5494792103382));
#396=CARTESIAN_POINT('Ctrl Pts',(23.1366498681304,19.8855247701012,51.108350037542));
#397=CARTESIAN_POINT('Ctrl Pts',(22.7632922455077,20.3033285720144,52.4551085278205));
#398=CARTESIAN_POINT('Ctrl Pts',(22.2535890555839,20.8607382572414,55.2070499023929));
#399=CARTESIAN_POINT('Ctrl Pts',(22.1189963605947,21.,56.6126268486126));
#400=CARTESIAN_POINT('Ctrl Pts',(22.1189963605947,21.,58.0000000009931));
#401=CARTESIAN_POINT('Origin',(4.44089209850063E-015,0.,15.5));
#402=CARTESIAN_POINT('',(-25.,-3.061516E-015,31.));
#403=CARTESIAN_POINT('Origin',(0.,0.,31.));
#404=CARTESIAN_POINT('',(-25.,-3.061516E-015,0.));
#405=CARTESIAN_POINT('Origin',(0.,0.,0.));
#406=CARTESIAN_POINT('Origin',(0.,0.,58.));
#407=CARTESIAN_POINT('',(48.9999999990572,-2.571673E-015,79.0000000021999));
#408=CARTESIAN_POINT('Origin',(49.,0.,58.0000000022));
#409=CARTESIAN_POINT('Origin',(4.44089209850063E-015,0.,100.5));
#410=CARTESIAN_POINT('',(-25.,-3.061516E-015,116.));
#411=CARTESIAN_POINT('Origin',(0.,0.,116.));
#412=CARTESIAN_POINT('',(-25.,-3.061516E-015,85.));
#413=CARTESIAN_POINT('Origin',(0.,0.,85.));
#414=CARTESIAN_POINT('Origin',(38.,0.,58.0000000017059));
#415=CARTESIAN_POINT('',(48.9999999992817,-1.95937E-015,74.0000000021998));
#416=CARTESIAN_POINT('Origin',(49.,0.,58.0000000022));
#417=CARTESIAN_POINT('',(26.9999999992817,-1.95937E-015,74.000000001212));
#418=CARTESIAN_POINT('Origin',(27.,0.,58.000000001212));
#419=CARTESIAN_POINT('Origin',(0.,0.,0.));
#420=CARTESIAN_POINT('Origin',(0.,0.,31.));
#421=CARTESIAN_POINT('Origin',(0.,0.,116.));
#422=CARTESIAN_POINT('Origin',(49.,0.,58.0000000022));
#423=CARTESIAN_POINT('Origin',(0.,0.,85.));
#424=CARTESIAN_POINT('Origin',(27.,0.,58.000000001212));
#425=UNCERTAINTY_MEASURE_WITH_UNIT(LENGTH_MEASURE(0.01),#427,
'DISTANCE_ACCURACY_VALUE',
'Maximum model space distance between geometric entities at asserted c
onnectivities');
#426=(
GEOMETRIC_REPRESENTATION_CONTEXT(3)
GLOBAL_UNCERTAINTY_ASSIGNED_CONTEXT((#425))
GLOBAL_UNIT_ASSIGNED_CONTEXT((#427,#430,#428))
REPRESENTATION_CONTEXT('','3D')
);
#427=(
LENGTH_UNIT()
NAMED_UNIT(*)
SI_UNIT(.MILLI.,.METRE.)
);
#428=(
NAMED_UNIT(*)
SI_UNIT($,.STERADIAN.)
SOLID_ANGLE_UNIT()
);
#429=DIMENSIONAL_EXPONENTS(0.,0.,0.,0.,0.,0.,0.);
#430=(
CONVERSION_BASED_UNIT('degree',#432)
NAMED_UNIT(#429)
PLANE_ANGLE_UNIT()
);
#431=(
NAMED_UNIT(*)
PLANE_ANGLE_UNIT()
SI_UNIT($,.RADIAN.)
);
#432=PLANE_ANGLE_MEASURE_WITH_UNIT(PLANE_ANGLE_MEASURE(0.01745329252),#431);
#433=SHAPE_DEFINITION_REPRESENTATION(#434,#435);
#434=PRODUCT_DEFINITION_SHAPE('',$,#437);
#435=SHAPE_REPRESENTATION('',(#182),#426);
#436=PRODUCT_DEFINITION_CONTEXT('3D Mechanical Parts',#440,'design');
#437=PRODUCT_DEFINITION('TRIV050032','TRIV050032',#438,#436);
#438=PRODUCT_DEFINITION_FORMATION('',$,#442);
#439=APPLICATION_PROTOCOL_DEFINITION('international standard',
'automotive_design',2009,#440);
#440=APPLICATION_CONTEXT(
'Core Data for Automotive Mechanical Design Process');
#441=PRODUCT_CONTEXT('3D Mechanical Parts',#440,'mechanical');
#442=PRODUCT('TRIV050032','TRIV050032',$,(#441));
#443=PRESENTATION_STYLE_ASSIGNMENT((#444));
#444=SURFACE_STYLE_USAGE(.BOTH.,#445);
#445=SURFACE_SIDE_STYLE($,(#446));
#446=SURFACE_STYLE_FILL_AREA(#447);
#447=FILL_AREA_STYLE($,(#448));
#448=FILL_AREA_STYLE_COLOUR($,#449);
#449=COLOUR_RGB('',0.509803921568627,0.509803921568627,0.588235294117647);
ENDSEC;
END-ISO-10303-21;
