ISO-10303-21;
HEADER;
/* Generated by software containing ST-Developer
 * from STEP Tools, Inc. (www.steptools.com) 
 */

FILE_DESCRIPTION(
/* description */ (''),
/* implementation_level */ '2;1');

FILE_NAME(
/* name */ 'C:\\Users\\Gabriele\\Desktop\\disegni 3D\\SO10\\SO103150.s
tp',
/* time_stamp */ '2017-01-24T16:42:39+01:00',
/* author */ ('Gabriele'),
/* organization */ (''),
/* preprocessor_version */ 'ST-DEVELOPER v16.5',
/* originating_system */ 'Autodesk Inventor 2017',
/* authorisation */ '');

FILE_SCHEMA (('AUTOMOTIVE_DESIGN { 1 0 10303 214 3 1 1 }'));
ENDSEC;

DATA;
#10=MECHANICAL_DESIGN_GEOMETRIC_PRESENTATION_REPRESENTATION('',(#13),#249);
#11=SHAPE_REPRESENTATION_RELATIONSHIP('SRR','None',#258,#12);
#12=ADVANCED_BREP_SHAPE_REPRESENTATION('',(#14),#248);
#13=STYLED_ITEM('',(#268),#14);
#14=MANIFOLD_SOLID_BREP('Solido2',#136);
#15=CYLINDRICAL_SURFACE('',#149,157.5);
#16=CYLINDRICAL_SURFACE('',#154,177.5);
#17=CYLINDRICAL_SURFACE('',#159,150.);
#18=CYLINDRICAL_SURFACE('',#162,157.5);
#19=PLANE('',#147);
#20=PLANE('',#156);
#21=PLANE('',#164);
#22=PLANE('',#165);
#23=FACE_BOUND('',#46,.T.);
#24=FACE_BOUND('',#48,.T.);
#25=FACE_BOUND('',#50,.T.);
#26=FACE_BOUND('',#52,.T.);
#27=FACE_BOUND('',#54,.T.);
#28=FACE_BOUND('',#56,.T.);
#29=FACE_BOUND('',#58,.T.);
#30=FACE_BOUND('',#60,.T.);
#31=FACE_BOUND('',#62,.T.);
#32=FACE_BOUND('',#64,.T.);
#33=FACE_BOUND('',#66,.T.);
#34=FACE_OUTER_BOUND('',#45,.T.);
#35=FACE_OUTER_BOUND('',#47,.T.);
#36=FACE_OUTER_BOUND('',#49,.T.);
#37=FACE_OUTER_BOUND('',#51,.T.);
#38=FACE_OUTER_BOUND('',#53,.T.);
#39=FACE_OUTER_BOUND('',#55,.T.);
#40=FACE_OUTER_BOUND('',#57,.T.);
#41=FACE_OUTER_BOUND('',#59,.T.);
#42=FACE_OUTER_BOUND('',#61,.T.);
#43=FACE_OUTER_BOUND('',#63,.T.);
#44=FACE_OUTER_BOUND('',#65,.T.);
#45=EDGE_LOOP('',(#100));
#46=EDGE_LOOP('',(#101));
#47=EDGE_LOOP('',(#102));
#48=EDGE_LOOP('',(#103));
#49=EDGE_LOOP('',(#104));
#50=EDGE_LOOP('',(#105));
#51=EDGE_LOOP('',(#106));
#52=EDGE_LOOP('',(#107));
#53=EDGE_LOOP('',(#108));
#54=EDGE_LOOP('',(#109));
#55=EDGE_LOOP('',(#110));
#56=EDGE_LOOP('',(#111));
#57=EDGE_LOOP('',(#112));
#58=EDGE_LOOP('',(#113));
#59=EDGE_LOOP('',(#114));
#60=EDGE_LOOP('',(#115));
#61=EDGE_LOOP('',(#116));
#62=EDGE_LOOP('',(#117));
#63=EDGE_LOOP('',(#118));
#64=EDGE_LOOP('',(#119));
#65=EDGE_LOOP('',(#120));
#66=EDGE_LOOP('',(#121));
#67=CIRCLE('',#145,157.5);
#68=CIRCLE('',#146,158.);
#69=CIRCLE('',#148,177.);
#70=CIRCLE('',#150,157.5);
#71=CIRCLE('',#152,177.5);
#72=CIRCLE('',#153,177.);
#73=CIRCLE('',#155,177.5);
#74=CIRCLE('',#157,157.5);
#75=CIRCLE('',#160,150.);
#76=CIRCLE('',#161,150.);
#77=CIRCLE('',#163,157.5);
#78=VERTEX_POINT('',#214);
#79=VERTEX_POINT('',#216);
#80=VERTEX_POINT('',#219);
#81=VERTEX_POINT('',#222);
#82=VERTEX_POINT('',#225);
#83=VERTEX_POINT('',#227);
#84=VERTEX_POINT('',#230);
#85=VERTEX_POINT('',#233);
#86=VERTEX_POINT('',#237);
#87=VERTEX_POINT('',#239);
#88=VERTEX_POINT('',#242);
#89=EDGE_CURVE('',#78,#78,#67,.T.);
#90=EDGE_CURVE('',#79,#79,#68,.T.);
#91=EDGE_CURVE('',#80,#80,#69,.T.);
#92=EDGE_CURVE('',#81,#81,#70,.T.);
#93=EDGE_CURVE('',#82,#82,#71,.T.);
#94=EDGE_CURVE('',#83,#83,#72,.T.);
#95=EDGE_CURVE('',#84,#84,#73,.T.);
#96=EDGE_CURVE('',#85,#85,#74,.T.);
#97=EDGE_CURVE('',#86,#86,#75,.T.);
#98=EDGE_CURVE('',#87,#87,#76,.T.);
#99=EDGE_CURVE('',#88,#88,#77,.T.);
#100=ORIENTED_EDGE('',*,*,#89,.T.);
#101=ORIENTED_EDGE('',*,*,#90,.T.);
#102=ORIENTED_EDGE('',*,*,#91,.F.);
#103=ORIENTED_EDGE('',*,*,#90,.F.);
#104=ORIENTED_EDGE('',*,*,#92,.T.);
#105=ORIENTED_EDGE('',*,*,#89,.F.);
#106=ORIENTED_EDGE('',*,*,#93,.T.);
#107=ORIENTED_EDGE('',*,*,#94,.T.);
#108=ORIENTED_EDGE('',*,*,#95,.F.);
#109=ORIENTED_EDGE('',*,*,#93,.F.);
#110=ORIENTED_EDGE('',*,*,#94,.F.);
#111=ORIENTED_EDGE('',*,*,#96,.T.);
#112=ORIENTED_EDGE('',*,*,#95,.T.);
#113=ORIENTED_EDGE('',*,*,#91,.T.);
#114=ORIENTED_EDGE('',*,*,#97,.F.);
#115=ORIENTED_EDGE('',*,*,#98,.F.);
#116=ORIENTED_EDGE('',*,*,#99,.F.);
#117=ORIENTED_EDGE('',*,*,#96,.F.);
#118=ORIENTED_EDGE('',*,*,#99,.T.);
#119=ORIENTED_EDGE('',*,*,#97,.T.);
#120=ORIENTED_EDGE('',*,*,#92,.F.);
#121=ORIENTED_EDGE('',*,*,#98,.T.);
#122=TOROIDAL_SURFACE('',#144,158.,0.5);
#123=TOROIDAL_SURFACE('',#151,177.,0.5);
#124=TOROIDAL_SURFACE('',#158,177.,0.5);
#125=ADVANCED_FACE('',(#34,#23),#122,.T.);
#126=ADVANCED_FACE('',(#35,#24),#19,.T.);
#127=ADVANCED_FACE('',(#36,#25),#15,.F.);
#128=ADVANCED_FACE('',(#37,#26),#123,.T.);
#129=ADVANCED_FACE('',(#38,#27),#16,.T.);
#130=ADVANCED_FACE('',(#39,#28),#20,.F.);
#131=ADVANCED_FACE('',(#40,#29),#124,.T.);
#132=ADVANCED_FACE('',(#41,#30),#17,.F.);
#133=ADVANCED_FACE('',(#42,#31),#18,.F.);
#134=ADVANCED_FACE('',(#43,#32),#21,.F.);
#135=ADVANCED_FACE('',(#44,#33),#22,.T.);
#136=CLOSED_SHELL('',(#125,#126,#127,#128,#129,#130,#131,#132,#133,#134,
#135));
#137=DATE_TIME_ROLE('creation_date');
#138=APPLIED_DATE_AND_TIME_ASSIGNMENT(#139,#137,(#260));
#139=DATE_AND_TIME(#140,#141);
#140=CALENDAR_DATE(2016,1,12);
#141=LOCAL_TIME(12,16,31.,#142);
#142=COORDINATED_UNIVERSAL_TIME_OFFSET(0,0,.BEHIND.);
#143=AXIS2_PLACEMENT_3D('placement',#212,#166,#167);
#144=AXIS2_PLACEMENT_3D('',#213,#168,#169);
#145=AXIS2_PLACEMENT_3D('',#215,#170,#171);
#146=AXIS2_PLACEMENT_3D('',#217,#172,#173);
#147=AXIS2_PLACEMENT_3D('',#218,#174,#175);
#148=AXIS2_PLACEMENT_3D('',#220,#176,#177);
#149=AXIS2_PLACEMENT_3D('',#221,#178,#179);
#150=AXIS2_PLACEMENT_3D('',#223,#180,#181);
#151=AXIS2_PLACEMENT_3D('',#224,#182,#183);
#152=AXIS2_PLACEMENT_3D('',#226,#184,#185);
#153=AXIS2_PLACEMENT_3D('',#228,#186,#187);
#154=AXIS2_PLACEMENT_3D('',#229,#188,#189);
#155=AXIS2_PLACEMENT_3D('',#231,#190,#191);
#156=AXIS2_PLACEMENT_3D('',#232,#192,#193);
#157=AXIS2_PLACEMENT_3D('',#234,#194,#195);
#158=AXIS2_PLACEMENT_3D('',#235,#196,#197);
#159=AXIS2_PLACEMENT_3D('',#236,#198,#199);
#160=AXIS2_PLACEMENT_3D('',#238,#200,#201);
#161=AXIS2_PLACEMENT_3D('',#240,#202,#203);
#162=AXIS2_PLACEMENT_3D('',#241,#204,#205);
#163=AXIS2_PLACEMENT_3D('',#243,#206,#207);
#164=AXIS2_PLACEMENT_3D('',#244,#208,#209);
#165=AXIS2_PLACEMENT_3D('',#245,#210,#211);
#166=DIRECTION('axis',(0.,0.,1.));
#167=DIRECTION('refdir',(1.,0.,0.));
#168=DIRECTION('center_axis',(0.,0.,-1.));
#169=DIRECTION('ref_axis',(-1.,0.,0.));
#170=DIRECTION('center_axis',(0.,0.,-1.));
#171=DIRECTION('ref_axis',(-1.,0.,0.));
#172=DIRECTION('center_axis',(0.,0.,1.));
#173=DIRECTION('ref_axis',(-1.,0.,0.));
#174=DIRECTION('center_axis',(0.,0.,1.));
#175=DIRECTION('ref_axis',(1.,0.,0.));
#176=DIRECTION('center_axis',(0.,0.,-1.));
#177=DIRECTION('ref_axis',(-1.,0.,0.));
#178=DIRECTION('center_axis',(0.,0.,-1.));
#179=DIRECTION('ref_axis',(-1.,0.,0.));
#180=DIRECTION('center_axis',(0.,0.,-1.));
#181=DIRECTION('ref_axis',(-1.,0.,0.));
#182=DIRECTION('center_axis',(0.,0.,-1.));
#183=DIRECTION('ref_axis',(-1.,0.,0.));
#184=DIRECTION('center_axis',(0.,0.,-1.));
#185=DIRECTION('ref_axis',(-1.,0.,0.));
#186=DIRECTION('center_axis',(0.,0.,1.));
#187=DIRECTION('ref_axis',(-1.,0.,0.));
#188=DIRECTION('center_axis',(0.,0.,1.));
#189=DIRECTION('ref_axis',(-1.,0.,0.));
#190=DIRECTION('center_axis',(0.,0.,1.));
#191=DIRECTION('ref_axis',(-1.,0.,0.));
#192=DIRECTION('center_axis',(0.,0.,1.));
#193=DIRECTION('ref_axis',(1.,0.,0.));
#194=DIRECTION('center_axis',(0.,0.,1.));
#195=DIRECTION('ref_axis',(-1.,0.,0.));
#196=DIRECTION('center_axis',(0.,0.,1.));
#197=DIRECTION('ref_axis',(1.,0.,0.));
#198=DIRECTION('center_axis',(0.,0.,-1.));
#199=DIRECTION('ref_axis',(-1.,0.,0.));
#200=DIRECTION('center_axis',(0.,0.,1.));
#201=DIRECTION('ref_axis',(-1.,0.,0.));
#202=DIRECTION('center_axis',(0.,0.,-1.));
#203=DIRECTION('ref_axis',(-1.,0.,0.));
#204=DIRECTION('center_axis',(0.,0.,-1.));
#205=DIRECTION('ref_axis',(-1.,0.,0.));
#206=DIRECTION('center_axis',(0.,0.,-1.));
#207=DIRECTION('ref_axis',(-1.,0.,0.));
#208=DIRECTION('center_axis',(0.,0.,1.));
#209=DIRECTION('ref_axis',(1.,0.,0.));
#210=DIRECTION('center_axis',(0.,0.,1.));
#211=DIRECTION('ref_axis',(1.,0.,0.));
#212=CARTESIAN_POINT('',(0.,0.,0.));
#213=CARTESIAN_POINT('Origin',(0.,0.,170.5));
#214=CARTESIAN_POINT('',(157.5,-1.92881870865708E-14,170.5));
#215=CARTESIAN_POINT('Origin',(0.,0.,170.5));
#216=CARTESIAN_POINT('',(158.,1.93494194265282E-14,171.));
#217=CARTESIAN_POINT('Origin',(0.,0.,171.));
#218=CARTESIAN_POINT('Origin',(-1.2486277167083E-14,2.66870511083606E-15,
171.));
#219=CARTESIAN_POINT('',(177.,-2.16762483449081E-14,171.));
#220=CARTESIAN_POINT('Origin',(0.,0.,171.));
#221=CARTESIAN_POINT('Origin',(0.,0.,171.));
#222=CARTESIAN_POINT('',(157.5,1.92881870865708E-14,6.00000000000001));
#223=CARTESIAN_POINT('Origin',(0.,0.,6.00000000000001));
#224=CARTESIAN_POINT('Origin',(0.,0.,-170.5));
#225=CARTESIAN_POINT('',(177.5,-2.17374806848655E-14,-170.5));
#226=CARTESIAN_POINT('Origin',(0.,0.,-170.5));
#227=CARTESIAN_POINT('',(177.,2.16762483449081E-14,-171.));
#228=CARTESIAN_POINT('Origin',(0.,0.,-171.));
#229=CARTESIAN_POINT('Origin',(0.,0.,0.));
#230=CARTESIAN_POINT('',(177.5,2.17374806848655E-14,170.5));
#231=CARTESIAN_POINT('Origin',(0.,0.,170.5));
#232=CARTESIAN_POINT('Origin',(-1.2486277167083E-14,2.66870511083606E-15,
-171.));
#233=CARTESIAN_POINT('',(157.5,1.92881870865708E-14,-171.));
#234=CARTESIAN_POINT('Origin',(0.,0.,-171.));
#235=CARTESIAN_POINT('Origin',(0.,0.,170.5));
#236=CARTESIAN_POINT('Origin',(0.,0.,6.00000000000001));
#237=CARTESIAN_POINT('',(150.,1.83697019872103E-14,-6.00000000000001));
#238=CARTESIAN_POINT('Origin',(0.,0.,-6.00000000000001));
#239=CARTESIAN_POINT('',(150.,1.83697019872103E-14,6.00000000000001));
#240=CARTESIAN_POINT('Origin',(0.,0.,6.00000000000001));
#241=CARTESIAN_POINT('Origin',(0.,0.,-171.));
#242=CARTESIAN_POINT('',(157.5,1.92881870865708E-14,-6.00000000000001));
#243=CARTESIAN_POINT('Origin',(0.,0.,-6.00000000000001));
#244=CARTESIAN_POINT('Origin',(-7.6225255229082E-15,0.,-6.00000000000001));
#245=CARTESIAN_POINT('Origin',(-7.6225255229082E-15,0.,6.00000000000001));
#246=UNCERTAINTY_MEASURE_WITH_UNIT(LENGTH_MEASURE(0.01),#250,
'DISTANCE_ACCURACY_VALUE',
'Maximum model space distance between geometric entities at asserted c
onnectivities');
#247=UNCERTAINTY_MEASURE_WITH_UNIT(LENGTH_MEASURE(1.E-6),#250,
'DISTANCE_ACCURACY_VALUE',
'Maximum model space distance between geometric entities at asserted c
onnectivities');
#248=(
GEOMETRIC_REPRESENTATION_CONTEXT(3)
GLOBAL_UNCERTAINTY_ASSIGNED_CONTEXT((#246))
GLOBAL_UNIT_ASSIGNED_CONTEXT((#250,#253,#251))
REPRESENTATION_CONTEXT('','3D')
);
#249=(
GEOMETRIC_REPRESENTATION_CONTEXT(3)
GLOBAL_UNCERTAINTY_ASSIGNED_CONTEXT((#247))
GLOBAL_UNIT_ASSIGNED_CONTEXT((#250,#253,#251))
REPRESENTATION_CONTEXT('','3D')
);
#250=(
LENGTH_UNIT()
NAMED_UNIT(*)
SI_UNIT(.MILLI.,.METRE.)
);
#251=(
NAMED_UNIT(*)
SI_UNIT($,.STERADIAN.)
SOLID_ANGLE_UNIT()
);
#252=DIMENSIONAL_EXPONENTS(0.,0.,0.,0.,0.,0.,0.);
#253=(
CONVERSION_BASED_UNIT('degree',#255)
NAMED_UNIT(#252)
PLANE_ANGLE_UNIT()
);
#254=(
NAMED_UNIT(*)
PLANE_ANGLE_UNIT()
SI_UNIT($,.RADIAN.)
);
#255=PLANE_ANGLE_MEASURE_WITH_UNIT(PLANE_ANGLE_MEASURE(0.01745329252),#254);
#256=SHAPE_DEFINITION_REPRESENTATION(#257,#258);
#257=PRODUCT_DEFINITION_SHAPE('',$,#260);
#258=SHAPE_REPRESENTATION('',(#143),#248);
#259=PRODUCT_DEFINITION_CONTEXT('part definition',#264,'design');
#260=PRODUCT_DEFINITION('SO103150','SO103150',#261,#259);
#261=PRODUCT_DEFINITION_FORMATION('',$,#266);
#262=PRODUCT_RELATED_PRODUCT_CATEGORY('SO103150','SO103150',(#266));
#263=APPLICATION_PROTOCOL_DEFINITION('international standard',
'automotive_design',2009,#264);
#264=APPLICATION_CONTEXT(
'Core Data for Automotive Mechanical Design Process');
#265=PRODUCT_CONTEXT('part definition',#264,'mechanical');
#266=PRODUCT('SO103150','SO103150',$,(#265));
#267=PRESENTATION_STYLE_ASSIGNMENT((#269));
#268=PRESENTATION_STYLE_ASSIGNMENT((#270));
#269=SURFACE_STYLE_USAGE(.BOTH.,#271);
#270=SURFACE_STYLE_USAGE(.BOTH.,#272);
#271=SURFACE_SIDE_STYLE('',(#273));
#272=SURFACE_SIDE_STYLE('',(#274));
#273=SURFACE_STYLE_FILL_AREA(#275);
#274=SURFACE_STYLE_FILL_AREA(#276);
#275=FILL_AREA_STYLE('',(#277));
#276=FILL_AREA_STYLE('',(#278));
#277=FILL_AREA_STYLE_COLOUR('',#279);
#278=FILL_AREA_STYLE_COLOUR('',#280);
#279=COLOUR_RGB('',0.749019607843137,0.749019607843137,0.749019607843137);
#280=COLOUR_RGB('',0.92156862745098,0.92156862745098,0.92156862745098);
ENDSEC;
END-ISO-10303-21;
