ISO-10303-21;
HEADER;
/****************************************************************
 * Generated by software with PDE/Lib inside                    *
 * PDElib Version v51a, created Mon 03/22/2010                  *
 * International Technegroup Inc. (www.iti-oh.com)              *
 ****************************************************************/
FILE_DESCRIPTION((''),'2;1');
FILE_NAME('R:\\Neue Zeichnungdateien ab Januar 2010\\Edelstahlprodukte\\Verbindungsplatten\\Step\\130298.stp','2010-07-19T14:47:49',('DMK009'),(''),'Autodesk Inventor 2010','Autodesk Inventor 2010','');
FILE_SCHEMA(('AUTOMOTIVE_DESIGN { 1 0 10303 214 1 1 1 1 }'));
ENDSEC;
DATA;
#5=APPLICATION_CONTEXT('automotive design');
#6=APPLICATION_PROTOCOL_DEFINITION('International Standard','automotive_design',2001,#5);
#7=PRODUCT_CONTEXT('',#5,'mechanical');
#8=PRODUCT('T-Verbindungsplatte V2A 130298','T-Verbindungsplatte V2A 130298',$,(#7));
#9=PRODUCT_RELATED_PRODUCT_CATEGORY('part',$,(#8));
#10=PRODUCT_DEFINITION_FORMATION('',$,#8);
#11=PRODUCT_DEFINITION_CONTEXT('part definition',#5,'design');
#12=PRODUCT_DEFINITION('',$,#10,#11);
#18=(NAMED_UNIT(*)PLANE_ANGLE_UNIT()SI_UNIT($,.RADIAN.));
#19=DIMENSIONAL_EXPONENTS(0.0,0.0,0.0,0.0,0.0,0.0,0.0);
#20=PLANE_ANGLE_MEASURE_WITH_UNIT(PLANE_ANGLE_MEASURE(0.017453292500000),#18);
#24=(CONVERSION_BASED_UNIT('DEGREE',#20)NAMED_UNIT(#19)PLANE_ANGLE_UNIT());
#28=(NAMED_UNIT(*)SI_UNIT($,.STERADIAN.)SOLID_ANGLE_UNIT());
#32=(LENGTH_UNIT()NAMED_UNIT(*)SI_UNIT(.MILLI.,.METRE.));
#34=UNCERTAINTY_MEASURE_WITH_UNIT(LENGTH_MEASURE(0.010000000000000),#32,'DISTANCE_ACCURACY_VALUE','');
#36=(GEOMETRIC_REPRESENTATION_CONTEXT(3)GLOBAL_UNCERTAINTY_ASSIGNED_CONTEXT((#34))GLOBAL_UNIT_ASSIGNED_CONTEXT((#24,#28,#32))REPRESENTATION_CONTEXT('None','None'));
#37=AXIS2_PLACEMENT_3D('',#38,#39,#40);
#38=CARTESIAN_POINT('',(0.0,0.0,0.0));
#39=DIRECTION('',(0.0,0.0,1.0));
#40=DIRECTION('',(1.0,0.0,0.0));
#41=SHAPE_REPRESENTATION('',(#37),#36);
#42=PRODUCT_DEFINITION_SHAPE('','',#12);
#43=SHAPE_DEFINITION_REPRESENTATION(#42,#41);
#49=(NAMED_UNIT(*)PLANE_ANGLE_UNIT()SI_UNIT($,.RADIAN.));
#50=DIMENSIONAL_EXPONENTS(0.0,0.0,0.0,0.0,0.0,0.0,0.0);
#51=PLANE_ANGLE_MEASURE_WITH_UNIT(PLANE_ANGLE_MEASURE(0.017453292500000),#49);
#55=(CONVERSION_BASED_UNIT('DEGREE',#51)NAMED_UNIT(#50)PLANE_ANGLE_UNIT());
#59=(NAMED_UNIT(*)SI_UNIT($,.STERADIAN.)SOLID_ANGLE_UNIT());
#63=(LENGTH_UNIT()NAMED_UNIT(*)SI_UNIT(.MILLI.,.METRE.));
#65=UNCERTAINTY_MEASURE_WITH_UNIT(LENGTH_MEASURE(0.000001000000000),#63,'DISTANCE_ACCURACY_VALUE','');
#67=(GEOMETRIC_REPRESENTATION_CONTEXT(3)GLOBAL_UNCERTAINTY_ASSIGNED_CONTEXT((#65))GLOBAL_UNIT_ASSIGNED_CONTEXT((#55,#59,#63))REPRESENTATION_CONTEXT('','3D'));
#68=CARTESIAN_POINT('',(1.776357E-014,-40.0,0.0));
#69=DIRECTION('',(0.0,0.0,1.0));
#70=DIRECTION('',(-1.0,0.0,0.0));
#71=AXIS2_PLACEMENT_3D('',#68,#69,#70);
#72=CYLINDRICAL_SURFACE('',#71,5.500000000000000);
#73=CARTESIAN_POINT('',(5.500000000000018,-40.0,4.0));
#74=VERTEX_POINT('',#73);
#75=CARTESIAN_POINT('',(1.776357E-014,-40.0,4.0));
#76=DIRECTION('',(0.0,0.0,-1.0));
#77=DIRECTION('',(-1.0,0.0,0.0));
#78=AXIS2_PLACEMENT_3D('',#75,#76,#77);
#79=CIRCLE('',#78,5.500000000000000);
#80=EDGE_CURVE('',#74,#74,#79,.T.);
#81=ORIENTED_EDGE('',*,*,#80,.F.);
#82=EDGE_LOOP('',(#81));
#83=FACE_OUTER_BOUND('',#82,.T.);
#84=CARTESIAN_POINT('',(5.500000000000018,-40.0,0.0));
#85=VERTEX_POINT('',#84);
#86=CARTESIAN_POINT('',(1.776357E-014,-40.0,0.0));
#87=DIRECTION('',(0.0,0.0,1.0));
#88=DIRECTION('',(-1.0,0.0,0.0));
#89=AXIS2_PLACEMENT_3D('',#86,#87,#88);
#90=CIRCLE('',#89,5.500000000000000);
#91=EDGE_CURVE('',#85,#85,#90,.T.);
#92=ORIENTED_EDGE('',*,*,#91,.F.);
#93=EDGE_LOOP('',(#92));
#94=FACE_BOUND('',#93,.T.);
#95=ADVANCED_FACE('',(#83,#94),#72,.F.);
#96=CARTESIAN_POINT('',(0.0,40.0,0.0));
#97=DIRECTION('',(0.0,0.0,1.0));
#98=DIRECTION('',(-1.0,0.0,0.0));
#99=AXIS2_PLACEMENT_3D('',#96,#97,#98);
#100=CYLINDRICAL_SURFACE('',#99,5.500000000000000);
#101=CARTESIAN_POINT('',(5.500000000000000,40.0,4.0));
#102=VERTEX_POINT('',#101);
#103=CARTESIAN_POINT('',(0.0,40.0,4.0));
#104=DIRECTION('',(0.0,0.0,-1.0));
#105=DIRECTION('',(-1.0,0.0,0.0));
#106=AXIS2_PLACEMENT_3D('',#103,#104,#105);
#107=CIRCLE('',#106,5.500000000000000);
#108=EDGE_CURVE('',#102,#102,#107,.T.);
#109=ORIENTED_EDGE('',*,*,#108,.F.);
#110=EDGE_LOOP('',(#109));
#111=FACE_OUTER_BOUND('',#110,.T.);
#112=CARTESIAN_POINT('',(5.500000000000000,40.0,0.0));
#113=VERTEX_POINT('',#112);
#114=CARTESIAN_POINT('',(0.0,40.0,0.0));
#115=DIRECTION('',(0.0,0.0,1.0));
#116=DIRECTION('',(-1.0,0.0,0.0));
#117=AXIS2_PLACEMENT_3D('',#114,#115,#116);
#118=CIRCLE('',#117,5.500000000000000);
#119=EDGE_CURVE('',#113,#113,#118,.T.);
#120=ORIENTED_EDGE('',*,*,#119,.F.);
#121=EDGE_LOOP('',(#120));
#122=FACE_BOUND('',#121,.T.);
#123=ADVANCED_FACE('',(#111,#122),#100,.F.);
#124=CARTESIAN_POINT('',(80.0,0.0,0.0));
#125=DIRECTION('',(0.0,0.0,1.0));
#126=DIRECTION('',(-1.0,0.0,0.0));
#127=AXIS2_PLACEMENT_3D('',#124,#125,#126);
#128=CYLINDRICAL_SURFACE('',#127,5.500000000000000);
#129=CARTESIAN_POINT('',(85.500000000000000,6.735557E-016,4.0));
#130=VERTEX_POINT('',#129);
#131=CARTESIAN_POINT('',(80.0,0.0,4.0));
#132=DIRECTION('',(0.0,0.0,-1.0));
#133=DIRECTION('',(-1.0,0.0,0.0));
#134=AXIS2_PLACEMENT_3D('',#131,#132,#133);
#135=CIRCLE('',#134,5.500000000000000);
#136=EDGE_CURVE('',#130,#130,#135,.T.);
#137=ORIENTED_EDGE('',*,*,#136,.F.);
#138=EDGE_LOOP('',(#137));
#139=FACE_OUTER_BOUND('',#138,.T.);
#140=CARTESIAN_POINT('',(85.500000000000000,6.735557E-016,0.0));
#141=VERTEX_POINT('',#140);
#142=CARTESIAN_POINT('',(80.0,0.0,0.0));
#143=DIRECTION('',(0.0,0.0,1.0));
#144=DIRECTION('',(-1.0,0.0,0.0));
#145=AXIS2_PLACEMENT_3D('',#142,#143,#144);
#146=CIRCLE('',#145,5.500000000000000);
#147=EDGE_CURVE('',#141,#141,#146,.T.);
#148=ORIENTED_EDGE('',*,*,#147,.F.);
#149=EDGE_LOOP('',(#148));
#150=FACE_BOUND('',#149,.T.);
#151=ADVANCED_FACE('',(#139,#150),#128,.F.);
#152=CARTESIAN_POINT('',(40.0,0.0,0.0));
#153=DIRECTION('',(0.0,0.0,1.0));
#154=DIRECTION('',(-1.0,0.0,0.0));
#155=AXIS2_PLACEMENT_3D('',#152,#153,#154);
#156=CYLINDRICAL_SURFACE('',#155,5.500000000000000);
#157=CARTESIAN_POINT('',(45.500000000000000,6.735557E-016,4.0));
#158=VERTEX_POINT('',#157);
#159=CARTESIAN_POINT('',(40.0,0.0,4.0));
#160=DIRECTION('',(0.0,0.0,-1.0));
#161=DIRECTION('',(-1.0,0.0,0.0));
#162=AXIS2_PLACEMENT_3D('',#159,#160,#161);
#163=CIRCLE('',#162,5.500000000000000);
#164=EDGE_CURVE('',#158,#158,#163,.T.);
#165=ORIENTED_EDGE('',*,*,#164,.F.);
#166=EDGE_LOOP('',(#165));
#167=FACE_OUTER_BOUND('',#166,.T.);
#168=CARTESIAN_POINT('',(45.500000000000000,6.735557E-016,0.0));
#169=VERTEX_POINT('',#168);
#170=CARTESIAN_POINT('',(40.0,0.0,0.0));
#171=DIRECTION('',(0.0,0.0,1.0));
#172=DIRECTION('',(-1.0,0.0,0.0));
#173=AXIS2_PLACEMENT_3D('',#170,#171,#172);
#174=CIRCLE('',#173,5.500000000000000);
#175=EDGE_CURVE('',#169,#169,#174,.T.);
#176=ORIENTED_EDGE('',*,*,#175,.F.);
#177=EDGE_LOOP('',(#176));
#178=FACE_BOUND('',#177,.T.);
#179=ADVANCED_FACE('',(#167,#178),#156,.F.);
#180=CARTESIAN_POINT('',(0.0,0.0,0.0));
#181=DIRECTION('',(0.0,0.0,1.0));
#182=DIRECTION('',(-1.0,0.0,0.0));
#183=AXIS2_PLACEMENT_3D('',#180,#181,#182);
#184=CYLINDRICAL_SURFACE('',#183,5.500000000000000);
#185=CARTESIAN_POINT('',(5.500000000000000,6.735557E-016,4.0));
#186=VERTEX_POINT('',#185);
#187=CARTESIAN_POINT('',(0.0,0.0,4.0));
#188=DIRECTION('',(0.0,0.0,-1.0));
#189=DIRECTION('',(-1.0,0.0,0.0));
#190=AXIS2_PLACEMENT_3D('',#187,#188,#189);
#191=CIRCLE('',#190,5.500000000000000);
#192=EDGE_CURVE('',#186,#186,#191,.T.);
#193=ORIENTED_EDGE('',*,*,#192,.F.);
#194=EDGE_LOOP('',(#193));
#195=FACE_OUTER_BOUND('',#194,.T.);
#196=CARTESIAN_POINT('',(5.500000000000000,6.735557E-016,0.0));
#197=VERTEX_POINT('',#196);
#198=CARTESIAN_POINT('',(0.0,0.0,0.0));
#199=DIRECTION('',(0.0,0.0,1.0));
#200=DIRECTION('',(-1.0,0.0,0.0));
#201=AXIS2_PLACEMENT_3D('',#198,#199,#200);
#202=CIRCLE('',#201,5.500000000000000);
#203=EDGE_CURVE('',#197,#197,#202,.T.);
#204=ORIENTED_EDGE('',*,*,#203,.F.);
#205=EDGE_LOOP('',(#204));
#206=FACE_BOUND('',#205,.T.);
#207=ADVANCED_FACE('',(#195,#206),#184,.F.);
#208=CARTESIAN_POINT('',(-18.999999999999986,-59.0,0.0));
#209=DIRECTION('',(-1.0,0.0,0.0));
#210=DIRECTION('',(0.0,0.0,1.0));
#211=AXIS2_PLACEMENT_3D('',#208,#209,#210);
#212=PLANE('',#211);
#213=CARTESIAN_POINT('',(-18.999999999999986,-59.0,4.0));
#214=VERTEX_POINT('',#213);
#215=CARTESIAN_POINT('',(-18.999999999999986,58.999999999999993,4.0));
#216=VERTEX_POINT('',#215);
#217=CARTESIAN_POINT('',(-18.999999999999986,-59.000000000000007,4.0));
#218=DIRECTION('',(0.0,1.0,0.0));
#219=VECTOR('',#218,118.0);
#220=LINE('',#217,#219);
#221=EDGE_CURVE('',#214,#216,#220,.T.);
#222=ORIENTED_EDGE('',*,*,#221,.T.);
#223=CARTESIAN_POINT('',(-18.999999999999986,58.999999999999993,0.0));
#224=VERTEX_POINT('',#223);
#225=CARTESIAN_POINT('',(-18.999999999999986,58.999999999999993,0.0));
#226=DIRECTION('',(0.0,0.0,1.0));
#227=VECTOR('',#226,4.0);
#228=LINE('',#225,#227);
#229=EDGE_CURVE('',#224,#216,#228,.T.);
#230=ORIENTED_EDGE('',*,*,#229,.F.);
#231=CARTESIAN_POINT('',(-18.999999999999986,-59.0,0.0));
#232=VERTEX_POINT('',#231);
#233=CARTESIAN_POINT('',(-18.999999999999986,58.999999999999993,0.0));
#234=DIRECTION('',(0.0,-1.0,0.0));
#235=VECTOR('',#234,118.0);
#236=LINE('',#233,#235);
#237=EDGE_CURVE('',#224,#232,#236,.T.);
#238=ORIENTED_EDGE('',*,*,#237,.T.);
#239=CARTESIAN_POINT('',(-18.999999999999986,-59.0,0.0));
#240=DIRECTION('',(0.0,0.0,1.0));
#241=VECTOR('',#240,4.0);
#242=LINE('',#239,#241);
#243=EDGE_CURVE('',#232,#214,#242,.T.);
#244=ORIENTED_EDGE('',*,*,#243,.T.);
#245=EDGE_LOOP('',(#222,#230,#238,#244));
#246=FACE_OUTER_BOUND('',#245,.T.);
#247=ADVANCED_FACE('',(#246),#212,.T.);
#248=CARTESIAN_POINT('',(-18.999999999999986,58.999999999999993,0.0));
#249=DIRECTION('',(0.0,1.0,0.0));
#250=DIRECTION('',(0.0,0.0,1.0));
#251=AXIS2_PLACEMENT_3D('',#248,#249,#250);
#252=PLANE('',#251);
#253=CARTESIAN_POINT('',(19.000000000000018,58.999999999999993,4.0));
#254=VERTEX_POINT('',#253);
#255=CARTESIAN_POINT('',(-18.999999999999982,58.999999999999993,4.0));
#256=DIRECTION('',(1.0,0.0,0.0));
#257=VECTOR('',#256,38.0);
#258=LINE('',#255,#257);
#259=EDGE_CURVE('',#216,#254,#258,.T.);
#260=ORIENTED_EDGE('',*,*,#259,.T.);
#261=CARTESIAN_POINT('',(19.000000000000018,58.999999999999993,0.0));
#262=VERTEX_POINT('',#261);
#263=CARTESIAN_POINT('',(19.000000000000018,58.999999999999993,0.0));
#264=DIRECTION('',(0.0,0.0,1.0));
#265=VECTOR('',#264,4.0);
#266=LINE('',#263,#265);
#267=EDGE_CURVE('',#262,#254,#266,.T.);
#268=ORIENTED_EDGE('',*,*,#267,.F.);
#269=CARTESIAN_POINT('',(19.000000000000018,58.999999999999993,0.0));
#270=DIRECTION('',(-1.0,0.0,0.0));
#271=VECTOR('',#270,38.0);
#272=LINE('',#269,#271);
#273=EDGE_CURVE('',#262,#224,#272,.T.);
#274=ORIENTED_EDGE('',*,*,#273,.T.);
#275=ORIENTED_EDGE('',*,*,#229,.T.);
#276=EDGE_LOOP('',(#260,#268,#274,#275));
#277=FACE_OUTER_BOUND('',#276,.T.);
#278=ADVANCED_FACE('',(#277),#252,.T.);
#279=CARTESIAN_POINT('',(19.000000000000018,58.999999999999993,0.0));
#280=DIRECTION('',(1.0,0.0,0.0));
#281=DIRECTION('',(0.0,0.0,-1.0));
#282=AXIS2_PLACEMENT_3D('',#279,#280,#281);
#283=PLANE('',#282);
#284=CARTESIAN_POINT('',(19.000000000000018,18.999999999999993,4.0));
#285=VERTEX_POINT('',#284);
#286=CARTESIAN_POINT('',(19.000000000000018,58.999999999999993,4.0));
#287=DIRECTION('',(0.0,-1.0,0.0));
#288=VECTOR('',#287,40.0);
#289=LINE('',#286,#288);
#290=EDGE_CURVE('',#254,#285,#289,.T.);
#291=ORIENTED_EDGE('',*,*,#290,.T.);
#292=CARTESIAN_POINT('',(19.000000000000018,18.999999999999993,0.0));
#293=VERTEX_POINT('',#292);
#294=CARTESIAN_POINT('',(19.000000000000018,18.999999999999993,0.0));
#295=DIRECTION('',(0.0,0.0,1.0));
#296=VECTOR('',#295,4.0);
#297=LINE('',#294,#296);
#298=EDGE_CURVE('',#293,#285,#297,.T.);
#299=ORIENTED_EDGE('',*,*,#298,.F.);
#300=CARTESIAN_POINT('',(19.000000000000018,18.999999999999993,0.0));
#301=DIRECTION('',(0.0,1.0,0.0));
#302=VECTOR('',#301,40.0);
#303=LINE('',#300,#302);
#304=EDGE_CURVE('',#293,#262,#303,.T.);
#305=ORIENTED_EDGE('',*,*,#304,.T.);
#306=ORIENTED_EDGE('',*,*,#267,.T.);
#307=EDGE_LOOP('',(#291,#299,#305,#306));
#308=FACE_OUTER_BOUND('',#307,.T.);
#309=ADVANCED_FACE('',(#308),#283,.T.);
#310=CARTESIAN_POINT('',(19.000000000000018,18.999999999999993,0.0));
#311=DIRECTION('',(0.0,1.0,0.0));
#312=DIRECTION('',(0.0,0.0,1.0));
#313=AXIS2_PLACEMENT_3D('',#310,#311,#312);
#314=PLANE('',#313);
#315=CARTESIAN_POINT('',(99.000000000000028,18.999999999999993,4.0));
#316=VERTEX_POINT('',#315);
#317=CARTESIAN_POINT('',(19.000000000000028,18.999999999999993,4.0));
#318=DIRECTION('',(1.0,0.0,0.0));
#319=VECTOR('',#318,80.0);
#320=LINE('',#317,#319);
#321=EDGE_CURVE('',#285,#316,#320,.T.);
#322=ORIENTED_EDGE('',*,*,#321,.T.);
#323=CARTESIAN_POINT('',(99.000000000000028,18.999999999999993,0.0));
#324=VERTEX_POINT('',#323);
#325=CARTESIAN_POINT('',(99.000000000000028,18.999999999999993,0.0));
#326=DIRECTION('',(0.0,0.0,1.0));
#327=VECTOR('',#326,4.0);
#328=LINE('',#325,#327);
#329=EDGE_CURVE('',#324,#316,#328,.T.);
#330=ORIENTED_EDGE('',*,*,#329,.F.);
#331=CARTESIAN_POINT('',(99.000000000000028,18.999999999999993,0.0));
#332=DIRECTION('',(-1.0,0.0,0.0));
#333=VECTOR('',#332,80.0);
#334=LINE('',#331,#333);
#335=EDGE_CURVE('',#324,#293,#334,.T.);
#336=ORIENTED_EDGE('',*,*,#335,.T.);
#337=ORIENTED_EDGE('',*,*,#298,.T.);
#338=EDGE_LOOP('',(#322,#330,#336,#337));
#339=FACE_OUTER_BOUND('',#338,.T.);
#340=ADVANCED_FACE('',(#339),#314,.T.);
#341=CARTESIAN_POINT('',(99.000000000000028,18.999999999999993,0.0));
#342=DIRECTION('',(1.0,0.0,0.0));
#343=DIRECTION('',(0.0,0.0,-1.0));
#344=AXIS2_PLACEMENT_3D('',#341,#342,#343);
#345=PLANE('',#344);
#346=CARTESIAN_POINT('',(99.000000000000028,-19.000000000000004,4.0));
#347=VERTEX_POINT('',#346);
#348=CARTESIAN_POINT('',(99.000000000000028,18.999999999999996,4.0));
#349=DIRECTION('',(0.0,-1.0,0.0));
#350=VECTOR('',#349,38.0);
#351=LINE('',#348,#350);
#352=EDGE_CURVE('',#316,#347,#351,.T.);
#353=ORIENTED_EDGE('',*,*,#352,.T.);
#354=CARTESIAN_POINT('',(99.000000000000028,-19.000000000000004,0.0));
#355=VERTEX_POINT('',#354);
#356=CARTESIAN_POINT('',(99.000000000000028,-19.000000000000004,0.0));
#357=DIRECTION('',(0.0,0.0,1.0));
#358=VECTOR('',#357,4.0);
#359=LINE('',#356,#358);
#360=EDGE_CURVE('',#355,#347,#359,.T.);
#361=ORIENTED_EDGE('',*,*,#360,.F.);
#362=CARTESIAN_POINT('',(99.000000000000028,-19.000000000000004,0.0));
#363=DIRECTION('',(0.0,1.0,0.0));
#364=VECTOR('',#363,38.0);
#365=LINE('',#362,#364);
#366=EDGE_CURVE('',#355,#324,#365,.T.);
#367=ORIENTED_EDGE('',*,*,#366,.T.);
#368=ORIENTED_EDGE('',*,*,#329,.T.);
#369=EDGE_LOOP('',(#353,#361,#367,#368));
#370=FACE_OUTER_BOUND('',#369,.T.);
#371=ADVANCED_FACE('',(#370),#345,.T.);
#372=CARTESIAN_POINT('',(99.000000000000028,-19.000000000000004,0.0));
#373=DIRECTION('',(0.0,-1.0,0.0));
#374=DIRECTION('',(0.0,0.0,-1.0));
#375=AXIS2_PLACEMENT_3D('',#372,#373,#374);
#376=PLANE('',#375);
#377=CARTESIAN_POINT('',(19.000000000000018,-19.000000000000004,4.0));
#378=VERTEX_POINT('',#377);
#379=CARTESIAN_POINT('',(99.000000000000014,-19.000000000000004,4.0));
#380=DIRECTION('',(-1.0,0.0,0.0));
#381=VECTOR('',#380,80.0);
#382=LINE('',#379,#381);
#383=EDGE_CURVE('',#347,#378,#382,.T.);
#384=ORIENTED_EDGE('',*,*,#383,.T.);
#385=CARTESIAN_POINT('',(19.000000000000018,-19.000000000000004,0.0));
#386=VERTEX_POINT('',#385);
#387=CARTESIAN_POINT('',(19.000000000000018,-19.000000000000004,0.0));
#388=DIRECTION('',(0.0,0.0,1.0));
#389=VECTOR('',#388,4.0);
#390=LINE('',#387,#389);
#391=EDGE_CURVE('',#386,#378,#390,.T.);
#392=ORIENTED_EDGE('',*,*,#391,.F.);
#393=CARTESIAN_POINT('',(19.000000000000018,-19.000000000000004,0.0));
#394=DIRECTION('',(1.0,0.0,0.0));
#395=VECTOR('',#394,80.0);
#396=LINE('',#393,#395);
#397=EDGE_CURVE('',#386,#355,#396,.T.);
#398=ORIENTED_EDGE('',*,*,#397,.T.);
#399=ORIENTED_EDGE('',*,*,#360,.T.);
#400=EDGE_LOOP('',(#384,#392,#398,#399));
#401=FACE_OUTER_BOUND('',#400,.T.);
#402=ADVANCED_FACE('',(#401),#376,.T.);
#403=CARTESIAN_POINT('',(19.000000000000018,-19.000000000000004,0.0));
#404=DIRECTION('',(1.0,0.0,0.0));
#405=DIRECTION('',(0.0,0.0,-1.0));
#406=AXIS2_PLACEMENT_3D('',#403,#404,#405);
#407=PLANE('',#406);
#408=CARTESIAN_POINT('',(19.000000000000018,-59.0,4.0));
#409=VERTEX_POINT('',#408);
#410=CARTESIAN_POINT('',(19.000000000000018,-19.0,4.0));
#411=DIRECTION('',(0.0,-1.0,0.0));
#412=VECTOR('',#411,40.0);
#413=LINE('',#410,#412);
#414=EDGE_CURVE('',#378,#409,#413,.T.);
#415=ORIENTED_EDGE('',*,*,#414,.T.);
#416=CARTESIAN_POINT('',(19.000000000000018,-59.0,0.0));
#417=VERTEX_POINT('',#416);
#418=CARTESIAN_POINT('',(19.000000000000018,-59.0,0.0));
#419=DIRECTION('',(0.0,0.0,1.0));
#420=VECTOR('',#419,4.0);
#421=LINE('',#418,#420);
#422=EDGE_CURVE('',#417,#409,#421,.T.);
#423=ORIENTED_EDGE('',*,*,#422,.F.);
#424=CARTESIAN_POINT('',(19.000000000000018,-59.0,0.0));
#425=DIRECTION('',(0.0,1.0,0.0));
#426=VECTOR('',#425,40.0);
#427=LINE('',#424,#426);
#428=EDGE_CURVE('',#417,#386,#427,.T.);
#429=ORIENTED_EDGE('',*,*,#428,.T.);
#430=ORIENTED_EDGE('',*,*,#391,.T.);
#431=EDGE_LOOP('',(#415,#423,#429,#430));
#432=FACE_OUTER_BOUND('',#431,.T.);
#433=ADVANCED_FACE('',(#432),#407,.T.);
#434=CARTESIAN_POINT('',(19.000000000000018,-59.0,0.0));
#435=DIRECTION('',(0.0,-1.0,0.0));
#436=DIRECTION('',(0.0,0.0,-1.0));
#437=AXIS2_PLACEMENT_3D('',#434,#435,#436);
#438=PLANE('',#437);
#439=CARTESIAN_POINT('',(19.000000000000014,-59.0,4.0));
#440=DIRECTION('',(-1.0,0.0,0.0));
#441=VECTOR('',#440,38.0);
#442=LINE('',#439,#441);
#443=EDGE_CURVE('',#409,#214,#442,.T.);
#444=ORIENTED_EDGE('',*,*,#443,.T.);
#445=ORIENTED_EDGE('',*,*,#243,.F.);
#446=CARTESIAN_POINT('',(-18.999999999999986,-59.0,0.0));
#447=DIRECTION('',(1.0,0.0,0.0));
#448=VECTOR('',#447,38.0);
#449=LINE('',#446,#448);
#450=EDGE_CURVE('',#232,#417,#449,.T.);
#451=ORIENTED_EDGE('',*,*,#450,.T.);
#452=ORIENTED_EDGE('',*,*,#422,.T.);
#453=EDGE_LOOP('',(#444,#445,#451,#452));
#454=FACE_OUTER_BOUND('',#453,.T.);
#455=ADVANCED_FACE('',(#454),#438,.T.);
#456=CARTESIAN_POINT('',(26.440677966101710,-4.440892E-015,0.0));
#457=DIRECTION('',(0.0,0.0,1.0));
#458=DIRECTION('',(1.0,0.0,0.0));
#459=AXIS2_PLACEMENT_3D('',#456,#457,#458);
#460=PLANE('',#459);
#461=ORIENTED_EDGE('',*,*,#450,.F.);
#462=ORIENTED_EDGE('',*,*,#237,.F.);
#463=ORIENTED_EDGE('',*,*,#273,.F.);
#464=ORIENTED_EDGE('',*,*,#304,.F.);
#465=ORIENTED_EDGE('',*,*,#335,.F.);
#466=ORIENTED_EDGE('',*,*,#366,.F.);
#467=ORIENTED_EDGE('',*,*,#397,.F.);
#468=ORIENTED_EDGE('',*,*,#428,.F.);
#469=EDGE_LOOP('',(#461,#462,#463,#464,#465,#466,#467,#468));
#470=FACE_OUTER_BOUND('',#469,.T.);
#471=ORIENTED_EDGE('',*,*,#91,.T.);
#472=EDGE_LOOP('',(#471));
#473=FACE_BOUND('',#472,.T.);
#474=ORIENTED_EDGE('',*,*,#119,.T.);
#475=EDGE_LOOP('',(#474));
#476=FACE_BOUND('',#475,.T.);
#477=ORIENTED_EDGE('',*,*,#147,.T.);
#478=EDGE_LOOP('',(#477));
#479=FACE_BOUND('',#478,.T.);
#480=ORIENTED_EDGE('',*,*,#175,.T.);
#481=EDGE_LOOP('',(#480));
#482=FACE_BOUND('',#481,.T.);
#483=ORIENTED_EDGE('',*,*,#203,.T.);
#484=EDGE_LOOP('',(#483));
#485=FACE_BOUND('',#484,.T.);
#486=ADVANCED_FACE('',(#470,#473,#476,#479,#482,#485),#460,.F.);
#487=CARTESIAN_POINT('',(26.440677966101703,-4.491357E-015,4.0));
#488=DIRECTION('',(0.0,0.0,1.0));
#489=DIRECTION('',(1.0,0.0,0.0));
#490=AXIS2_PLACEMENT_3D('',#487,#488,#489);
#491=PLANE('',#490);
#492=ORIENTED_EDGE('',*,*,#221,.F.);
#493=ORIENTED_EDGE('',*,*,#443,.F.);
#494=ORIENTED_EDGE('',*,*,#414,.F.);
#495=ORIENTED_EDGE('',*,*,#383,.F.);
#496=ORIENTED_EDGE('',*,*,#352,.F.);
#497=ORIENTED_EDGE('',*,*,#321,.F.);
#498=ORIENTED_EDGE('',*,*,#290,.F.);
#499=ORIENTED_EDGE('',*,*,#259,.F.);
#500=EDGE_LOOP('',(#492,#493,#494,#495,#496,#497,#498,#499));
#501=FACE_OUTER_BOUND('',#500,.T.);
#502=ORIENTED_EDGE('',*,*,#80,.T.);
#503=EDGE_LOOP('',(#502));
#504=FACE_BOUND('',#503,.T.);
#505=ORIENTED_EDGE('',*,*,#108,.T.);
#506=EDGE_LOOP('',(#505));
#507=FACE_BOUND('',#506,.T.);
#508=ORIENTED_EDGE('',*,*,#136,.T.);
#509=EDGE_LOOP('',(#508));
#510=FACE_BOUND('',#509,.T.);
#511=ORIENTED_EDGE('',*,*,#164,.T.);
#512=EDGE_LOOP('',(#511));
#513=FACE_BOUND('',#512,.T.);
#514=ORIENTED_EDGE('',*,*,#192,.T.);
#515=EDGE_LOOP('',(#514));
#516=FACE_BOUND('',#515,.T.);
#517=ADVANCED_FACE('',(#501,#504,#507,#510,#513,#516),#491,.T.);
#518=CLOSED_SHELL('',(#95,#123,#151,#179,#207,#247,#278,#309,#340,#371,#402,#433,#455,#486,#517));
#519=MANIFOLD_SOLID_BREP('Volumenk\S\vrper1',#518);
#520=COLOUR_RGB('Metall - Stahl',0.639216005802155,0.639216005802155,0.686275005340576);
#521=FILL_AREA_STYLE_COLOUR('Metall - Stahl',#520);
#522=FILL_AREA_STYLE('Metall - Stahl',(#521));
#523=SURFACE_STYLE_FILL_AREA(#522);
#524=SURFACE_SIDE_STYLE('Metall - Stahl',(#523));
#525=SURFACE_STYLE_USAGE(.BOTH.,#524);
#526=PRESENTATION_STYLE_ASSIGNMENT((#525));
#527=STYLED_ITEM('',(#526),#519);
#528=MECHANICAL_DESIGN_GEOMETRIC_PRESENTATION_REPRESENTATION('',(#527),#36);
#529=ADVANCED_BREP_SHAPE_REPRESENTATION('ABSR',(#519),#36);
#530=SHAPE_REPRESENTATION_RELATIONSHIP('SRR','None',#529,#41);
ENDSEC;
END-ISO-10303-21;
