ISO-10303-21;
HEADER;
/* Generated by software containing ST-Developer
 * from STEP Tools, Inc. (www.steptools.com) 
 */

FILE_DESCRIPTION(
/* description */ (''),
/* implementation_level */ '2;1');

FILE_NAME(
/* name */ 'C:\\Users\\Gabriele\\Desktop\\catalogo\\EL50\\EL500160.stp',

/* time_stamp */ '2016-10-17T17:03:09+02:00',
/* author */ ('Gabriele'),
/* organization */ (''),
/* preprocessor_version */ 'ST-DEVELOPER v16.5',
/* originating_system */ 'Autodesk Inventor 2017',
/* authorisation */ '');

FILE_SCHEMA (('AUTOMOTIVE_DESIGN { 1 0 10303 214 3 1 1 }'));
ENDSEC;

DATA;
#10=MECHANICAL_DESIGN_GEOMETRIC_PRESENTATION_REPRESENTATION('',(#13),#423);
#11=SHAPE_REPRESENTATION_RELATIONSHIP('SRR','None',#432,#12);
#12=ADVANCED_BREP_SHAPE_REPRESENTATION('',(#14),#422);
#13=STYLED_ITEM('',(#441),#14);
#14=MANIFOLD_SOLID_BREP('Solido1',#189);
#15=PLANE('',#200);
#16=PLANE('',#210);
#17=PLANE('',#218);
#18=PLANE('',#219);
#19=TOROIDAL_SURFACE('',#197,8.5,0.5);
#20=TOROIDAL_SURFACE('',#204,11.25,0.5);
#21=TOROIDAL_SURFACE('',#207,8.5,0.5);
#22=TOROIDAL_SURFACE('',#214,11.25,0.5);
#23=TOROIDAL_SURFACE('',#215,9.,7.5);
#24=FACE_BOUND('',#74,.T.);
#25=FACE_BOUND('',#76,.T.);
#26=FACE_BOUND('',#78,.T.);
#27=FACE_BOUND('',#80,.T.);
#28=FACE_BOUND('',#82,.T.);
#29=FACE_BOUND('',#84,.T.);
#30=FACE_BOUND('',#86,.T.);
#31=FACE_BOUND('',#88,.T.);
#32=FACE_BOUND('',#90,.T.);
#33=FACE_BOUND('',#92,.T.);
#34=FACE_BOUND('',#94,.T.);
#35=FACE_BOUND('',#96,.T.);
#36=FACE_BOUND('',#98,.T.);
#37=CYLINDRICAL_SURFACE('',#195,11.75);
#38=CYLINDRICAL_SURFACE('',#202,8.);
#39=CYLINDRICAL_SURFACE('',#206,11.75);
#40=CYLINDRICAL_SURFACE('',#212,8.);
#41=CIRCLE('',#193,11.75);
#42=CIRCLE('',#194,11.75);
#43=CIRCLE('',#196,11.75);
#44=CIRCLE('',#198,8.);
#45=CIRCLE('',#199,8.5);
#46=CIRCLE('',#201,11.25);
#47=CIRCLE('',#203,8.);
#48=CIRCLE('',#205,11.75);
#49=CIRCLE('',#208,8.);
#50=CIRCLE('',#209,8.5);
#51=CIRCLE('',#211,11.25);
#52=CIRCLE('',#213,8.);
#53=CIRCLE('',#216,7.5);
#54=CIRCLE('',#217,7.5);
#55=(
BOUNDED_SURFACE()
B_SPLINE_SURFACE(2,2,((#354,#355,#356),(#357,#358,#359),(#360,#361,#362),
(#363,#364,#365),(#366,#367,#368),(#369,#370,#371),(#372,#373,#374),(#375,
#376,#377),(#378,#379,#380)),.UNSPECIFIED.,.F.,.F.,.F.)
B_SPLINE_SURFACE_WITH_KNOTS((3,2,2,2,3),(3,3),(-2.39980580720227,-1.1999029036011,
6.23945339839338E-14,1.19990290360123,2.3998058072024),(0.,1.57079632679492),
 .UNSPECIFIED.)
GEOMETRIC_REPRESENTATION_ITEM()
RATIONAL_B_SPLINE_SURFACE(((1.,0.70710678118654,1.),(0.825363026312436,
0.583619792846168,0.825363026312436),(1.,0.70710678118654,1.),(0.825363026312436,
0.583619792846168,0.825363026312436),(1.,0.70710678118654,1.),(0.825363026312436,
0.583619792846168,0.825363026312436),(1.,0.70710678118654,1.),(0.825363026312437,
0.583619792846169,0.825363026312437),(1.,0.70710678118654,1.)))
REPRESENTATION_ITEM('')
SURFACE()
);
#56=FACE_OUTER_BOUND('',#71,.T.);
#57=FACE_OUTER_BOUND('',#72,.T.);
#58=FACE_OUTER_BOUND('',#73,.T.);
#59=FACE_OUTER_BOUND('',#75,.T.);
#60=FACE_OUTER_BOUND('',#77,.T.);
#61=FACE_OUTER_BOUND('',#79,.T.);
#62=FACE_OUTER_BOUND('',#81,.T.);
#63=FACE_OUTER_BOUND('',#83,.T.);
#64=FACE_OUTER_BOUND('',#85,.T.);
#65=FACE_OUTER_BOUND('',#87,.T.);
#66=FACE_OUTER_BOUND('',#89,.T.);
#67=FACE_OUTER_BOUND('',#91,.T.);
#68=FACE_OUTER_BOUND('',#93,.T.);
#69=FACE_OUTER_BOUND('',#95,.T.);
#70=FACE_OUTER_BOUND('',#97,.T.);
#71=EDGE_LOOP('',(#137,#138,#139,#140));
#72=EDGE_LOOP('',(#141,#142,#143,#144));
#73=EDGE_LOOP('',(#145));
#74=EDGE_LOOP('',(#146,#147));
#75=EDGE_LOOP('',(#148));
#76=EDGE_LOOP('',(#149));
#77=EDGE_LOOP('',(#150));
#78=EDGE_LOOP('',(#151));
#79=EDGE_LOOP('',(#152));
#80=EDGE_LOOP('',(#153));
#81=EDGE_LOOP('',(#154));
#82=EDGE_LOOP('',(#155));
#83=EDGE_LOOP('',(#156,#157));
#84=EDGE_LOOP('',(#158));
#85=EDGE_LOOP('',(#159));
#86=EDGE_LOOP('',(#160));
#87=EDGE_LOOP('',(#161));
#88=EDGE_LOOP('',(#162));
#89=EDGE_LOOP('',(#163));
#90=EDGE_LOOP('',(#164));
#91=EDGE_LOOP('',(#165));
#92=EDGE_LOOP('',(#166));
#93=EDGE_LOOP('',(#167));
#94=EDGE_LOOP('',(#168));
#95=EDGE_LOOP('',(#169));
#96=EDGE_LOOP('',(#170));
#97=EDGE_LOOP('',(#171));
#98=EDGE_LOOP('',(#172));
#99=ELLIPSE('',#191,16.974245196768,11.75);
#100=ELLIPSE('',#192,16.974245196768,11.75);
#101=B_SPLINE_CURVE_WITH_KNOTS('',3,(#318,#319,#320,#321,#322,#323,#324,
#325,#326,#327,#328,#329,#330,#331,#332,#333),.UNSPECIFIED.,.F.,.F.,(4,
3,3,3,3,4),(-0.000266820989473841,0.0100374482367193,0.0198353659659311,
0.0275701408787397,0.0368934651987194,0.0554715172291717),.UNSPECIFIED.);
#102=B_SPLINE_CURVE_WITH_KNOTS('',3,(#337,#338,#339,#340,#341,#342,#343,
#344,#345,#346,#347,#348,#349,#350,#351,#352),.UNSPECIFIED.,.F.,.F.,(4,
3,3,3,3,4),(-0.000266820988547686,0.0183290054172882,0.0276612497103988,
0.0354034247611123,0.0452107165212809,0.0555248442247116),.UNSPECIFIED.);
#103=VERTEX_POINT('',#316);
#104=VERTEX_POINT('',#317);
#105=VERTEX_POINT('',#334);
#106=VERTEX_POINT('',#336);
#107=VERTEX_POINT('',#384);
#108=VERTEX_POINT('',#387);
#109=VERTEX_POINT('',#389);
#110=VERTEX_POINT('',#392);
#111=VERTEX_POINT('',#395);
#112=VERTEX_POINT('',#398);
#113=VERTEX_POINT('',#402);
#114=VERTEX_POINT('',#404);
#115=VERTEX_POINT('',#407);
#116=VERTEX_POINT('',#410);
#117=VERTEX_POINT('',#414);
#118=VERTEX_POINT('',#416);
#119=EDGE_CURVE('',#103,#104,#101,.T.);
#120=EDGE_CURVE('',#103,#105,#99,.T.);
#121=EDGE_CURVE('',#106,#105,#102,.T.);
#122=EDGE_CURVE('',#106,#104,#100,.T.);
#123=EDGE_CURVE('',#105,#103,#41,.T.);
#124=EDGE_CURVE('',#106,#104,#42,.T.);
#125=EDGE_CURVE('',#107,#107,#43,.T.);
#126=EDGE_CURVE('',#108,#108,#44,.T.);
#127=EDGE_CURVE('',#109,#109,#45,.T.);
#128=EDGE_CURVE('',#110,#110,#46,.T.);
#129=EDGE_CURVE('',#111,#111,#47,.T.);
#130=EDGE_CURVE('',#112,#112,#48,.T.);
#131=EDGE_CURVE('',#113,#113,#49,.T.);
#132=EDGE_CURVE('',#114,#114,#50,.T.);
#133=EDGE_CURVE('',#115,#115,#51,.T.);
#134=EDGE_CURVE('',#116,#116,#52,.T.);
#135=EDGE_CURVE('',#117,#117,#53,.T.);
#136=EDGE_CURVE('',#118,#118,#54,.T.);
#137=ORIENTED_EDGE('',*,*,#119,.F.);
#138=ORIENTED_EDGE('',*,*,#120,.T.);
#139=ORIENTED_EDGE('',*,*,#121,.F.);
#140=ORIENTED_EDGE('',*,*,#122,.T.);
#141=ORIENTED_EDGE('',*,*,#121,.T.);
#142=ORIENTED_EDGE('',*,*,#123,.T.);
#143=ORIENTED_EDGE('',*,*,#119,.T.);
#144=ORIENTED_EDGE('',*,*,#124,.F.);
#145=ORIENTED_EDGE('',*,*,#125,.F.);
#146=ORIENTED_EDGE('',*,*,#120,.F.);
#147=ORIENTED_EDGE('',*,*,#123,.F.);
#148=ORIENTED_EDGE('',*,*,#126,.T.);
#149=ORIENTED_EDGE('',*,*,#127,.T.);
#150=ORIENTED_EDGE('',*,*,#128,.F.);
#151=ORIENTED_EDGE('',*,*,#127,.F.);
#152=ORIENTED_EDGE('',*,*,#129,.F.);
#153=ORIENTED_EDGE('',*,*,#126,.F.);
#154=ORIENTED_EDGE('',*,*,#130,.T.);
#155=ORIENTED_EDGE('',*,*,#128,.T.);
#156=ORIENTED_EDGE('',*,*,#122,.F.);
#157=ORIENTED_EDGE('',*,*,#124,.T.);
#158=ORIENTED_EDGE('',*,*,#130,.F.);
#159=ORIENTED_EDGE('',*,*,#131,.T.);
#160=ORIENTED_EDGE('',*,*,#132,.T.);
#161=ORIENTED_EDGE('',*,*,#133,.F.);
#162=ORIENTED_EDGE('',*,*,#132,.F.);
#163=ORIENTED_EDGE('',*,*,#134,.T.);
#164=ORIENTED_EDGE('',*,*,#131,.F.);
#165=ORIENTED_EDGE('',*,*,#133,.T.);
#166=ORIENTED_EDGE('',*,*,#125,.T.);
#167=ORIENTED_EDGE('',*,*,#135,.F.);
#168=ORIENTED_EDGE('',*,*,#136,.F.);
#169=ORIENTED_EDGE('',*,*,#129,.T.);
#170=ORIENTED_EDGE('',*,*,#135,.T.);
#171=ORIENTED_EDGE('',*,*,#134,.F.);
#172=ORIENTED_EDGE('',*,*,#136,.T.);
#173=B_SPLINE_SURFACE_WITH_KNOTS('',3,3,((#281,#282,#283,#284,#285,#286,
#287),(#288,#289,#290,#291,#292,#293,#294),(#295,#296,#297,#298,#299,#300,
#301),(#302,#303,#304,#305,#306,#307,#308),(#309,#310,#311,#312,#313,#314,
#315)),.UNSPECIFIED.,.F.,.F.,.F.,(4,1,4),(4,1,1,1,4),(0.,0.5,1.),(-0.748706071815664,
-0.427832041037544,-0.106958010259425,0.320874030778068,0.74870607181556),
 .UNSPECIFIED.);
#174=ADVANCED_FACE('',(#56),#173,.T.);
#175=ADVANCED_FACE('',(#57),#55,.F.);
#176=ADVANCED_FACE('',(#58,#24),#37,.T.);
#177=ADVANCED_FACE('',(#59,#25),#19,.T.);
#178=ADVANCED_FACE('',(#60,#26),#15,.T.);
#179=ADVANCED_FACE('',(#61,#27),#38,.F.);
#180=ADVANCED_FACE('',(#62,#28),#20,.T.);
#181=ADVANCED_FACE('',(#63,#29),#39,.T.);
#182=ADVANCED_FACE('',(#64,#30),#21,.T.);
#183=ADVANCED_FACE('',(#65,#31),#16,.F.);
#184=ADVANCED_FACE('',(#66,#32),#40,.F.);
#185=ADVANCED_FACE('',(#67,#33),#22,.T.);
#186=ADVANCED_FACE('',(#68,#34),#23,.F.);
#187=ADVANCED_FACE('',(#69,#35),#17,.T.);
#188=ADVANCED_FACE('',(#70,#36),#18,.F.);
#189=CLOSED_SHELL('',(#174,#175,#176,#177,#178,#179,#180,#181,#182,#183,
#184,#185,#186,#187,#188));
#190=AXIS2_PLACEMENT_3D('placement',#280,#220,#221);
#191=AXIS2_PLACEMENT_3D('',#335,#222,#223);
#192=AXIS2_PLACEMENT_3D('',#353,#224,#225);
#193=AXIS2_PLACEMENT_3D('',#381,#226,#227);
#194=AXIS2_PLACEMENT_3D('',#382,#228,#229);
#195=AXIS2_PLACEMENT_3D('',#383,#230,#231);
#196=AXIS2_PLACEMENT_3D('',#385,#232,#233);
#197=AXIS2_PLACEMENT_3D('',#386,#234,#235);
#198=AXIS2_PLACEMENT_3D('',#388,#236,#237);
#199=AXIS2_PLACEMENT_3D('',#390,#238,#239);
#200=AXIS2_PLACEMENT_3D('',#391,#240,#241);
#201=AXIS2_PLACEMENT_3D('',#393,#242,#243);
#202=AXIS2_PLACEMENT_3D('',#394,#244,#245);
#203=AXIS2_PLACEMENT_3D('',#396,#246,#247);
#204=AXIS2_PLACEMENT_3D('',#397,#248,#249);
#205=AXIS2_PLACEMENT_3D('',#399,#250,#251);
#206=AXIS2_PLACEMENT_3D('',#400,#252,#253);
#207=AXIS2_PLACEMENT_3D('',#401,#254,#255);
#208=AXIS2_PLACEMENT_3D('',#403,#256,#257);
#209=AXIS2_PLACEMENT_3D('',#405,#258,#259);
#210=AXIS2_PLACEMENT_3D('',#406,#260,#261);
#211=AXIS2_PLACEMENT_3D('',#408,#262,#263);
#212=AXIS2_PLACEMENT_3D('',#409,#264,#265);
#213=AXIS2_PLACEMENT_3D('',#411,#266,#267);
#214=AXIS2_PLACEMENT_3D('',#412,#268,#269);
#215=AXIS2_PLACEMENT_3D('',#413,#270,#271);
#216=AXIS2_PLACEMENT_3D('',#415,#272,#273);
#217=AXIS2_PLACEMENT_3D('',#417,#274,#275);
#218=AXIS2_PLACEMENT_3D('',#418,#276,#277);
#219=AXIS2_PLACEMENT_3D('',#419,#278,#279);
#220=DIRECTION('axis',(0.,0.,1.));
#221=DIRECTION('refdir',(1.,0.,0.));
#222=DIRECTION('center_axis',(0.72168157452636,0.692225183729366,0.));
#223=DIRECTION('ref_axis',(0.692225183729366,-0.72168157452636,0.));
#224=DIRECTION('center_axis',(-0.692225183729366,-0.72168157452636,0.));
#225=DIRECTION('ref_axis',(0.72168157452636,-0.692225183729366,0.));
#226=DIRECTION('center_axis',(0.,1.,0.));
#227=DIRECTION('ref_axis',(-1.,0.,0.));
#228=DIRECTION('center_axis',(1.,6.12323399573677E-17,0.));
#229=DIRECTION('ref_axis',(-6.12323399573677E-17,1.,0.));
#230=DIRECTION('center_axis',(0.,1.,0.));
#231=DIRECTION('ref_axis',(-1.,0.,0.));
#232=DIRECTION('center_axis',(0.,-1.,0.));
#233=DIRECTION('ref_axis',(-1.,0.,0.));
#234=DIRECTION('center_axis',(-1.,-6.12323399573677E-17,0.));
#235=DIRECTION('ref_axis',(0.,0.,1.));
#236=DIRECTION('center_axis',(-1.,-6.12323399573677E-17,0.));
#237=DIRECTION('ref_axis',(-6.07153216591882E-17,1.,0.));
#238=DIRECTION('center_axis',(1.,6.12323399573677E-17,0.));
#239=DIRECTION('ref_axis',(-6.12323399573677E-17,1.,0.));
#240=DIRECTION('center_axis',(1.,6.12323399573677E-17,0.));
#241=DIRECTION('ref_axis',(0.,0.,1.));
#242=DIRECTION('center_axis',(-1.,-6.12323399573677E-17,0.));
#243=DIRECTION('ref_axis',(-6.12323399573677E-17,1.,0.));
#244=DIRECTION('center_axis',(1.,2.22044604925031E-16,0.));
#245=DIRECTION('ref_axis',(-2.22044604925031E-16,1.,0.));
#246=DIRECTION('center_axis',(1.,2.22044604925031E-16,0.));
#247=DIRECTION('ref_axis',(-2.22044604925031E-16,1.,0.));
#248=DIRECTION('center_axis',(1.,6.12323399573677E-17,0.));
#249=DIRECTION('ref_axis',(0.,0.,-1.));
#250=DIRECTION('center_axis',(1.,6.12323399573677E-17,0.));
#251=DIRECTION('ref_axis',(-5.90544162034658E-17,1.,0.));
#252=DIRECTION('center_axis',(1.,0.,0.));
#253=DIRECTION('ref_axis',(0.,1.,0.));
#254=DIRECTION('center_axis',(0.,1.,0.));
#255=DIRECTION('ref_axis',(0.,0.,1.));
#256=DIRECTION('center_axis',(0.,1.,0.));
#257=DIRECTION('ref_axis',(-1.,0.,0.));
#258=DIRECTION('center_axis',(0.,-1.,0.));
#259=DIRECTION('ref_axis',(-1.,0.,0.));
#260=DIRECTION('center_axis',(0.,1.,0.));
#261=DIRECTION('ref_axis',(0.,0.,1.));
#262=DIRECTION('center_axis',(0.,1.,0.));
#263=DIRECTION('ref_axis',(-1.,0.,0.));
#264=DIRECTION('center_axis',(0.,1.,0.));
#265=DIRECTION('ref_axis',(-1.,0.,0.));
#266=DIRECTION('center_axis',(0.,1.,0.));
#267=DIRECTION('ref_axis',(-1.,0.,0.));
#268=DIRECTION('center_axis',(0.,1.,0.));
#269=DIRECTION('ref_axis',(0.,0.,1.));
#270=DIRECTION('center_axis',(0.,0.,-1.));
#271=DIRECTION('ref_axis',(-1.,0.,0.));
#272=DIRECTION('center_axis',(-1.,-2.22044604925031E-16,0.));
#273=DIRECTION('ref_axis',(-2.22044604925031E-16,1.,0.));
#274=DIRECTION('center_axis',(0.,1.,0.));
#275=DIRECTION('ref_axis',(-1.,0.,0.));
#276=DIRECTION('center_axis',(1.,2.22044604925031E-16,0.));
#277=DIRECTION('ref_axis',(0.,0.,1.));
#278=DIRECTION('center_axis',(0.,1.,0.));
#279=DIRECTION('ref_axis',(0.,0.,1.));
#280=CARTESIAN_POINT('',(0.,0.,0.));
#281=CARTESIAN_POINT('Ctrl Pts',(8.60770041066096,14.0260144654811,-7.99812438264792));
#282=CARTESIAN_POINT('Ctrl Pts',(9.46316388043596,13.1341482948646,-7.07746187381483));
#283=CARTESIAN_POINT('Ctrl Pts',(10.8755750548995,11.6616345172325,-4.95944396787299));
#284=CARTESIAN_POINT('Ctrl Pts',(11.9984134814657,10.491015732089,-0.866945796246281));
#285=CARTESIAN_POINT('Ctrl Pts',(11.4962850356781,11.0145113457824,3.82081674876406));
#286=CARTESIAN_POINT('Ctrl Pts',(9.74831837036166,12.8368595713251,6.77057437086946));
#287=CARTESIAN_POINT('Ctrl Pts',(8.60770041066179,14.0260144654803,7.99812438264703));
#288=CARTESIAN_POINT('Ctrl Pts',(8.64246110010944,14.1010363220404,-7.96071441169402));
#289=CARTESIAN_POINT('Ctrl Pts',(9.4949407221863,13.2202144190718,-7.03507934369851));
#290=CARTESIAN_POINT('Ctrl Pts',(10.8949862469252,11.770530398411,-4.91211391579592));
#291=CARTESIAN_POINT('Ctrl Pts',(11.9916365698309,10.6288527825279,-0.854072224288504));
#292=CARTESIAN_POINT('Ctrl Pts',(11.5048675586809,11.1369326549958,3.7740102750224));
#293=CARTESIAN_POINT('Ctrl Pts',(9.77910059621262,12.9266071180815,6.72653432103232));
#294=CARTESIAN_POINT('Ctrl Pts',(8.64246110011026,14.1010363220395,7.96071441169313));
#295=CARTESIAN_POINT('Ctrl Pts',(8.74904719372227,14.2509528062777,-7.9204525720354));
#296=CARTESIAN_POINT('Ctrl Pts',(9.60795465080067,13.3920453491993,-6.98899539842865));
#297=CARTESIAN_POINT('Ctrl Pts',(11.0119993097534,11.9880006902466,-4.85859894255397));
#298=CARTESIAN_POINT('Ctrl Pts',(12.0972811984353,10.9027188015647,-0.838719242978854));
#299=CARTESIAN_POINT('Ctrl Pts',(11.6190547231718,11.3809452768282,3.71975954587094));
#300=CARTESIAN_POINT('Ctrl Pts',(9.89425713649417,13.1057428635058,6.67850967389205));
#301=CARTESIAN_POINT('Ctrl Pts',(8.7490471937231,14.2509528062769,7.9204525720345));
#302=CARTESIAN_POINT('Ctrl Pts',(8.89896367795961,14.3575388998906,-7.96071441169402));
#303=CARTESIAN_POINT('Ctrl Pts',(9.77978558092821,13.5050592778137,-7.03507934369851));
#304=CARTESIAN_POINT('Ctrl Pts',(11.229469601589,12.1050137530748,-4.91211391579592));
#305=CARTESIAN_POINT('Ctrl Pts',(12.3711472174721,11.0083634301691,-0.854072224288504));
#306=CARTESIAN_POINT('Ctrl Pts',(11.8630673450042,11.4951324413191,3.7740102750224));
#307=CARTESIAN_POINT('Ctrl Pts',(10.0733928819185,13.2208994037874,6.72653432103232));
#308=CARTESIAN_POINT('Ctrl Pts',(8.89896367796046,14.3575388998897,7.96071441169313));
#309=CARTESIAN_POINT('Ctrl Pts',(8.97398553451887,14.392299589339,-7.99812438264792));
#310=CARTESIAN_POINT('Ctrl Pts',(9.86585170513536,13.536836119564,-7.07746187381483));
#311=CARTESIAN_POINT('Ctrl Pts',(11.3383654827675,12.1244249451005,-4.95944396787299));
#312=CARTESIAN_POINT('Ctrl Pts',(12.508984267911,11.0015865185343,-0.866945796246282));
#313=CARTESIAN_POINT('Ctrl Pts',(11.9854886542176,11.5037149643219,3.82081674876406));
#314=CARTESIAN_POINT('Ctrl Pts',(10.1631404286749,13.2516816296383,6.77057437086946));
#315=CARTESIAN_POINT('Ctrl Pts',(8.97398553451974,14.3922995893382,7.99812438264703));
#316=CARTESIAN_POINT('',(8.63265306122449,14.,7.97118567871377));
#317=CARTESIAN_POINT('',(9.,14.3673469387755,7.97118567871376));
#318=CARTESIAN_POINT('Ctrl Pts',(8.63265242407759,14.0000006642595,7.97118515312754));
#319=CARTESIAN_POINT('Ctrl Pts',(8.63947127343525,14.0328442241284,7.96379926489458));
#320=CARTESIAN_POINT('Ctrl Pts',(8.64971113395409,14.0651103406736,7.95757069795588));
#321=CARTESIAN_POINT('Ctrl Pts',(8.66338280622489,14.0962233660963,7.9526198347005));
#322=CARTESIAN_POINT('Ctrl Pts',(8.67638265290879,14.1258074983339,7.94791225672483));
#323=CARTESIAN_POINT('Ctrl Pts',(8.69237539506228,14.1540996923492,7.94439889811951));
#324=CARTESIAN_POINT('Ctrl Pts',(8.7112749012691,14.1806193899964,7.94220484104113));
#325=CARTESIAN_POINT('Ctrl Pts',(8.72619474755819,14.201554847685,7.94047278550484));
#326=CARTESIAN_POINT('Ctrl Pts',(8.74275172574198,14.2211363705408,7.93958475841543));
#327=CARTESIAN_POINT('Ctrl Pts',(8.76080774681191,14.2391922531881,7.93958468391083));
#328=CARTESIAN_POINT('Ctrl Pts',(8.78257206991904,14.2609564094436,7.93958459410465));
#329=CARTESIAN_POINT('Ctrl Pts',(8.80651470240841,14.2805066713372,7.94087277572308));
#330=CARTESIAN_POINT('Ctrl Pts',(8.83231787488741,14.2976216871496,7.94336630272239));
#331=CARTESIAN_POINT('Ctrl Pts',(8.88373437230974,14.3317257945851,7.94833501052904));
#332=CARTESIAN_POINT('Ctrl Pts',(8.94072748029622,14.3550417888811,7.95785604686071));
#333=CARTESIAN_POINT('Ctrl Pts',(8.99999933574047,14.3673475759224,7.97118515312753));
#334=CARTESIAN_POINT('',(8.63265306122449,14.,-7.97118567871377));
#335=CARTESIAN_POINT('Origin',(0.,23.,0.));
#336=CARTESIAN_POINT('',(9.,14.3673469387755,-7.97118567871376));
#337=CARTESIAN_POINT('Ctrl Pts',(8.99999954856721,14.3673473717825,-7.97118537219154));
#338=CARTESIAN_POINT('Ctrl Pts',(8.94072762067744,14.3550416027582,-7.95785600656015));
#339=CARTESIAN_POINT('Ctrl Pts',(8.88373440232965,14.3317257625873,-7.94833501424398));
#340=CARTESIAN_POINT('Ctrl Pts',(8.8323178852759,14.2976216761582,-7.94336630371625));
#341=CARTESIAN_POINT('Ctrl Pts',(8.8065147030255,14.2805066709412,-7.94087277535916));
#342=CARTESIAN_POINT('Ctrl Pts',(8.78257207062041,14.2609564087542,-7.93958459413127));
#343=CARTESIAN_POINT('Ctrl Pts',(8.76080774750718,14.2391922524928,-7.93958468393744));
#344=CARTESIAN_POINT('Ctrl Pts',(8.74275172645689,14.2211363698654,-7.93958475844204));
#345=CARTESIAN_POINT('Ctrl Pts',(8.72619474837791,14.2015548468561,-7.94047278540111));
#346=CARTESIAN_POINT('Ctrl Pts',(8.71127490790313,14.1806193837891,-7.94220484151966));
#347=CARTESIAN_POINT('Ctrl Pts',(8.6923754090423,14.154099679302,-7.94439889933781));
#348=CARTESIAN_POINT('Ctrl Pts',(8.67638268677973,14.1258074674941,-7.94791225754684));
#349=CARTESIAN_POINT('Ctrl Pts',(8.66338288134817,14.0962232978145,-7.95261985393925));
#350=CARTESIAN_POINT('Ctrl Pts',(8.64971125246022,14.0651102330116,-7.95757073656362));
#351=CARTESIAN_POINT('Ctrl Pts',(8.63947146779124,14.0328440524063,-7.96379934002398));
#352=CARTESIAN_POINT('Ctrl Pts',(8.63265262821752,14.0000004514328,-7.97118537219155));
#353=CARTESIAN_POINT('Origin',(0.,23.,0.));
#354=CARTESIAN_POINT('Ctrl Pts',(8.66283474575253,14.,7.93837478126239));
#355=CARTESIAN_POINT('Ctrl Pts',(8.66283474575252,14.3371652542475,7.93837478126239));
#356=CARTESIAN_POINT('Ctrl Pts',(9.,14.3371652542475,7.93837478126239));
#357=CARTESIAN_POINT('Ctrl Pts',(3.23246611542879,14.,13.8643215082992));
#358=CARTESIAN_POINT('Ctrl Pts',(3.23246611542873,19.7675338845713,13.8643215082992));
#359=CARTESIAN_POINT('Ctrl Pts',(9.,19.7675338845712,13.8643215082992));
#360=CARTESIAN_POINT('Ctrl Pts',(-4.25876694228585,14.,10.9510458008034));
#361=CARTESIAN_POINT('Ctrl Pts',(-4.258766942286,27.258766942286,10.9510458008034));
#362=CARTESIAN_POINT('Ctrl Pts',(9.,27.2587669422859,10.9510458008034));
#363=CARTESIAN_POINT('Ctrl Pts',(-11.7500000000005,14.,8.03777009330759));
#364=CARTESIAN_POINT('Ctrl Pts',(-11.7500000000007,34.7500000000007,8.03777009330759));
#365=CARTESIAN_POINT('Ctrl Pts',(9.,34.7500000000005,8.03777009330759));
#366=CARTESIAN_POINT('Ctrl Pts',(-11.75,14.,-7.33135774311222E-13));
#367=CARTESIAN_POINT('Ctrl Pts',(-11.7500000000002,34.7500000000002,-7.33135774311222E-13));
#368=CARTESIAN_POINT('Ctrl Pts',(9.,34.75,-7.33135774311222E-13));
#369=CARTESIAN_POINT('Ctrl Pts',(-11.7499999999995,14.,-8.03777009330906));
#370=CARTESIAN_POINT('Ctrl Pts',(-11.7499999999997,34.7499999999997,-8.03777009330906));
#371=CARTESIAN_POINT('Ctrl Pts',(9.,34.7499999999995,-8.03777009330906));
#372=CARTESIAN_POINT('Ctrl Pts',(-4.25876694228449,14.,-10.9510458008039));
#373=CARTESIAN_POINT('Ctrl Pts',(-4.25876694228463,27.2587669422846,-10.9510458008039));
#374=CARTESIAN_POINT('Ctrl Pts',(9.,27.2587669422845,-10.9510458008039));
#375=CARTESIAN_POINT('Ctrl Pts',(3.23246611543052,14.,-13.8643215082987));
#376=CARTESIAN_POINT('Ctrl Pts',(3.23246611543046,19.7675338845695,-13.8643215082987));
#377=CARTESIAN_POINT('Ctrl Pts',(9.,19.7675338845695,-13.8643215082987));
#378=CARTESIAN_POINT('Ctrl Pts',(8.66283474575352,14.,-7.93837478126131));
#379=CARTESIAN_POINT('Ctrl Pts',(8.66283474575351,14.3371652542465,-7.93837478126131));
#380=CARTESIAN_POINT('Ctrl Pts',(9.,14.3371652542465,-7.93837478126131));
#381=CARTESIAN_POINT('Origin',(0.,14.,0.));
#382=CARTESIAN_POINT('Origin',(9.,23.,0.));
#383=CARTESIAN_POINT('Origin',(0.,0.,0.));
#384=CARTESIAN_POINT('',(11.75,0.5,1.43895998899814E-15));
#385=CARTESIAN_POINT('Origin',(0.,0.5,0.));
#386=CARTESIAN_POINT('Origin',(22.5,23.,0.));
#387=CARTESIAN_POINT('',(22.5,15.,9.79717439317883E-16));
#388=CARTESIAN_POINT('Origin',(22.5,23.,0.));
#389=CARTESIAN_POINT('',(23.,14.5,-1.04094977927525E-15));
#390=CARTESIAN_POINT('Origin',(23.,23.,0.));
#391=CARTESIAN_POINT('Origin',(23.,23.,-1.57478443209242E-16));
#392=CARTESIAN_POINT('',(23.,11.75,1.37772764904077E-15));
#393=CARTESIAN_POINT('Origin',(23.,23.,0.));
#394=CARTESIAN_POINT('Origin',(23.,23.,0.));
#395=CARTESIAN_POINT('',(9.,15.,9.79717439317883E-16));
#396=CARTESIAN_POINT('Origin',(9.,23.,0.));
#397=CARTESIAN_POINT('Origin',(22.5,23.,0.));
#398=CARTESIAN_POINT('',(22.5,11.25,-1.43895998899814E-15));
#399=CARTESIAN_POINT('Origin',(22.5,23.,0.));
#400=CARTESIAN_POINT('Origin',(9.,23.,0.));
#401=CARTESIAN_POINT('Origin',(0.,0.5,0.));
#402=CARTESIAN_POINT('',(8.,0.5,-9.79717439317883E-16));
#403=CARTESIAN_POINT('Origin',(0.,0.5,0.));
#404=CARTESIAN_POINT('',(8.5,0.,1.04094977927525E-15));
#405=CARTESIAN_POINT('Origin',(0.,0.,0.));
#406=CARTESIAN_POINT('Origin',(-1.37974087809045E-15,0.,-1.57478443209242E-16));
#407=CARTESIAN_POINT('',(11.25,0.,-1.37772764904077E-15));
#408=CARTESIAN_POINT('Origin',(0.,0.,0.));
#409=CARTESIAN_POINT('Origin',(0.,0.,0.));
#410=CARTESIAN_POINT('',(8.,14.,9.79717439317883E-16));
#411=CARTESIAN_POINT('Origin',(0.,14.,0.));
#412=CARTESIAN_POINT('Origin',(0.,0.5,0.));
#413=CARTESIAN_POINT('Origin',(9.,14.,0.));
#414=CARTESIAN_POINT('',(9.,30.5,0.));
#415=CARTESIAN_POINT('Origin',(9.,23.,0.));
#416=CARTESIAN_POINT('',(-7.5,14.,0.));
#417=CARTESIAN_POINT('Origin',(0.,14.,0.));
#418=CARTESIAN_POINT('Origin',(9.,23.,-1.15648231731787E-16));
#419=CARTESIAN_POINT('Origin',(-7.7553251033388E-16,14.,-1.15648231731787E-16));
#420=UNCERTAINTY_MEASURE_WITH_UNIT(LENGTH_MEASURE(0.01),#424,
'DISTANCE_ACCURACY_VALUE',
'Maximum model space distance between geometric entities at asserted c
onnectivities');
#421=UNCERTAINTY_MEASURE_WITH_UNIT(LENGTH_MEASURE(1.E-6),#424,
'DISTANCE_ACCURACY_VALUE',
'Maximum model space distance between geometric entities at asserted c
onnectivities');
#422=(
GEOMETRIC_REPRESENTATION_CONTEXT(3)
GLOBAL_UNCERTAINTY_ASSIGNED_CONTEXT((#420))
GLOBAL_UNIT_ASSIGNED_CONTEXT((#424,#427,#425))
REPRESENTATION_CONTEXT('','3D')
);
#423=(
GEOMETRIC_REPRESENTATION_CONTEXT(3)
GLOBAL_UNCERTAINTY_ASSIGNED_CONTEXT((#421))
GLOBAL_UNIT_ASSIGNED_CONTEXT((#424,#427,#425))
REPRESENTATION_CONTEXT('','3D')
);
#424=(
LENGTH_UNIT()
NAMED_UNIT(*)
SI_UNIT(.MILLI.,.METRE.)
);
#425=(
NAMED_UNIT(*)
SI_UNIT($,.STERADIAN.)
SOLID_ANGLE_UNIT()
);
#426=DIMENSIONAL_EXPONENTS(0.,0.,0.,0.,0.,0.,0.);
#427=(
CONVERSION_BASED_UNIT('degree',#429)
NAMED_UNIT(#426)
PLANE_ANGLE_UNIT()
);
#428=(
NAMED_UNIT(*)
PLANE_ANGLE_UNIT()
SI_UNIT($,.RADIAN.)
);
#429=PLANE_ANGLE_MEASURE_WITH_UNIT(PLANE_ANGLE_MEASURE(0.01745329252),#428);
#430=SHAPE_DEFINITION_REPRESENTATION(#431,#432);
#431=PRODUCT_DEFINITION_SHAPE('',$,#434);
#432=SHAPE_REPRESENTATION('',(#190),#422);
#433=PRODUCT_DEFINITION_CONTEXT('part definition',#438,'design');
#434=PRODUCT_DEFINITION('EL500160','EL500160',#435,#433);
#435=PRODUCT_DEFINITION_FORMATION('',$,#440);
#436=PRODUCT_RELATED_PRODUCT_CATEGORY('EL500160','EL500160',(#440));
#437=APPLICATION_PROTOCOL_DEFINITION('international standard',
'automotive_design',2009,#438);
#438=APPLICATION_CONTEXT(
'Core Data for Automotive Mechanical Design Process');
#439=PRODUCT_CONTEXT('part definition',#438,'mechanical');
#440=PRODUCT('EL500160','EL500160',$,(#439));
#441=PRESENTATION_STYLE_ASSIGNMENT((#442));
#442=SURFACE_STYLE_USAGE(.BOTH.,#443);
#443=SURFACE_SIDE_STYLE('',(#444));
#444=SURFACE_STYLE_FILL_AREA(#445);
#445=FILL_AREA_STYLE('',(#446));
#446=FILL_AREA_STYLE_COLOUR('',#447);
#447=COLOUR_RGB('',0.8,0.8,0.8);
ENDSEC;
END-ISO-10303-21;
