ISO-10303-21;
HEADER;
/* Generated by software containing ST-Developer
 * from STEP Tools, Inc. (www.steptools.com) 
 */

FILE_DESCRIPTION(
/* description */ (''),
/* implementation_level */ '2;1');

FILE_NAME(
/* name */ 
'Q:\\Ric010\\FF7\\FIPlastiCAD\\FIP\\Lavoro\\PVC Fittings\\PVC Fittings
 STEP\\DIFV\\DIFV090075212.ipt.stp',
/* time_stamp */ '2013-10-01T14:37:13+02:00',
/* author */ ('bfaro'),
/* organization */ (''),
/* preprocessor_version */ 'ST-DEVELOPER v15.2',
/* originating_system */ 'Autodesk Inventor 2014',
/* authorisation */ '');

FILE_SCHEMA (('AUTOMOTIVE_DESIGN { 1 0 10303 214 3 1 1 }'));
ENDSEC;

DATA;
#10=SHAPE_REPRESENTATION_RELATIONSHIP('SRR','None',#464,#11);
#11=ADVANCED_BREP_SHAPE_REPRESENTATION($,(#277),#455);
#12=STYLED_ITEM($,(#473),#271);
#13=STYLED_ITEM($,(#472),#277);
#14=CYLINDRICAL_SURFACE($,#291,45.);
#15=CYLINDRICAL_SURFACE($,#295,36.113);
#16=CYLINDRICAL_SURFACE($,#299,37.5);
#17=CYLINDRICAL_SURFACE($,#303,45.);
#18=FACE_BOUND($,#53,.T.);
#19=FACE_BOUND($,#55,.T.);
#20=FACE_BOUND($,#65,.T.);
#21=FACE_BOUND($,#66,.T.);
#22=FACE_BOUND($,#67,.T.);
#23=FACE_BOUND($,#69,.T.);
#24=FACE_BOUND($,#71,.T.);
#25=FACE_BOUND($,#73,.T.);
#26=FACE_BOUND($,#75,.T.);
#27=FACE_BOUND($,#77,.T.);
#28=CIRCLE($,#280,45.);
#29=CIRCLE($,#282,45.);
#30=CIRCLE($,#292,45.);
#31=CIRCLE($,#294,36.113);
#32=CIRCLE($,#296,36.113);
#33=CIRCLE($,#298,37.5);
#34=CIRCLE($,#300,37.5);
#35=CIRCLE($,#302,45.);
#36=FACE_OUTER_BOUND($,#52,.T.);
#37=FACE_OUTER_BOUND($,#54,.T.);
#38=FACE_OUTER_BOUND($,#56,.T.);
#39=FACE_OUTER_BOUND($,#57,.T.);
#40=FACE_OUTER_BOUND($,#58,.T.);
#41=FACE_OUTER_BOUND($,#59,.T.);
#42=FACE_OUTER_BOUND($,#60,.T.);
#43=FACE_OUTER_BOUND($,#61,.T.);
#44=FACE_OUTER_BOUND($,#62,.T.);
#45=FACE_OUTER_BOUND($,#63,.T.);
#46=FACE_OUTER_BOUND($,#64,.T.);
#47=FACE_OUTER_BOUND($,#68,.T.);
#48=FACE_OUTER_BOUND($,#70,.T.);
#49=FACE_OUTER_BOUND($,#72,.T.);
#50=FACE_OUTER_BOUND($,#74,.T.);
#51=FACE_OUTER_BOUND($,#76,.T.);
#52=EDGE_LOOP($,(#182,#183,#184,#185,#186,#187,#188,#189));
#53=EDGE_LOOP($,(#190));
#54=EDGE_LOOP($,(#191,#192,#193,#194,#195,#196,#197,#198));
#55=EDGE_LOOP($,(#199));
#56=EDGE_LOOP($,(#200,#201,#202,#203));
#57=EDGE_LOOP($,(#204,#205,#206,#207));
#58=EDGE_LOOP($,(#208,#209,#210,#211));
#59=EDGE_LOOP($,(#212,#213,#214,#215));
#60=EDGE_LOOP($,(#216,#217,#218,#219));
#61=EDGE_LOOP($,(#220,#221,#222,#223));
#62=EDGE_LOOP($,(#224,#225,#226,#227));
#63=EDGE_LOOP($,(#228,#229,#230,#231));
#64=EDGE_LOOP($,(#232));
#65=EDGE_LOOP($,(#233));
#66=EDGE_LOOP($,(#234));
#67=EDGE_LOOP($,(#235));
#68=EDGE_LOOP($,(#236));
#69=EDGE_LOOP($,(#237));
#70=EDGE_LOOP($,(#238));
#71=EDGE_LOOP($,(#239));
#72=EDGE_LOOP($,(#240));
#73=EDGE_LOOP($,(#241));
#74=EDGE_LOOP($,(#242));
#75=EDGE_LOOP($,(#243));
#76=EDGE_LOOP($,(#244));
#77=EDGE_LOOP($,(#245));
#78=LINE($,#384,#102);
#79=LINE($,#386,#103);
#80=LINE($,#388,#104);
#81=LINE($,#390,#105);
#82=LINE($,#392,#106);
#83=LINE($,#394,#107);
#84=LINE($,#396,#108);
#85=LINE($,#397,#109);
#86=LINE($,#403,#110);
#87=LINE($,#405,#111);
#88=LINE($,#407,#112);
#89=LINE($,#409,#113);
#90=LINE($,#411,#114);
#91=LINE($,#413,#115);
#92=LINE($,#415,#116);
#93=LINE($,#416,#117);
#94=LINE($,#420,#118);
#95=LINE($,#421,#119);
#96=LINE($,#423,#120);
#97=LINE($,#425,#121);
#98=LINE($,#427,#122);
#99=LINE($,#429,#123);
#100=LINE($,#431,#124);
#101=LINE($,#433,#125);
#102=VECTOR($,#308,39.350288425444);
#103=VECTOR($,#309,39.350288425444);
#104=VECTOR($,#310,39.350288425444);
#105=VECTOR($,#311,39.350288425444);
#106=VECTOR($,#312,39.350288425444);
#107=VECTOR($,#313,39.350288425444);
#108=VECTOR($,#314,39.350288425444);
#109=VECTOR($,#315,39.350288425444);
#110=VECTOR($,#320,39.350288425444);
#111=VECTOR($,#321,39.350288425444);
#112=VECTOR($,#322,39.350288425444);
#113=VECTOR($,#323,39.350288425444);
#114=VECTOR($,#324,39.350288425444);
#115=VECTOR($,#325,39.350288425444);
#116=VECTOR($,#326,39.350288425444);
#117=VECTOR($,#327,39.350288425444);
#118=VECTOR($,#332,16.);
#119=VECTOR($,#333,16.);
#120=VECTOR($,#336,16.);
#121=VECTOR($,#339,16.);
#122=VECTOR($,#342,16.);
#123=VECTOR($,#345,16.);
#124=VECTOR($,#348,16.);
#125=VECTOR($,#351,16.);
#126=VERTEX_POINT($,#382);
#127=VERTEX_POINT($,#383);
#128=VERTEX_POINT($,#385);
#129=VERTEX_POINT($,#387);
#130=VERTEX_POINT($,#389);
#131=VERTEX_POINT($,#391);
#132=VERTEX_POINT($,#393);
#133=VERTEX_POINT($,#395);
#134=VERTEX_POINT($,#398);
#135=VERTEX_POINT($,#401);
#136=VERTEX_POINT($,#402);
#137=VERTEX_POINT($,#404);
#138=VERTEX_POINT($,#406);
#139=VERTEX_POINT($,#408);
#140=VERTEX_POINT($,#410);
#141=VERTEX_POINT($,#412);
#142=VERTEX_POINT($,#414);
#143=VERTEX_POINT($,#417);
#144=VERTEX_POINT($,#436);
#145=VERTEX_POINT($,#439);
#146=VERTEX_POINT($,#442);
#147=VERTEX_POINT($,#445);
#148=VERTEX_POINT($,#448);
#149=VERTEX_POINT($,#451);
#150=EDGE_CURVE($,#126,#127,#78,.T.);
#151=EDGE_CURVE($,#127,#128,#79,.T.);
#152=EDGE_CURVE($,#128,#129,#80,.T.);
#153=EDGE_CURVE($,#129,#130,#81,.T.);
#154=EDGE_CURVE($,#130,#131,#82,.T.);
#155=EDGE_CURVE($,#131,#132,#83,.T.);
#156=EDGE_CURVE($,#132,#133,#84,.T.);
#157=EDGE_CURVE($,#133,#126,#85,.T.);
#158=EDGE_CURVE($,#134,#134,#28,.T.);
#159=EDGE_CURVE($,#135,#136,#86,.T.);
#160=EDGE_CURVE($,#137,#135,#87,.T.);
#161=EDGE_CURVE($,#138,#137,#88,.T.);
#162=EDGE_CURVE($,#139,#138,#89,.T.);
#163=EDGE_CURVE($,#140,#139,#90,.T.);
#164=EDGE_CURVE($,#141,#140,#91,.T.);
#165=EDGE_CURVE($,#142,#141,#92,.T.);
#166=EDGE_CURVE($,#136,#142,#93,.T.);
#167=EDGE_CURVE($,#143,#143,#29,.T.);
#168=EDGE_CURVE($,#135,#126,#94,.T.);
#169=EDGE_CURVE($,#137,#133,#95,.T.);
#170=EDGE_CURVE($,#138,#132,#96,.T.);
#171=EDGE_CURVE($,#139,#131,#97,.T.);
#172=EDGE_CURVE($,#140,#130,#98,.T.);
#173=EDGE_CURVE($,#141,#129,#99,.T.);
#174=EDGE_CURVE($,#142,#128,#100,.T.);
#175=EDGE_CURVE($,#136,#127,#101,.T.);
#176=EDGE_CURVE($,#144,#144,#30,.T.);
#177=EDGE_CURVE($,#145,#145,#31,.T.);
#178=EDGE_CURVE($,#146,#146,#32,.T.);
#179=EDGE_CURVE($,#147,#147,#33,.T.);
#180=EDGE_CURVE($,#148,#148,#34,.T.);
#181=EDGE_CURVE($,#149,#149,#35,.T.);
#182=ORIENTED_EDGE($,*,*,#150,.T.);
#183=ORIENTED_EDGE($,*,*,#151,.T.);
#184=ORIENTED_EDGE($,*,*,#152,.T.);
#185=ORIENTED_EDGE($,*,*,#153,.T.);
#186=ORIENTED_EDGE($,*,*,#154,.T.);
#187=ORIENTED_EDGE($,*,*,#155,.T.);
#188=ORIENTED_EDGE($,*,*,#156,.T.);
#189=ORIENTED_EDGE($,*,*,#157,.T.);
#190=ORIENTED_EDGE($,*,*,#158,.F.);
#191=ORIENTED_EDGE($,*,*,#159,.F.);
#192=ORIENTED_EDGE($,*,*,#160,.F.);
#193=ORIENTED_EDGE($,*,*,#161,.F.);
#194=ORIENTED_EDGE($,*,*,#162,.F.);
#195=ORIENTED_EDGE($,*,*,#163,.F.);
#196=ORIENTED_EDGE($,*,*,#164,.F.);
#197=ORIENTED_EDGE($,*,*,#165,.F.);
#198=ORIENTED_EDGE($,*,*,#166,.F.);
#199=ORIENTED_EDGE($,*,*,#167,.F.);
#200=ORIENTED_EDGE($,*,*,#160,.T.);
#201=ORIENTED_EDGE($,*,*,#168,.T.);
#202=ORIENTED_EDGE($,*,*,#157,.F.);
#203=ORIENTED_EDGE($,*,*,#169,.F.);
#204=ORIENTED_EDGE($,*,*,#161,.T.);
#205=ORIENTED_EDGE($,*,*,#169,.T.);
#206=ORIENTED_EDGE($,*,*,#156,.F.);
#207=ORIENTED_EDGE($,*,*,#170,.F.);
#208=ORIENTED_EDGE($,*,*,#162,.T.);
#209=ORIENTED_EDGE($,*,*,#170,.T.);
#210=ORIENTED_EDGE($,*,*,#155,.F.);
#211=ORIENTED_EDGE($,*,*,#171,.F.);
#212=ORIENTED_EDGE($,*,*,#163,.T.);
#213=ORIENTED_EDGE($,*,*,#171,.T.);
#214=ORIENTED_EDGE($,*,*,#154,.F.);
#215=ORIENTED_EDGE($,*,*,#172,.F.);
#216=ORIENTED_EDGE($,*,*,#164,.T.);
#217=ORIENTED_EDGE($,*,*,#172,.T.);
#218=ORIENTED_EDGE($,*,*,#153,.F.);
#219=ORIENTED_EDGE($,*,*,#173,.F.);
#220=ORIENTED_EDGE($,*,*,#165,.T.);
#221=ORIENTED_EDGE($,*,*,#173,.T.);
#222=ORIENTED_EDGE($,*,*,#152,.F.);
#223=ORIENTED_EDGE($,*,*,#174,.F.);
#224=ORIENTED_EDGE($,*,*,#166,.T.);
#225=ORIENTED_EDGE($,*,*,#174,.T.);
#226=ORIENTED_EDGE($,*,*,#151,.F.);
#227=ORIENTED_EDGE($,*,*,#175,.F.);
#228=ORIENTED_EDGE($,*,*,#159,.T.);
#229=ORIENTED_EDGE($,*,*,#175,.T.);
#230=ORIENTED_EDGE($,*,*,#150,.F.);
#231=ORIENTED_EDGE($,*,*,#168,.F.);
#232=ORIENTED_EDGE($,*,*,#176,.F.);
#233=ORIENTED_EDGE($,*,*,#167,.T.);
#234=ORIENTED_EDGE($,*,*,#177,.F.);
#235=ORIENTED_EDGE($,*,*,#176,.T.);
#236=ORIENTED_EDGE($,*,*,#178,.F.);
#237=ORIENTED_EDGE($,*,*,#177,.T.);
#238=ORIENTED_EDGE($,*,*,#179,.F.);
#239=ORIENTED_EDGE($,*,*,#178,.T.);
#240=ORIENTED_EDGE($,*,*,#180,.F.);
#241=ORIENTED_EDGE($,*,*,#179,.T.);
#242=ORIENTED_EDGE($,*,*,#181,.F.);
#243=ORIENTED_EDGE($,*,*,#180,.T.);
#244=ORIENTED_EDGE($,*,*,#158,.T.);
#245=ORIENTED_EDGE($,*,*,#181,.T.);
#246=PLANE($,#279);
#247=PLANE($,#281);
#248=PLANE($,#283);
#249=PLANE($,#284);
#250=PLANE($,#285);
#251=PLANE($,#286);
#252=PLANE($,#287);
#253=PLANE($,#288);
#254=PLANE($,#289);
#255=PLANE($,#290);
#256=PLANE($,#293);
#257=PLANE($,#297);
#258=PLANE($,#301);
#259=ADVANCED_FACE($,(#36,#18),#246,.F.);
#260=ADVANCED_FACE($,(#37,#19),#247,.T.);
#261=ADVANCED_FACE($,(#38),#248,.T.);
#262=ADVANCED_FACE($,(#39),#249,.T.);
#263=ADVANCED_FACE($,(#40),#250,.T.);
#264=ADVANCED_FACE($,(#41),#251,.T.);
#265=ADVANCED_FACE($,(#42),#252,.T.);
#266=ADVANCED_FACE($,(#43),#253,.T.);
#267=ADVANCED_FACE($,(#44),#254,.T.);
#268=ADVANCED_FACE($,(#45),#255,.T.);
#269=ADVANCED_FACE($,(#46,#20),#14,.T.);
#270=ADVANCED_FACE($,(#21,#22),#256,.T.);
#271=ADVANCED_FACE($,(#47,#23),#15,.F.);
#272=ADVANCED_FACE($,(#48,#24),#257,.T.);
#273=ADVANCED_FACE($,(#49,#25),#16,.F.);
#274=ADVANCED_FACE($,(#50,#26),#258,.T.);
#275=ADVANCED_FACE($,(#51,#27),#17,.T.);
#276=CLOSED_SHELL($,(#259,#260,#261,#262,#263,#264,#265,#266,#267,#268,
#269,#270,#271,#272,#273,#274,#275));
#277=MANIFOLD_SOLID_BREP('Solido1',#276);
#278=AXIS2_PLACEMENT_3D('placement',#380,#304,#305);
#279=AXIS2_PLACEMENT_3D($,#381,#306,#307);
#280=AXIS2_PLACEMENT_3D($,#399,#316,#317);
#281=AXIS2_PLACEMENT_3D($,#400,#318,#319);
#282=AXIS2_PLACEMENT_3D($,#418,#328,#329);
#283=AXIS2_PLACEMENT_3D($,#419,#330,#331);
#284=AXIS2_PLACEMENT_3D($,#422,#334,#335);
#285=AXIS2_PLACEMENT_3D($,#424,#337,#338);
#286=AXIS2_PLACEMENT_3D($,#426,#340,#341);
#287=AXIS2_PLACEMENT_3D($,#428,#343,#344);
#288=AXIS2_PLACEMENT_3D($,#430,#346,#347);
#289=AXIS2_PLACEMENT_3D($,#432,#349,#350);
#290=AXIS2_PLACEMENT_3D($,#434,#352,#353);
#291=AXIS2_PLACEMENT_3D($,#435,#354,#355);
#292=AXIS2_PLACEMENT_3D($,#437,#356,#357);
#293=AXIS2_PLACEMENT_3D($,#438,#358,#359);
#294=AXIS2_PLACEMENT_3D($,#440,#360,#361);
#295=AXIS2_PLACEMENT_3D($,#441,#362,#363);
#296=AXIS2_PLACEMENT_3D($,#443,#364,#365);
#297=AXIS2_PLACEMENT_3D($,#444,#366,#367);
#298=AXIS2_PLACEMENT_3D($,#446,#368,#369);
#299=AXIS2_PLACEMENT_3D($,#447,#370,#371);
#300=AXIS2_PLACEMENT_3D($,#449,#372,#373);
#301=AXIS2_PLACEMENT_3D($,#450,#374,#375);
#302=AXIS2_PLACEMENT_3D($,#452,#376,#377);
#303=AXIS2_PLACEMENT_3D($,#453,#378,#379);
#304=DIRECTION('axis',(0.,0.,1.));
#305=DIRECTION('refdir',(1.,0.,0.));
#306=DIRECTION('center_axis',(0.,0.,1.));
#307=DIRECTION('ref_axis',(1.,0.,0.));
#308=DIRECTION($,(0.923879532511287,-0.38268343236509,0.));
#309=DIRECTION($,(0.38268343236509,-0.923879532511287,0.));
#310=DIRECTION($,(-0.38268343236509,-0.923879532511287,0.));
#311=DIRECTION($,(-0.923879532511287,-0.38268343236509,0.));
#312=DIRECTION($,(-0.923879532511287,0.38268343236509,0.));
#313=DIRECTION($,(-0.38268343236509,0.923879532511287,0.));
#314=DIRECTION($,(0.38268343236509,0.923879532511287,0.));
#315=DIRECTION($,(0.923879532511287,0.38268343236509,0.));
#316=DIRECTION('center_axis',(0.,0.,-1.));
#317=DIRECTION('ref_axis',(0.,-1.,0.));
#318=DIRECTION('center_axis',(0.,0.,1.));
#319=DIRECTION('ref_axis',(1.,0.,0.));
#320=DIRECTION($,(0.923879532511287,-0.38268343236509,0.));
#321=DIRECTION($,(0.923879532511287,0.38268343236509,0.));
#322=DIRECTION($,(0.38268343236509,0.923879532511287,0.));
#323=DIRECTION($,(-0.38268343236509,0.923879532511287,0.));
#324=DIRECTION($,(-0.923879532511287,0.38268343236509,0.));
#325=DIRECTION($,(-0.923879532511287,-0.38268343236509,0.));
#326=DIRECTION($,(-0.38268343236509,-0.923879532511287,0.));
#327=DIRECTION($,(0.38268343236509,-0.923879532511287,0.));
#328=DIRECTION('center_axis',(0.,0.,1.));
#329=DIRECTION('ref_axis',(0.,-1.,0.));
#330=DIRECTION('center_axis',(-0.38268343236509,0.923879532511287,0.));
#331=DIRECTION('ref_axis',(0.923879532511287,0.38268343236509,0.));
#332=DIRECTION($,(0.,0.,-1.));
#333=DIRECTION($,(0.,0.,-1.));
#334=DIRECTION('center_axis',(-0.923879532511287,0.38268343236509,0.));
#335=DIRECTION('ref_axis',(0.38268343236509,0.923879532511287,0.));
#336=DIRECTION($,(0.,0.,-1.));
#337=DIRECTION('center_axis',(-0.923879532511287,-0.38268343236509,0.));
#338=DIRECTION('ref_axis',(-0.38268343236509,0.923879532511287,0.));
#339=DIRECTION($,(0.,0.,-1.));
#340=DIRECTION('center_axis',(-0.38268343236509,-0.923879532511287,0.));
#341=DIRECTION('ref_axis',(-0.923879532511287,0.38268343236509,0.));
#342=DIRECTION($,(0.,0.,-1.));
#343=DIRECTION('center_axis',(0.38268343236509,-0.923879532511287,0.));
#344=DIRECTION('ref_axis',(-0.923879532511287,-0.382683432365089,0.));
#345=DIRECTION($,(0.,0.,-1.));
#346=DIRECTION('center_axis',(0.923879532511287,-0.38268343236509,0.));
#347=DIRECTION('ref_axis',(-0.38268343236509,-0.923879532511287,0.));
#348=DIRECTION($,(0.,0.,-1.));
#349=DIRECTION('center_axis',(0.923879532511287,0.382683432365089,0.));
#350=DIRECTION('ref_axis',(0.382683432365089,-0.923879532511287,0.));
#351=DIRECTION($,(0.,0.,-1.));
#352=DIRECTION('center_axis',(0.38268343236509,0.923879532511287,0.));
#353=DIRECTION('ref_axis',(0.923879532511287,-0.38268343236509,0.));
#354=DIRECTION('center_axis',(0.,0.,1.));
#355=DIRECTION('ref_axis',(0.,-1.,0.));
#356=DIRECTION('center_axis',(0.,0.,1.));
#357=DIRECTION('ref_axis',(0.,-1.,0.));
#358=DIRECTION('center_axis',(0.,0.,1.));
#359=DIRECTION('ref_axis',(1.,0.,0.));
#360=DIRECTION('center_axis',(0.,0.,1.));
#361=DIRECTION('ref_axis',(0.,-1.,0.));
#362=DIRECTION('center_axis',(0.,0.,1.));
#363=DIRECTION('ref_axis',(0.,-1.,0.));
#364=DIRECTION('center_axis',(0.,0.,1.));
#365=DIRECTION('ref_axis',(0.,-1.,0.));
#366=DIRECTION('center_axis',(0.,0.,-1.));
#367=DIRECTION('ref_axis',(-1.,0.,0.));
#368=DIRECTION('center_axis',(0.,0.,1.));
#369=DIRECTION('ref_axis',(0.,-1.,0.));
#370=DIRECTION('center_axis',(0.,0.,1.));
#371=DIRECTION('ref_axis',(0.,-1.,0.));
#372=DIRECTION('center_axis',(0.,0.,1.));
#373=DIRECTION('ref_axis',(0.,-1.,0.));
#374=DIRECTION('center_axis',(0.,0.,-1.));
#375=DIRECTION('ref_axis',(-1.,0.,0.));
#376=DIRECTION('center_axis',(0.,0.,1.));
#377=DIRECTION('ref_axis',(0.,-1.,0.));
#378=DIRECTION('center_axis',(0.,0.,1.));
#379=DIRECTION('ref_axis',(0.,-1.,0.));
#380=CARTESIAN_POINT('',(0.,0.,0.));
#381=CARTESIAN_POINT('Origin',(-8.46415415781768E-015,8.46415415781768E-016,
51.));
#382=CARTESIAN_POINT('',(-5.69911389540687E-016,51.4136295138887,51.));
#383=CARTESIAN_POINT('',(36.3549260746835,36.3549260746835,51.));
#384=CARTESIAN_POINT($,(-5.69911389540687E-016,51.4136295138887,51.));
#385=CARTESIAN_POINT('',(51.4136295138887,-1.77635683940025E-014,51.));
#386=CARTESIAN_POINT($,(36.3549260746835,36.3549260746835,51.));
#387=CARTESIAN_POINT('',(36.3549260746835,-36.3549260746835,51.));
#388=CARTESIAN_POINT($,(51.4136295138887,-2.160662929535E-014,51.));
#389=CARTESIAN_POINT('',(-1.35838433775705E-014,-51.4136295138887,51.));
#390=CARTESIAN_POINT($,(36.3549260746835,-36.3549260746835,51.));
#391=CARTESIAN_POINT('',(-36.3549260746835,-36.3549260746835,51.));
#392=CARTESIAN_POINT($,(-1.35838433775705E-014,-51.4136295138887,51.));
#393=CARTESIAN_POINT('',(-51.4136295138887,0.,51.));
#394=CARTESIAN_POINT($,(-36.3549260746835,-36.3549260746835,51.));
#395=CARTESIAN_POINT('',(-36.3549260746835,36.3549260746835,51.));
#396=CARTESIAN_POINT($,(-51.4136295138887,-1.58993293767484E-015,51.));
#397=CARTESIAN_POINT($,(-36.3549260746835,36.3549260746835,51.));
#398=CARTESIAN_POINT('',(5.51091059616309E-015,45.,51.));
#399=CARTESIAN_POINT('Origin',(0.,0.,51.));
#400=CARTESIAN_POINT('Origin',(-8.46415415781768E-015,8.46415415781768E-016,
67.));
#401=CARTESIAN_POINT('',(-5.69911389540687E-016,51.4136295138887,67.));
#402=CARTESIAN_POINT('',(36.3549260746835,36.3549260746835,67.));
#403=CARTESIAN_POINT($,(-5.69911389540687E-016,51.4136295138887,67.));
#404=CARTESIAN_POINT('',(-36.3549260746835,36.3549260746835,67.));
#405=CARTESIAN_POINT($,(-36.3549260746835,36.3549260746835,67.));
#406=CARTESIAN_POINT('',(-51.4136295138887,-1.58993293767484E-015,67.));
#407=CARTESIAN_POINT($,(-51.4136295138887,-1.58993293767484E-015,67.));
#408=CARTESIAN_POINT('',(-36.3549260746835,-36.3549260746835,67.));
#409=CARTESIAN_POINT($,(-36.3549260746835,-36.3549260746835,67.));
#410=CARTESIAN_POINT('',(-1.35838433775705E-014,-51.4136295138887,67.));
#411=CARTESIAN_POINT($,(-1.35838433775705E-014,-51.4136295138887,67.));
#412=CARTESIAN_POINT('',(36.3549260746835,-36.3549260746835,67.));
#413=CARTESIAN_POINT($,(36.3549260746835,-36.3549260746835,67.));
#414=CARTESIAN_POINT('',(51.4136295138887,-2.160662929535E-014,67.));
#415=CARTESIAN_POINT($,(51.4136295138887,-2.160662929535E-014,67.));
#416=CARTESIAN_POINT($,(36.3549260746835,36.3549260746835,67.));
#417=CARTESIAN_POINT('',(-5.51091059616309E-015,45.,67.));
#418=CARTESIAN_POINT('Origin',(0.,0.,67.));
#419=CARTESIAN_POINT('Origin',(-36.3549260746835,36.3549260746835,67.));
#420=CARTESIAN_POINT($,(-5.69911389540687E-016,51.4136295138887,67.));
#421=CARTESIAN_POINT($,(-36.3549260746835,36.3549260746835,67.));
#422=CARTESIAN_POINT('Origin',(-51.4136295138887,-1.58993293767484E-015,
67.));
#423=CARTESIAN_POINT($,(-51.4136295138887,-1.58993293767484E-015,67.));
#424=CARTESIAN_POINT('Origin',(-36.3549260746835,-36.3549260746835,67.));
#425=CARTESIAN_POINT($,(-36.3549260746835,-36.3549260746835,67.));
#426=CARTESIAN_POINT('Origin',(-1.35838433775705E-014,-51.4136295138887,
67.));
#427=CARTESIAN_POINT($,(-1.35838433775705E-014,-51.4136295138887,67.));
#428=CARTESIAN_POINT('Origin',(36.3549260746835,-36.3549260746835,67.));
#429=CARTESIAN_POINT($,(36.3549260746835,-36.3549260746835,67.));
#430=CARTESIAN_POINT('Origin',(51.4136295138887,-2.160662929535E-014,67.));
#431=CARTESIAN_POINT($,(51.4136295138887,-2.160662929535E-014,67.));
#432=CARTESIAN_POINT('Origin',(36.3549260746835,36.3549260746835,67.));
#433=CARTESIAN_POINT($,(36.3549260746835,36.3549260746835,67.));
#434=CARTESIAN_POINT('Origin',(-5.69911389540687E-016,51.4136295138887,
67.));
#435=CARTESIAN_POINT('Origin',(0.,0.,42.));
#436=CARTESIAN_POINT('',(0.,-45.,84.));
#437=CARTESIAN_POINT('Origin',(0.,0.,84.));
#438=CARTESIAN_POINT('Origin',(0.,-40.5565,84.));
#439=CARTESIAN_POINT('',(0.,-36.113,84.));
#440=CARTESIAN_POINT('Origin',(0.,0.,84.));
#441=CARTESIAN_POINT('Origin',(0.,0.,64.1));
#442=CARTESIAN_POINT('',(0.,-36.113,44.2));
#443=CARTESIAN_POINT('Origin',(0.,0.,44.2));
#444=CARTESIAN_POINT('Origin',(0.,-36.8065,44.2));
#445=CARTESIAN_POINT('',(0.,-37.5,44.2));
#446=CARTESIAN_POINT('Origin',(0.,0.,44.2));
#447=CARTESIAN_POINT('Origin',(0.,0.,22.1));
#448=CARTESIAN_POINT('',(0.,-37.5,0.));
#449=CARTESIAN_POINT('Origin',(0.,0.,0.));
#450=CARTESIAN_POINT('Origin',(0.,-41.25,0.));
#451=CARTESIAN_POINT('',(0.,-45.,0.));
#452=CARTESIAN_POINT('Origin',(0.,0.,0.));
#453=CARTESIAN_POINT('Origin',(0.,0.,42.));
#454=UNCERTAINTY_MEASURE_WITH_UNIT(LENGTH_MEASURE(0.01),#456,
'DISTANCE_ACCURACY_VALUE',
'Maximum model space distance between geometric entities at asserted c
onnectivities');
#455=(
GEOMETRIC_REPRESENTATION_CONTEXT(3)
GLOBAL_UNCERTAINTY_ASSIGNED_CONTEXT((#454))
GLOBAL_UNIT_ASSIGNED_CONTEXT((#456,#459,#457))
REPRESENTATION_CONTEXT('','3D')
);
#456=(
LENGTH_UNIT()
NAMED_UNIT(*)
SI_UNIT(.MILLI.,.METRE.)
);
#457=(
NAMED_UNIT(*)
SI_UNIT($,.STERADIAN.)
SOLID_ANGLE_UNIT()
);
#458=DIMENSIONAL_EXPONENTS(0.,0.,0.,0.,0.,0.,0.);
#459=(
CONVERSION_BASED_UNIT('degree',#461)
NAMED_UNIT(#458)
PLANE_ANGLE_UNIT()
);
#460=(
NAMED_UNIT(*)
PLANE_ANGLE_UNIT()
SI_UNIT($,.RADIAN.)
);
#461=PLANE_ANGLE_MEASURE_WITH_UNIT(PLANE_ANGLE_MEASURE(0.01745329252),#460);
#462=SHAPE_DEFINITION_REPRESENTATION(#463,#464);
#463=PRODUCT_DEFINITION_SHAPE('',$,#466);
#464=SHAPE_REPRESENTATION('',(#278),#455);
#465=PRODUCT_DEFINITION_CONTEXT('3D Mechanical Parts',#469,'design');
#466=PRODUCT_DEFINITION('DIFV090075212','DIFV090075212',#467,#465);
#467=PRODUCT_DEFINITION_FORMATION('',$,#471);
#468=APPLICATION_PROTOCOL_DEFINITION('international standard',
'automotive_design',2009,#469);
#469=APPLICATION_CONTEXT(
'Core Data for Automotive Mechanical Design Process');
#470=PRODUCT_CONTEXT('3D Mechanical Parts',#469,'mechanical');
#471=PRODUCT('DIFV090075212','DIFV090075212',$,(#470));
#472=PRESENTATION_STYLE_ASSIGNMENT((#474));
#473=PRESENTATION_STYLE_ASSIGNMENT((#475));
#474=SURFACE_STYLE_USAGE(.BOTH.,#476);
#475=SURFACE_STYLE_USAGE(.BOTH.,#477);
#476=SURFACE_SIDE_STYLE($,(#478));
#477=SURFACE_SIDE_STYLE($,(#479));
#478=SURFACE_STYLE_FILL_AREA(#480);
#479=SURFACE_STYLE_FILL_AREA(#481);
#480=FILL_AREA_STYLE($,(#482));
#481=FILL_AREA_STYLE($,(#483));
#482=FILL_AREA_STYLE_COLOUR($,#484);
#483=FILL_AREA_STYLE_COLOUR($,#485);
#484=COLOUR_RGB('',0.509803921568627,0.509803921568627,0.588235294117647);
#485=COLOUR_RGB('',1.,0.,0.);
ENDSEC;
END-ISO-10303-21;
